ISO-10303-21;
HEADER;
FILE_DESCRIPTION (( 'STEP AP214' ),
    '1' );
FILE_NAME ('83306.STEP',
    '2023-06-23T09:06:05',
    ( '' ),
    ( '' ),
    'SwSTEP 2.0',
    'SolidWorks 2023',
    '' );
FILE_SCHEMA (( 'AUTOMOTIVE_DESIGN' ));
ENDSEC;

DATA;
#1 = UNCERTAINTY_MEASURE_WITH_UNIT (LENGTH_MEASURE( 1.000000000000000082E-05 ), #101, 'distance_accuracy_value', 'NONE');
#2 = AXIS2_PLACEMENT_3D ( 'NONE', #239, #59, #24 ) ;
#3 = VERTEX_POINT ( 'NONE', #301 ) ;
#4 = DIRECTION ( 'NONE',  ( -3.498990854706722745E-17, 1.000000000000000000, -0.000000000000000000 ) ) ;
#5 = SURFACE_STYLE_USAGE ( .BOTH. , #97 ) ;
#6 = ORIENTED_EDGE ( 'NONE', *, *, #245, .T. ) ;
#7 = AXIS2_PLACEMENT_3D ( 'NONE', #196, #4, #274 ) ;
#8 = EDGE_LOOP ( 'NONE', ( #273, #172 ) ) ;
#9 =( LENGTH_UNIT ( ) NAMED_UNIT ( * ) SI_UNIT ( $, .METRE. ) );
#10 = DIRECTION ( 'NONE',  ( -0.000000000000000000, -1.000000000000000000, -0.000000000000000000 ) ) ;
#11 = CYLINDRICAL_SURFACE ( 'NONE', #282, 0.1562500000000000000 ) ;
#12 = DIRECTION ( 'NONE',  ( -3.498990854706722745E-17, 1.000000000000000000, -0.000000000000000000 ) ) ;
#13 = ADVANCED_FACE ( 'NONE', ( #177 ), #140, .T. ) ;
#14 = VECTOR ( 'NONE', #129, 39.37007874015748143 ) ;
#15 = DIRECTION ( 'NONE',  ( -1.000000000000000000, 0.000000000000000000, 0.000000000000000000 ) ) ;
#16 = DIRECTION ( 'NONE',  ( -3.498990854706722745E-17, 1.000000000000000000, -0.000000000000000000 ) ) ;
#17 =( NAMED_UNIT ( * ) SI_UNIT ( $, .STERADIAN. ) SOLID_ANGLE_UNIT ( ) );
#18 = CARTESIAN_POINT ( 'NONE',  ( 0.1562500000000000000, 2.500000000000000000, 1.913510623667739771E-17 ) ) ;
#19 = AXIS2_PLACEMENT_3D ( 'NONE', #175, #63, #228 ) ;
#20 = PRESENTATION_LAYER_ASSIGNMENT (  '', '', ( #115 ) ) ;
#21 =( NAMED_UNIT ( * ) PLANE_ANGLE_UNIT ( ) SI_UNIT ( $, .RADIAN. ) );
#22 = MECHANICAL_DESIGN_GEOMETRIC_PRESENTATION_REPRESENTATION (  '', ( #164 ), #198 ) ;
#23 = CYLINDRICAL_SURFACE ( 'NONE', #7, 0.1562500000000000278 ) ;
#24 = DIRECTION ( 'NONE',  ( 0.000000000000000000, 0.000000000000000000, -1.000000000000000000 ) ) ;
#25 = FILL_AREA_STYLE ('',( #237 ) ) ;
#26 = DIRECTION ( 'NONE',  ( -0.000000000000000000, -1.000000000000000000, -0.000000000000000000 ) ) ;
#27 = SURFACE_SIDE_STYLE ('',( #72 ) ) ;
#28 = ORIENTED_EDGE ( 'NONE', *, *, #136, .F. ) ;
#29 = CIRCLE ( 'NONE', #194, 0.1562500000000000000 ) ;
#30 = PRESENTATION_STYLE_ASSIGNMENT (( #5 ) ) ;
#31 = VERTEX_POINT ( 'NONE', #121 ) ;
#32 = DIRECTION ( 'NONE',  ( 0.000000000000000000, -0.000000000000000000, 1.000000000000000000 ) ) ;
#33 = FILL_AREA_STYLE_COLOUR ( '', #263 ) ;
#34 = ORIENTED_EDGE ( 'NONE', *, *, #109, .F. ) ;
#35 =( GEOMETRIC_REPRESENTATION_CONTEXT ( 3 ) GLOBAL_UNCERTAINTY_ASSIGNED_CONTEXT ( ( #52 ) ) GLOBAL_UNIT_ASSIGNED_CONTEXT ( ( #135, #139, #161 ) ) REPRESENTATION_CONTEXT ( 'NONE', 'WORKASPACE' ) );
#36 = PLANE ( 'NONE',  #182 ) ;
#37 = FACE_OUTER_BOUND ( 'NONE', #173, .T. ) ;
#38 = CYLINDRICAL_SURFACE ( 'NONE', #296, 0.1562500000000000000 ) ;
#39 = SURFACE_SIDE_STYLE ('',( #206 ) ) ;
#40 =( NAMED_UNIT ( * ) SI_UNIT ( $, .STERADIAN. ) SOLID_ANGLE_UNIT ( ) );
#41 = SURFACE_STYLE_USAGE ( .BOTH. , #81 ) ;
#42 = COLOUR_RGB ( '',1.000000000000000000, 0.000000000000000000, 0.000000000000000000 ) ;
#43 = DIRECTION ( 'NONE',  ( -1.000000000000000000, 0.000000000000000000, 0.000000000000000000 ) ) ;
#44 = MANIFOLD_SOLID_BREP ( 'Revolve - Tool Body (Straight Shanked)', #170 ) ;
#45 = LENGTH_MEASURE_WITH_UNIT ( LENGTH_MEASURE( 0.02539999999999999897 ), #257 );
#46 = VECTOR ( 'NONE', #268, 39.37007874015748143 ) ;
#47 = PRESENTATION_LAYER_ASSIGNMENT (  '', '', ( #256 ) ) ;
#48 = FACE_OUTER_BOUND ( 'NONE', #8, .T. ) ;
#49 = EDGE_LOOP ( 'NONE', ( #55, #217, #250, #248 ) ) ;
#50 = DIMENSIONAL_EXPONENTS ( 1.000000000000000000, 0.000000000000000000, 0.000000000000000000, 0.000000000000000000, 0.000000000000000000, 0.000000000000000000, 0.000000000000000000 ) ;
#51 = ORIENTED_EDGE ( 'NONE', *, *, #245, .F. ) ;
#52 = UNCERTAINTY_MEASURE_WITH_UNIT (LENGTH_MEASURE( 1.000000000000000082E-05 ), #135, 'distance_accuracy_value', 'NONE');
#53 = ORIENTED_EDGE ( 'NONE', *, *, #185, .T. ) ;
#54 = CIRCLE ( 'NONE', #181, 0.1562500000000000000 ) ;
#55 = ORIENTED_EDGE ( 'NONE', *, *, #56, .T. ) ;
#56 = EDGE_CURVE ( 'NONE', #195, #3, #54, .T. ) ;
#57 = PLANE ( 'NONE',  #158 ) ;
#58 = DIRECTION ( 'NONE',  ( -0.000000000000000000, -1.000000000000000000, -0.000000000000000000 ) ) ;
#59 = DIRECTION ( 'NONE',  ( 0.000000000000000000, -1.000000000000000000, -0.000000000000000000 ) ) ;
#60 = VERTEX_POINT ( 'NONE', #79 ) ;
#61 = FILL_AREA_STYLE_COLOUR ( '', #149 ) ;
#62 =( LENGTH_UNIT ( ) NAMED_UNIT ( * ) SI_UNIT ( $, .METRE. ) );
#63 = DIRECTION ( 'NONE',  ( -0.000000000000000000, -1.000000000000000000, -0.000000000000000000 ) ) ;
#64 =( NAMED_UNIT ( * ) PLANE_ANGLE_UNIT ( ) SI_UNIT ( $, .RADIAN. ) );
#65 = PRODUCT_RELATED_PRODUCT_CATEGORY ( 'part', '', ( #216 ) ) ;
#66 = CARTESIAN_POINT ( 'NONE',  ( 0.1562499999999999722, 2.500000000000000000, 1.913510623667739771E-17 ) ) ;
#67 = FILL_AREA_STYLE_COLOUR ( '', #163 ) ;
#68 = DIRECTION ( 'NONE',  ( -3.498990854706722745E-17, 1.000000000000000000, -0.000000000000000000 ) ) ;
#69 = CARTESIAN_POINT ( 'NONE',  ( -0.1562500000000001110, 2.500000000000000000, 0.000000000000000000 ) ) ;
#70 = AXIS2_PLACEMENT_3D ( 'NONE', #285, #108, #15 ) ;
#71 = MECHANICAL_DESIGN_GEOMETRIC_PRESENTATION_REPRESENTATION (  '', ( #256 ), #229 ) ;
#72 = SURFACE_STYLE_FILL_AREA ( #295 ) ;
#73 = AXIS2_PLACEMENT_3D ( 'NONE', #134, #58, #200 ) ;
#74 =( GEOMETRIC_REPRESENTATION_CONTEXT ( 3 ) GLOBAL_UNCERTAINTY_ASSIGNED_CONTEXT ( ( #243 ) ) GLOBAL_UNIT_ASSIGNED_CONTEXT ( ( #114, #241, #118 ) ) REPRESENTATION_CONTEXT ( 'NONE', 'WORKASPACE' ) );
#75 = ORIENTED_EDGE ( 'NONE', *, *, #109, .T. ) ;
#76 = ORIENTED_EDGE ( 'NONE', *, *, #293, .T. ) ;
#77 = EDGE_LOOP ( 'NONE', ( #166, #272 ) ) ;
#78 = DIRECTION ( 'NONE',  ( -1.000000000000000000, 0.000000000000000000, 0.000000000000000000 ) ) ;
#79 = CARTESIAN_POINT ( 'NONE',  ( 0.000000000000000000, 0.7500000000000001110, -0.1562500000000000000 ) ) ;
#80 = LENGTH_MEASURE_WITH_UNIT ( LENGTH_MEASURE( 0.02539999999999999897 ), #212 );
#81 = SURFACE_SIDE_STYLE ('',( #260 ) ) ;
#82 = FILL_AREA_STYLE_COLOUR ( '', #86 ) ;
#83 =( NAMED_UNIT ( * ) PLANE_ANGLE_UNIT ( ) SI_UNIT ( $, .RADIAN. ) );
#84 = UNCERTAINTY_MEASURE_WITH_UNIT (LENGTH_MEASURE( 1.000000000000000082E-05 ), #236, 'distance_accuracy_value', 'NONE');
#85 = ADVANCED_FACE ( 'NONE', ( #37 ), #306, .T. ) ;
#86 = COLOUR_RGB ( '',1.000000000000000000, 0.000000000000000000, 0.000000000000000000 ) ;
#87 = CLOSED_SHELL ( 'NONE', ( #96, #208, #271, #13 ) ) ;
#88 = MECHANICAL_DESIGN_GEOMETRIC_PRESENTATION_REPRESENTATION (  '', ( #115 ), #300 ) ;
#89 = EDGE_CURVE ( 'NONE', #98, #125, #157, .T. ) ;
#90 = FACE_OUTER_BOUND ( 'NONE', #49, .T. ) ;
#91 = CIRCLE ( 'NONE', #289, 0.1562500000000000833 ) ;
#92 = ORIENTED_EDGE ( 'NONE', *, *, #293, .F. ) ;
#93 = FACE_OUTER_BOUND ( 'NONE', #169, .T. ) ;
#94 = ORIENTED_EDGE ( 'NONE', *, *, #112, .T. ) ;
#95 = DIRECTION ( 'NONE',  ( 0.000000000000000000, 0.000000000000000000, -1.000000000000000000 ) ) ;
#96 = ADVANCED_FACE ( 'NONE', ( #180 ), #11, .T. ) ;
#97 = SURFACE_SIDE_STYLE ('',( #117 ) ) ;
#98 = VERTEX_POINT ( 'NONE', #110 ) ;
#99 =( GEOMETRIC_REPRESENTATION_CONTEXT ( 3 ) GLOBAL_UNCERTAINTY_ASSIGNED_CONTEXT ( ( #120 ) ) GLOBAL_UNIT_ASSIGNED_CONTEXT ( ( #249, #83, #40 ) ) REPRESENTATION_CONTEXT ( 'NONE', 'WORKASPACE' ) );
#100 = CARTESIAN_POINT ( 'NONE',  ( -0.1562500000000000000, 0.7499999999999998890, 0.000000000000000000 ) ) ;
#101 =( CONVERSION_BASED_UNIT ( 'INCH', #283 ) LENGTH_UNIT ( ) NAMED_UNIT ( #251 ) );
#102 = ORIENTED_EDGE ( 'NONE', *, *, #89, .T. ) ;
#103 = CARTESIAN_POINT ( 'NONE',  ( 9.564794532282251356E-35, 0.7500000000000001110, 0.000000000000000000 ) ) ;
#104 = CARTESIAN_POINT ( 'NONE',  ( 0.000000000000000000, 0.000000000000000000, -0.1562500000000000000 ) ) ;
#105 = DIRECTION ( 'NONE',  ( 0.000000000000000000, 0.000000000000000000, -1.000000000000000000 ) ) ;
#106 = STYLED_ITEM ( 'NONE', ( #138 ), #44 ) ;
#107 = DIRECTION ( 'NONE',  ( 0.000000000000000000, 1.000000000000000000, 0.000000000000000000 ) ) ;
#108 = DIRECTION ( 'NONE',  ( -3.498990854706722745E-17, 1.000000000000000000, -0.000000000000000000 ) ) ;
#109 = EDGE_CURVE ( 'NONE', #60, #244, #287, .T. ) ;
#110 = CARTESIAN_POINT ( 'NONE',  ( -0.1562500000000001388, 2.500000000000000000, 0.000000000000000000 ) ) ;
#111 = CIRCLE ( 'NONE', #19, 0.1562500000000000000 ) ;
#112 = EDGE_CURVE ( 'NONE', #195, #98, #232, .T. ) ;
#113 = APPLICATION_CONTEXT ( 'automotive_design' ) ;
#114 =( CONVERSION_BASED_UNIT ( 'INCH', #45 ) LENGTH_UNIT ( ) NAMED_UNIT ( #167 ) );
#115 = STYLED_ITEM ( 'NONE', ( #261 ), #271 ) ;
#116 = CIRCLE ( 'NONE', #254, 0.1562500000000000000 ) ;
#117 = SURFACE_STYLE_FILL_AREA ( #25 ) ;
#118 =( NAMED_UNIT ( * ) SI_UNIT ( $, .STERADIAN. ) SOLID_ANGLE_UNIT ( ) );
#119 = DIRECTION ( 'NONE',  ( -0.000000000000000000, -1.000000000000000000, -0.000000000000000000 ) ) ;
#120 = UNCERTAINTY_MEASURE_WITH_UNIT (LENGTH_MEASURE( 1.000000000000000082E-05 ), #249, 'distance_accuracy_value', 'NONE');
#121 = CARTESIAN_POINT ( 'NONE',  ( 1.913510623667739463E-17, 0.000000000000000000, 0.1562500000000000000 ) ) ;
#122 =( LENGTH_UNIT ( ) NAMED_UNIT ( * ) SI_UNIT ( $, .METRE. ) );
#123 = LINE ( 'NONE', #66, #14 ) ;
#124 = SHAPE_DEFINITION_REPRESENTATION ( #148, #267 ) ;
#125 = VERTEX_POINT ( 'NONE', #18 ) ;
#126 = CARTESIAN_POINT ( 'NONE',  ( 0.000000000000000000, 0.000000000000000000, 0.000000000000000000 ) ) ;
#127 = FILL_AREA_STYLE_COLOUR ( '', #213 ) ;
#128 = SURFACE_STYLE_USAGE ( .BOTH. , #39 ) ;
#129 = DIRECTION ( 'NONE',  ( -3.498990854706722745E-17, 1.000000000000000000, -0.000000000000000000 ) ) ;
#130 = LENGTH_MEASURE_WITH_UNIT ( LENGTH_MEASURE( 0.02539999999999999897 ), #62 );
#131 = CARTESIAN_POINT ( 'NONE',  ( 0.000000000000000000, 0.000000000000000000, 0.000000000000000000 ) ) ;
#132 = ADVANCED_FACE ( 'NONE', ( #90 ), #23, .T. ) ;
#133 = APPLICATION_PROTOCOL_DEFINITION ( 'draft international standard', 'automotive_design', 1998, #113 ) ;
#134 = CARTESIAN_POINT ( 'NONE',  ( 0.000000000000000000, 0.7500000000000001110, 0.000000000000000000 ) ) ;
#135 =( CONVERSION_BASED_UNIT ( 'INCH', #80 ) LENGTH_UNIT ( ) NAMED_UNIT ( #142 ) );
#136 = EDGE_CURVE ( 'NONE', #125, #98, #91, .T. ) ;
#137 = AXIS2_PLACEMENT_3D ( 'NONE', #126, #302, #284 ) ;
#138 = PRESENTATION_STYLE_ASSIGNMENT (( #176 ) ) ;
#139 =( NAMED_UNIT ( * ) PLANE_ANGLE_UNIT ( ) SI_UNIT ( $, .RADIAN. ) );
#140 = PLANE ( 'NONE',  #2 ) ;
#141 = EDGE_LOOP ( 'NONE', ( #76, #53 ) ) ;
#142 = DIMENSIONAL_EXPONENTS ( 1.000000000000000000, 0.000000000000000000, 0.000000000000000000, 0.000000000000000000, 0.000000000000000000, 0.000000000000000000, 0.000000000000000000 ) ;
#143 =( NAMED_UNIT ( * ) PLANE_ANGLE_UNIT ( ) SI_UNIT ( $, .RADIAN. ) );
#144 = ORIENTED_EDGE ( 'NONE', *, *, #233, .T. ) ;
#145 = CARTESIAN_POINT ( 'NONE',  ( -6.123233995736766036E-17, 2.500000000000000000, 0.000000000000000000 ) ) ;
#146 = FILL_AREA_STYLE ('',( #61 ) ) ;
#147 = EDGE_CURVE ( 'NONE', #60, #215, #207, .T. ) ;
#148 = PRODUCT_DEFINITION_SHAPE ( 'NONE', 'NONE',  #291 ) ;
#149 = COLOUR_RGB ( '',0.7921568627450980005, 0.8196078431372548767, 0.9333333333333333481 ) ;
#150 = DIRECTION ( 'NONE',  ( -3.498990854706722745E-17, 1.000000000000000000, 0.000000000000000000 ) ) ;
#151 = CARTESIAN_POINT ( 'NONE',  ( 0.000000000000000000, 0.000000000000000000, 0.000000000000000000 ) ) ;
#152 = LINE ( 'NONE', #183, #192 ) ;
#153 = FILL_AREA_STYLE ('',( #127 ) ) ;
#154 = FACE_OUTER_BOUND ( 'NONE', #197, .T. ) ;
#155 = DIRECTION ( 'NONE',  ( -1.000000000000000000, 0.000000000000000000, 0.000000000000000000 ) ) ;
#156 = LENGTH_MEASURE_WITH_UNIT ( LENGTH_MEASURE( 0.02539999999999999897 ), #122 );
#157 = CIRCLE ( 'NONE', #70, 0.1562500000000000833 ) ;
#158 = AXIS2_PLACEMENT_3D ( 'NONE', #211, #297, #168 ) ;
#159 = FILL_AREA_STYLE ('',( #67 ) ) ;
#160 =( NAMED_UNIT ( * ) PLANE_ANGLE_UNIT ( ) SI_UNIT ( $, .RADIAN. ) );
#161 =( NAMED_UNIT ( * ) SI_UNIT ( $, .STERADIAN. ) SOLID_ANGLE_UNIT ( ) );
#162 = PRESENTATION_LAYER_ASSIGNMENT (  '', '', ( #303 ) ) ;
#163 = COLOUR_RGB ( '',1.000000000000000000, 0.000000000000000000, 0.000000000000000000 ) ;
#164 = STYLED_ITEM ( 'NONE', ( #186 ), #96 ) ;
#165 = DIMENSIONAL_EXPONENTS ( 1.000000000000000000, 0.000000000000000000, 0.000000000000000000, 0.000000000000000000, 0.000000000000000000, 0.000000000000000000, 0.000000000000000000 ) ;
#166 = ORIENTED_EDGE ( 'NONE', *, *, #147, .F. ) ;
#167 = DIMENSIONAL_EXPONENTS ( 1.000000000000000000, 0.000000000000000000, 0.000000000000000000, 0.000000000000000000, 0.000000000000000000, 0.000000000000000000, 0.000000000000000000 ) ;
#168 = DIRECTION ( 'NONE',  ( 1.000000000000000000, 3.498990854706722745E-17, 0.000000000000000000 ) ) ;
#169 = EDGE_LOOP ( 'NONE', ( #102, #278 ) ) ;
#170 = CLOSED_SHELL ( 'NONE', ( #132, #265, #85, #309 ) ) ;
#171 = AXIS2_PLACEMENT_3D ( 'NONE', #227, #12, #279 ) ;
#172 = ORIENTED_EDGE ( 'NONE', *, *, #233, .F. ) ;
#173 = EDGE_LOOP ( 'NONE', ( #240, #144, #94, #28 ) ) ;
#174 = PRODUCT_CONTEXT ( 'NONE', #113, 'mechanical' ) ;
#175 = CARTESIAN_POINT ( 'NONE',  ( 0.000000000000000000, 0.7500000000000001110, 0.000000000000000000 ) ) ;
#176 = SURFACE_STYLE_USAGE ( .BOTH. , #27 ) ;
#177 = FACE_OUTER_BOUND ( 'NONE', #141, .T. ) ;
#178 = DIRECTION ( 'NONE',  ( -0.000000000000000000, -1.000000000000000000, -0.000000000000000000 ) ) ;
#179 = SURFACE_STYLE_FILL_AREA ( #153 ) ;
#180 = FACE_OUTER_BOUND ( 'NONE', #199, .T. ) ;
#181 = AXIS2_PLACEMENT_3D ( 'NONE', #305, #68, #155 ) ;
#182 = AXIS2_PLACEMENT_3D ( 'NONE', #247, #107, #32 ) ;
#183 = CARTESIAN_POINT ( 'NONE',  ( 1.913510623667739463E-17, 0.000000000000000000, 0.1562500000000000000 ) ) ;
#184 = SURFACE_STYLE_USAGE ( .BOTH. , #203 ) ;
#185 = EDGE_CURVE ( 'NONE', #31, #244, #116, .T. ) ;
#186 = PRESENTATION_STYLE_ASSIGNMENT (( #128 ) ) ;
#187 = SURFACE_SIDE_STYLE ('',( #218 ) ) ;
#188 = DIRECTION ( 'NONE',  ( 0.000000000000000000, 0.000000000000000000, -1.000000000000000000 ) ) ;
#189 = DIRECTION ( 'NONE',  ( -3.498990854706722745E-17, 1.000000000000000000, -0.000000000000000000 ) ) ;
#190 = MECHANICAL_DESIGN_GEOMETRIC_PRESENTATION_REPRESENTATION (  '', ( #191 ), #35 ) ;
#191 = STYLED_ITEM ( 'NONE', ( #30 ), #13 ) ;
#192 = VECTOR ( 'NONE', #178, 39.37007874015748143 ) ;
#193 = UNCERTAINTY_MEASURE_WITH_UNIT (LENGTH_MEASURE( 1.000000000000000082E-05 ), #269, 'distance_accuracy_value', 'NONE');
#194 = AXIS2_PLACEMENT_3D ( 'NONE', #238, #26, #95 ) ;
#195 = VERTEX_POINT ( 'NONE', #100 ) ;
#196 = CARTESIAN_POINT ( 'NONE',  ( -6.123233995736766036E-17, 2.500000000000000000, 0.000000000000000000 ) ) ;
#197 = EDGE_LOOP ( 'NONE', ( #51, #298, #75, #222 ) ) ;
#198 =( GEOMETRIC_REPRESENTATION_CONTEXT ( 3 ) GLOBAL_UNCERTAINTY_ASSIGNED_CONTEXT ( ( #1 ) ) GLOBAL_UNIT_ASSIGNED_CONTEXT ( ( #101, #64, #17 ) ) REPRESENTATION_CONTEXT ( 'NONE', 'WORKASPACE' ) );
#199 = EDGE_LOOP ( 'NONE', ( #275, #6, #92, #34 ) ) ;
#200 = DIRECTION ( 'NONE',  ( 0.000000000000000000, 0.000000000000000000, -1.000000000000000000 ) ) ;
#201 =( LENGTH_UNIT ( ) NAMED_UNIT ( * ) SI_UNIT ( $, .METRE. ) );
#202 = EDGE_CURVE ( 'NONE', #215, #60, #111, .T. ) ;
#203 = SURFACE_SIDE_STYLE ('',( #179 ) ) ;
#204 = MECHANICAL_DESIGN_GEOMETRIC_PRESENTATION_REPRESENTATION (  '', ( #303 ), #74 ) ;
#205 = CARTESIAN_POINT ( 'NONE',  ( 1.913510623667739463E-17, 0.7500000000000001110, 0.1562500000000000000 ) ) ;
#206 = SURFACE_STYLE_FILL_AREA ( #266 ) ;
#207 = CIRCLE ( 'NONE', #73, 0.1562500000000000000 ) ;
#208 = ADVANCED_FACE ( 'NONE', ( #253 ), #36, .T. ) ;
#209 =( NAMED_UNIT ( * ) SI_UNIT ( $, .STERADIAN. ) SOLID_ANGLE_UNIT ( ) );
#210 = PRESENTATION_LAYER_ASSIGNMENT (  '', '', ( #191 ) ) ;
#211 = CARTESIAN_POINT ( 'NONE',  ( 0.1562500000000000000, 2.500000000000000000, 0.000000000000000000 ) ) ;
#212 =( LENGTH_UNIT ( ) NAMED_UNIT ( * ) SI_UNIT ( $, .METRE. ) );
#213 = COLOUR_RGB ( '',1.000000000000000000, 0.000000000000000000, 0.000000000000000000 ) ;
#214 = DIRECTION ( 'NONE',  ( 0.000000000000000000, 0.000000000000000000, -1.000000000000000000 ) ) ;
#215 = VERTEX_POINT ( 'NONE', #205 ) ;
#216 = PRODUCT ( '83306', '83306', '', ( #174 ) ) ;
#217 = ORIENTED_EDGE ( 'NONE', *, *, #255, .T. ) ;
#218 = SURFACE_STYLE_FILL_AREA ( #146 ) ;
#219 = DIMENSIONAL_EXPONENTS ( 1.000000000000000000, 0.000000000000000000, 0.000000000000000000, 0.000000000000000000, 0.000000000000000000, 0.000000000000000000, 0.000000000000000000 ) ;
#220 = VECTOR ( 'NONE', #288, 39.37007874015748143 ) ;
#221 = CIRCLE ( 'NONE', #171, 0.1562500000000000000 ) ;
#222 = ORIENTED_EDGE ( 'NONE', *, *, #185, .F. ) ;
#223 = SURFACE_STYLE_USAGE ( .BOTH. , #187 ) ;
#224 = PLANE ( 'NONE',  #290 ) ;
#225 = DIRECTION ( 'NONE',  ( -0.000000000000000000, -1.000000000000000000, -0.000000000000000000 ) ) ;
#226 = LENGTH_MEASURE_WITH_UNIT ( LENGTH_MEASURE( 0.02539999999999999897 ), #9 );
#227 = CARTESIAN_POINT ( 'NONE',  ( -7.582401355855259480E-33, 0.7499999999999998890, 0.000000000000000000 ) ) ;
#228 = DIRECTION ( 'NONE',  ( 0.000000000000000000, 0.000000000000000000, -1.000000000000000000 ) ) ;
#229 =( GEOMETRIC_REPRESENTATION_CONTEXT ( 3 ) GLOBAL_UNCERTAINTY_ASSIGNED_CONTEXT ( ( #84 ) ) GLOBAL_UNIT_ASSIGNED_CONTEXT ( ( #236, #21, #209 ) ) REPRESENTATION_CONTEXT ( 'NONE', 'WORKASPACE' ) );
#230 = APPLICATION_PROTOCOL_DEFINITION ( 'draft international standard', 'automotive_design', 1998, #246 ) ;
#231 =( LENGTH_UNIT ( ) NAMED_UNIT ( * ) SI_UNIT ( $, .METRE. ) );
#232 = LINE ( 'NONE', #69, #46 ) ;
#233 = EDGE_CURVE ( 'NONE', #3, #195, #221, .T. ) ;
#234 = PRESENTATION_LAYER_ASSIGNMENT (  '', '', ( #164 ) ) ;
#235 = UNCERTAINTY_MEASURE_WITH_UNIT (LENGTH_MEASURE( 1.000000000000000082E-05 ), #280, 'distance_accuracy_value', 'NONE');
#236 =( CONVERSION_BASED_UNIT ( 'INCH', #226 ) LENGTH_UNIT ( ) NAMED_UNIT ( #165 ) );
#237 = FILL_AREA_STYLE_COLOUR ( '', #42 ) ;
#238 = CARTESIAN_POINT ( 'NONE',  ( 0.000000000000000000, 0.000000000000000000, 0.000000000000000000 ) ) ;
#239 = CARTESIAN_POINT ( 'NONE',  ( 0.000000000000000000, 0.000000000000000000, 0.000000000000000000 ) ) ;
#240 = ORIENTED_EDGE ( 'NONE', *, *, #255, .F. ) ;
#241 =( NAMED_UNIT ( * ) PLANE_ANGLE_UNIT ( ) SI_UNIT ( $, .RADIAN. ) );
#242 = MECHANICAL_DESIGN_GEOMETRIC_PRESENTATION_REPRESENTATION (  '', ( #106 ), #299 ) ;
#243 = UNCERTAINTY_MEASURE_WITH_UNIT (LENGTH_MEASURE( 1.000000000000000082E-05 ), #114, 'distance_accuracy_value', 'NONE');
#244 = VERTEX_POINT ( 'NONE', #104 ) ;
#245 = EDGE_CURVE ( 'NONE', #215, #31, #152, .T. ) ;
#246 = APPLICATION_CONTEXT ( 'automotive_design' ) ;
#247 = CARTESIAN_POINT ( 'NONE',  ( 0.000000000000000000, 0.7500000000000001110, 0.000000000000000000 ) ) ;
#248 = ORIENTED_EDGE ( 'NONE', *, *, #112, .F. ) ;
#249 =( CONVERSION_BASED_UNIT ( 'INCH', #130 ) LENGTH_UNIT ( ) NAMED_UNIT ( #276 ) );
#250 = ORIENTED_EDGE ( 'NONE', *, *, #89, .F. ) ;
#251 = DIMENSIONAL_EXPONENTS ( 1.000000000000000000, 0.000000000000000000, 0.000000000000000000, 0.000000000000000000, 0.000000000000000000, 0.000000000000000000, 0.000000000000000000 ) ;
#252 = PRESENTATION_STYLE_ASSIGNMENT (( #223 ) ) ;
#253 = FACE_OUTER_BOUND ( 'NONE', #77, .T. ) ;
#254 = AXIS2_PLACEMENT_3D ( 'NONE', #131, #10, #188 ) ;
#255 = EDGE_CURVE ( 'NONE', #3, #125, #123, .T. ) ;
#256 = STYLED_ITEM ( 'NONE', ( #252 ), #264 ) ;
#257 =( LENGTH_UNIT ( ) NAMED_UNIT ( * ) SI_UNIT ( $, .METRE. ) );
#258 = DIRECTION ( 'NONE',  ( -1.000000000000000000, -3.498990854706722745E-17, 0.000000000000000000 ) ) ;
#259 = CARTESIAN_POINT ( 'NONE',  ( -6.123233995736766036E-17, 2.500000000000000000, 0.000000000000000000 ) ) ;
#260 = SURFACE_STYLE_FILL_AREA ( #159 ) ;
#261 = PRESENTATION_STYLE_ASSIGNMENT (( #41 ) ) ;
#262 = CARTESIAN_POINT ( 'NONE',  ( 0.000000000000000000, 0.000000000000000000, -0.1562500000000000000 ) ) ;
#263 = COLOUR_RGB ( '',0.7921568627450980005, 0.8196078431372548767, 0.9333333333333333481 ) ;
#264 = MANIFOLD_SOLID_BREP ( 'Revolve - Cutting Edge', #87 ) ;
#265 = ADVANCED_FACE ( 'NONE', ( #48 ), #224, .F. ) ;
#266 = FILL_AREA_STYLE ('',( #82 ) ) ;
#267 = ADVANCED_BREP_SHAPE_REPRESENTATION ( '83306', ( #264, #44, #137 ), #99 ) ;
#268 = DIRECTION ( 'NONE',  ( -3.498990854706722745E-17, 1.000000000000000000, -0.000000000000000000 ) ) ;
#269 =( CONVERSION_BASED_UNIT ( 'INCH', #292 ) LENGTH_UNIT ( ) NAMED_UNIT ( #50 ) );
#270 = PRESENTATION_LAYER_ASSIGNMENT (  '', '', ( #106 ) ) ;
#271 = ADVANCED_FACE ( 'NONE', ( #154 ), #38, .T. ) ;
#272 = ORIENTED_EDGE ( 'NONE', *, *, #202, .F. ) ;
#273 = ORIENTED_EDGE ( 'NONE', *, *, #56, .F. ) ;
#274 = DIRECTION ( 'NONE',  ( -1.000000000000000000, 0.000000000000000000, 0.000000000000000000 ) ) ;
#275 = ORIENTED_EDGE ( 'NONE', *, *, #147, .T. ) ;
#276 = DIMENSIONAL_EXPONENTS ( 1.000000000000000000, 0.000000000000000000, 0.000000000000000000, 0.000000000000000000, 0.000000000000000000, 0.000000000000000000, 0.000000000000000000 ) ;
#277 =( NAMED_UNIT ( * ) SI_UNIT ( $, .STERADIAN. ) SOLID_ANGLE_UNIT ( ) );
#278 = ORIENTED_EDGE ( 'NONE', *, *, #136, .T. ) ;
#279 = DIRECTION ( 'NONE',  ( -1.000000000000000000, 0.000000000000000000, 0.000000000000000000 ) ) ;
#280 =( CONVERSION_BASED_UNIT ( 'INCH', #156 ) LENGTH_UNIT ( ) NAMED_UNIT ( #219 ) );
#281 = PRESENTATION_STYLE_ASSIGNMENT (( #184 ) ) ;
#282 = AXIS2_PLACEMENT_3D ( 'NONE', #151, #225, #105 ) ;
#283 = LENGTH_MEASURE_WITH_UNIT ( LENGTH_MEASURE( 0.02539999999999999897 ), #201 );
#284 = DIRECTION ( 'NONE',  ( 1.000000000000000000, 0.000000000000000000, 0.000000000000000000 ) ) ;
#285 = CARTESIAN_POINT ( 'NONE',  ( -6.123233995736766036E-17, 2.500000000000000000, 0.000000000000000000 ) ) ;
#286 = PRODUCT_DEFINITION_CONTEXT ( 'detailed design', #246, 'design' ) ;
#287 = LINE ( 'NONE', #262, #220 ) ;
#288 = DIRECTION ( 'NONE',  ( -0.000000000000000000, -1.000000000000000000, -0.000000000000000000 ) ) ;
#289 = AXIS2_PLACEMENT_3D ( 'NONE', #145, #16, #78 ) ;
#290 = AXIS2_PLACEMENT_3D ( 'NONE', #103, #150, #258 ) ;
#291 = PRODUCT_DEFINITION ( 'UNKNOWN', '', #304, #286 ) ;
#292 = LENGTH_MEASURE_WITH_UNIT ( LENGTH_MEASURE( 0.02539999999999999897 ), #231 );
#293 = EDGE_CURVE ( 'NONE', #244, #31, #29, .T. ) ;
#294 = CARTESIAN_POINT ( 'NONE',  ( 0.000000000000000000, 0.000000000000000000, 0.000000000000000000 ) ) ;
#295 = FILL_AREA_STYLE ('',( #33 ) ) ;
#296 = AXIS2_PLACEMENT_3D ( 'NONE', #294, #119, #214 ) ;
#297 = DIRECTION ( 'NONE',  ( 3.498990854706722745E-17, -1.000000000000000000, 0.000000000000000000 ) ) ;
#298 = ORIENTED_EDGE ( 'NONE', *, *, #202, .T. ) ;
#299 =( GEOMETRIC_REPRESENTATION_CONTEXT ( 3 ) GLOBAL_UNCERTAINTY_ASSIGNED_CONTEXT ( ( #235 ) ) GLOBAL_UNIT_ASSIGNED_CONTEXT ( ( #280, #160, #307 ) ) REPRESENTATION_CONTEXT ( 'NONE', 'WORKASPACE' ) );
#300 =( GEOMETRIC_REPRESENTATION_CONTEXT ( 3 ) GLOBAL_UNCERTAINTY_ASSIGNED_CONTEXT ( ( #193 ) ) GLOBAL_UNIT_ASSIGNED_CONTEXT ( ( #269, #143, #277 ) ) REPRESENTATION_CONTEXT ( 'NONE', 'WORKASPACE' ) );
#301 = CARTESIAN_POINT ( 'NONE',  ( 0.1562500000000000000, 0.7499999999999998890, 1.913510623667739771E-17 ) ) ;
#302 = DIRECTION ( 'NONE',  ( 0.000000000000000000, 0.000000000000000000, 1.000000000000000000 ) ) ;
#303 = STYLED_ITEM ( 'NONE', ( #281 ), #208 ) ;
#304 = PRODUCT_DEFINITION_FORMATION_WITH_SPECIFIED_SOURCE ( 'ANY', '', #216, .NOT_KNOWN. ) ;
#305 = CARTESIAN_POINT ( 'NONE',  ( -7.582401355855259480E-33, 0.7499999999999998890, 0.000000000000000000 ) ) ;
#306 = CYLINDRICAL_SURFACE ( 'NONE', #308, 0.1562500000000000278 ) ;
#307 =( NAMED_UNIT ( * ) SI_UNIT ( $, .STERADIAN. ) SOLID_ANGLE_UNIT ( ) );
#308 = AXIS2_PLACEMENT_3D ( 'NONE', #259, #189, #43 ) ;
#309 = ADVANCED_FACE ( 'NONE', ( #93 ), #57, .F. ) ;
ENDSEC;
END-ISO-10303-21;
