ISO-10303-21;
HEADER;
FILE_DESCRIPTION (( 'STEP AP214' ),
    '1' );
FILE_NAME ('59830.STEP',
    '2023-07-12T13:07:00',
    ( '' ),
    ( '' ),
    'SwSTEP 2.0',
    'SolidWorks 2023',
    '' );
FILE_SCHEMA (( 'AUTOMOTIVE_DESIGN' ));
ENDSEC;

DATA;
#1 =( NAMED_UNIT ( * ) SI_UNIT ( $, .STERADIAN. ) SOLID_ANGLE_UNIT ( ) );
#2 =( LENGTH_UNIT ( ) NAMED_UNIT ( * ) SI_UNIT ( $, .METRE. ) );
#3 = SHAPE_DEFINITION_REPRESENTATION ( #302, #116 ) ;
#4 =( GEOMETRIC_REPRESENTATION_CONTEXT ( 3 ) GLOBAL_UNCERTAINTY_ASSIGNED_CONTEXT ( ( #208 ) ) GLOBAL_UNIT_ASSIGNED_CONTEXT ( ( #78, #241, #169 ) ) REPRESENTATION_CONTEXT ( 'NONE', 'WORKASPACE' ) );
#5 = CARTESIAN_POINT ( 'NONE',  ( 1.449978133535231054E-18, 0.1212435565298207590, 0.000000000000000000 ) ) ;
#6 = MECHANICAL_DESIGN_GEOMETRIC_PRESENTATION_REPRESENTATION (  '', ( #55 ), #66 ) ;
#7 = DIRECTION ( 'NONE',  ( -1.212658365454024817E-16, 1.000000000000000000, -0.000000000000000000 ) ) ;
#8 = DIRECTION ( 'NONE',  ( 0.8660254037844397068, 0.4999999999999979461, 1.060575238724908024E-16 ) ) ;
#9 = ORIENTED_EDGE ( 'NONE', *, *, #216, .T. ) ;
#10 = DIMENSIONAL_EXPONENTS ( 1.000000000000000000, 0.000000000000000000, 0.000000000000000000, 0.000000000000000000, 0.000000000000000000, 0.000000000000000000, 0.000000000000000000 ) ;
#11 = ORIENTED_EDGE ( 'NONE', *, *, #288, .F. ) ;
#12 = FACE_OUTER_BOUND ( 'NONE', #202, .T. ) ;
#13 = AXIS2_PLACEMENT_3D ( 'NONE', #41, #17, #128 ) ;
#14 = DIRECTION ( 'NONE',  ( -1.195921808165201785E-17, -1.000000000000000000, -0.000000000000000000 ) ) ;
#15 = CLOSED_SHELL ( 'NONE', ( #81, #141, #88, #224 ) ) ;
#16 = PRESENTATION_STYLE_ASSIGNMENT (( #99 ) ) ;
#17 = DIRECTION ( 'NONE',  ( -1.195921808165201785E-17, -1.000000000000000000, -0.000000000000000000 ) ) ;
#18 = DIRECTION ( 'NONE',  ( -1.212658365454024817E-16, 1.000000000000000000, -0.000000000000000000 ) ) ;
#19 = CIRCLE ( 'NONE', #255, 0.2500000000000000555 ) ;
#20 = EDGE_CURVE ( 'NONE', #110, #30, #120, .T. ) ;
#21 = CARTESIAN_POINT ( 'NONE',  ( -0.2499999999999994449, 0.1212435565298207590, 0.000000000000000000 ) ) ;
#22 = CARTESIAN_POINT ( 'NONE',  ( -6.123233995736772199E-17, 3.000000000000000444, 0.000000000000000000 ) ) ;
#23 = ADVANCED_FACE ( 'NONE', ( #68 ), #73, .T. ) ;
#24 = FILL_AREA_STYLE_COLOUR ( '', #189 ) ;
#25 = DIRECTION ( 'NONE',  ( -1.000000000000000000, 0.000000000000000000, 0.000000000000000000 ) ) ;
#26 = AXIS2_PLACEMENT_3D ( 'NONE', #85, #180, #90 ) ;
#27 =( NAMED_UNIT ( * ) SI_UNIT ( $, .STERADIAN. ) SOLID_ANGLE_UNIT ( ) );
#28 =( GEOMETRIC_REPRESENTATION_CONTEXT ( 3 ) GLOBAL_UNCERTAINTY_ASSIGNED_CONTEXT ( ( #94 ) ) GLOBAL_UNIT_ASSIGNED_CONTEXT ( ( #250, #303, #154 ) ) REPRESENTATION_CONTEXT ( 'NONE', 'WORKASPACE' ) );
#29 = FILL_AREA_STYLE ('',( #31 ) ) ;
#30 = VERTEX_POINT ( 'NONE', #185 ) ;
#31 = FILL_AREA_STYLE_COLOUR ( '', #109 ) ;
#32 = PRESENTATION_LAYER_ASSIGNMENT (  '', '', ( #42 ) ) ;
#33 = CARTESIAN_POINT ( 'NONE',  ( -0.04000000000000000083, 9.567374465321613513E-19, 0.000000000000000000 ) ) ;
#34 = SURFACE_STYLE_FILL_AREA ( #50 ) ;
#35 = EDGE_CURVE ( 'NONE', #218, #170, #136, .T. ) ;
#36 = AXIS2_PLACEMENT_3D ( 'NONE', #269, #172, #25 ) ;
#37 = ADVANCED_FACE ( 'NONE', ( #304 ), #92, .T. ) ;
#38 = STYLED_ITEM ( 'NONE', ( #183 ), #160 ) ;
#39 = PRESENTATION_STYLE_ASSIGNMENT (( #284 ) ) ;
#40 = DIRECTION ( 'NONE',  ( 1.000000000000000000, 0.000000000000000000, 0.000000000000000000 ) ) ;
#41 = CARTESIAN_POINT ( 'NONE',  ( 5.720915884980502567E-36, 4.783687232660806757E-19, 0.000000000000000000 ) ) ;
#42 = STYLED_ITEM ( 'NONE', ( #16 ), #37 ) ;
#43 = EDGE_LOOP ( 'NONE', ( #69, #156, #246, #9 ) ) ;
#44 = VECTOR ( 'NONE', #285, 39.37007874015748143 ) ;
#45 = ORIENTED_EDGE ( 'NONE', *, *, #299, .F. ) ;
#46 = APPLICATION_CONTEXT ( 'automotive_design' ) ;
#47 = EDGE_LOOP ( 'NONE', ( #168, #291 ) ) ;
#48 = APPLICATION_CONTEXT ( 'automotive_design' ) ;
#49 = DIRECTION ( 'NONE',  ( 1.000000000000000000, -1.195921808165201631E-17, 0.000000000000000000 ) ) ;
#50 = FILL_AREA_STYLE ('',( #161 ) ) ;
#51 = ORIENTED_EDGE ( 'NONE', *, *, #20, .T. ) ;
#52 = CARTESIAN_POINT ( 'NONE',  ( -0.04000000000000000083, 9.567374465321613513E-19, 0.000000000000000000 ) ) ;
#53 = EDGE_CURVE ( 'NONE', #170, #218, #238, .T. ) ;
#54 = EDGE_LOOP ( 'NONE', ( #137, #273 ) ) ;
#55 = STYLED_ITEM ( 'NONE', ( #96 ), #23 ) ;
#56 = COLOUR_RGB ( '',0.7921568627450980005, 0.8196078431372548767, 0.9333333333333333481 ) ;
#57 = DIRECTION ( 'NONE',  ( -1.000000000000000000, -1.212658365454024817E-16, 0.000000000000000000 ) ) ;
#58 = CARTESIAN_POINT ( 'NONE',  ( 0.2500000000000000000, 0.1212435565298207868, 3.061616997868383634E-17 ) ) ;
#59 = DIRECTION ( 'NONE',  ( -1.000000000000000000, 1.195921808165201631E-17, 0.000000000000000000 ) ) ;
#60 = DIRECTION ( 'NONE',  ( 0.000000000000000000, 0.000000000000000000, 1.000000000000000000 ) ) ;
#61 = SURFACE_SIDE_STYLE ('',( #282 ) ) ;
#62 = LENGTH_MEASURE_WITH_UNIT ( LENGTH_MEASURE( 0.02539999999999999897 ), #231 );
#63 = EDGE_CURVE ( 'NONE', #106, #110, #79, .T. ) ;
#64 = CARTESIAN_POINT ( 'NONE',  ( -0.2500000000000001110, 3.000000000000000444, 0.000000000000000000 ) ) ;
#65 = VECTOR ( 'NONE', #84, 39.37007874015748854 ) ;
#66 =( GEOMETRIC_REPRESENTATION_CONTEXT ( 3 ) GLOBAL_UNCERTAINTY_ASSIGNED_CONTEXT ( ( #190 ) ) GLOBAL_UNIT_ASSIGNED_CONTEXT ( ( #70, #148, #240 ) ) REPRESENTATION_CONTEXT ( 'NONE', 'WORKASPACE' ) );
#67 = CARTESIAN_POINT ( 'NONE',  ( 1.449978133535231439E-18, 0.1212435565298207868, 0.000000000000000000 ) ) ;
#68 = FACE_OUTER_BOUND ( 'NONE', #43, .T. ) ;
#69 = ORIENTED_EDGE ( 'NONE', *, *, #63, .F. ) ;
#70 =( CONVERSION_BASED_UNIT ( 'INCH', #125 ) LENGTH_UNIT ( ) NAMED_UNIT ( #76 ) );
#71 = CLOSED_SHELL ( 'NONE', ( #251, #37, #23, #160 ) ) ;
#72 = AXIS2_PLACEMENT_3D ( 'NONE', #197, #297, #219 ) ;
#73 = CONICAL_SURFACE ( 'NONE', #140, 0.04000000000000000083, 1.047197551196600074 ) ;
#74 = ORIENTED_EDGE ( 'NONE', *, *, #35, .T. ) ;
#75 = CYLINDRICAL_SURFACE ( 'NONE', #36, 0.2499999999999998890 ) ;
#76 = DIMENSIONAL_EXPONENTS ( 1.000000000000000000, 0.000000000000000000, 0.000000000000000000, 0.000000000000000000, 0.000000000000000000, 0.000000000000000000, 0.000000000000000000 ) ;
#77 = DIRECTION ( 'NONE',  ( 1.000000000000000000, 1.212658365454024817E-16, 0.000000000000000000 ) ) ;
#78 =( CONVERSION_BASED_UNIT ( 'INCH', #167 ) LENGTH_UNIT ( ) NAMED_UNIT ( #83 ) );
#79 = LINE ( 'NONE', #195, #175 ) ;
#80 = FACE_OUTER_BOUND ( 'NONE', #239, .T. ) ;
#81 = ADVANCED_FACE ( 'NONE', ( #294 ), #75, .T. ) ;
#82 =( NAMED_UNIT ( * ) SI_UNIT ( $, .STERADIAN. ) SOLID_ANGLE_UNIT ( ) );
#83 = DIMENSIONAL_EXPONENTS ( 1.000000000000000000, 0.000000000000000000, 0.000000000000000000, 0.000000000000000000, 0.000000000000000000, 0.000000000000000000, 0.000000000000000000 ) ;
#84 = DIRECTION ( 'NONE',  ( -0.8660254037844397068, 0.4999999999999979461, 0.000000000000000000 ) ) ;
#85 = CARTESIAN_POINT ( 'NONE',  ( 2.860457942490251284E-36, 2.391843616330403378E-19, 0.000000000000000000 ) ) ;
#86 = COLOUR_RGB ( '',1.000000000000000000, 0.000000000000000000, 0.000000000000000000 ) ;
#87 = PRESENTATION_LAYER_ASSIGNMENT (  '', '', ( #55 ) ) ;
#88 = ADVANCED_FACE ( 'NONE', ( #132 ), #107, .T. ) ;
#89 = PRESENTATION_STYLE_ASSIGNMENT (( #201 ) ) ;
#90 = DIRECTION ( 'NONE',  ( 1.000000000000000000, -1.195921808165201940E-17, 0.000000000000000000 ) ) ;
#91 = UNCERTAINTY_MEASURE_WITH_UNIT (LENGTH_MEASURE( 1.000000000000000082E-05 ), #173, 'distance_accuracy_value', 'NONE');
#92 = PLANE ( 'NONE',  #164 ) ;
#93 = MECHANICAL_DESIGN_GEOMETRIC_PRESENTATION_REPRESENTATION (  '', ( #38 ), #211 ) ;
#94 = UNCERTAINTY_MEASURE_WITH_UNIT (LENGTH_MEASURE( 1.000000000000000082E-05 ), #250, 'distance_accuracy_value', 'NONE');
#95 = DIRECTION ( 'NONE',  ( 1.195921808165201785E-17, 1.000000000000000000, 0.000000000000000000 ) ) ;
#96 = PRESENTATION_STYLE_ASSIGNMENT (( #283 ) ) ;
#97 = UNCERTAINTY_MEASURE_WITH_UNIT (LENGTH_MEASURE( 1.000000000000000082E-05 ), #166, 'distance_accuracy_value', 'NONE');
#98 = VERTEX_POINT ( 'NONE', #33 ) ;
#99 = SURFACE_STYLE_USAGE ( .BOTH. , #61 ) ;
#100 = FILL_AREA_STYLE_COLOUR ( '', #194 ) ;
#101 = DIRECTION ( 'NONE',  ( -1.000000000000000000, 0.000000000000000000, 0.000000000000000000 ) ) ;
#102 = DIRECTION ( 'NONE',  ( 1.195921808165201940E-17, 1.000000000000000000, 0.000000000000000000 ) ) ;
#103 = ORIENTED_EDGE ( 'NONE', *, *, #261, .F. ) ;
#104 = CIRCLE ( 'NONE', #115, 0.04000000000000000083 ) ;
#105 = DIRECTION ( 'NONE',  ( -1.212658365454024817E-16, 1.000000000000000000, -0.000000000000000000 ) ) ;
#106 = VERTEX_POINT ( 'NONE', #270 ) ;
#107 = CYLINDRICAL_SURFACE ( 'NONE', #72, 0.2499999999999998890 ) ;
#108 = DIMENSIONAL_EXPONENTS ( 1.000000000000000000, 0.000000000000000000, 0.000000000000000000, 0.000000000000000000, 0.000000000000000000, 0.000000000000000000, 0.000000000000000000 ) ;
#109 = COLOUR_RGB ( '',1.000000000000000000, 0.000000000000000000, 0.000000000000000000 ) ;
#110 = VERTEX_POINT ( 'NONE', #58 ) ;
#111 = PRESENTATION_LAYER_ASSIGNMENT (  '', '', ( #38 ) ) ;
#112 = PRODUCT_DEFINITION_CONTEXT ( 'detailed design', #46, 'design' ) ;
#113 =( LENGTH_UNIT ( ) NAMED_UNIT ( * ) SI_UNIT ( $, .METRE. ) );
#114 = CARTESIAN_POINT ( 'NONE',  ( 2.878624683705112206E-16, 0.1212435565298207452, 0.000000000000000000 ) ) ;
#115 = AXIS2_PLACEMENT_3D ( 'NONE', #171, #242, #49 ) ;
#116 = ADVANCED_BREP_SHAPE_REPRESENTATION ( '59830', ( #159, #253, #300 ), #258 ) ;
#117 = LENGTH_MEASURE_WITH_UNIT ( LENGTH_MEASURE( 0.02539999999999999897 ), #247 );
#118 =( LENGTH_UNIT ( ) NAMED_UNIT ( * ) SI_UNIT ( $, .METRE. ) );
#119 = EDGE_CURVE ( 'NONE', #98, #30, #276, .T. ) ;
#120 = CIRCLE ( 'NONE', #292, 0.2500000000000000000 ) ;
#121 = MECHANICAL_DESIGN_GEOMETRIC_PRESENTATION_REPRESENTATION (  '', ( #199 ), #157 ) ;
#122 = SURFACE_SIDE_STYLE ('',( #232 ) ) ;
#123 =( NAMED_UNIT ( * ) SI_UNIT ( $, .STERADIAN. ) SOLID_ANGLE_UNIT ( ) );
#124 = EDGE_CURVE ( 'NONE', #254, #295, #209, .T. ) ;
#125 = LENGTH_MEASURE_WITH_UNIT ( LENGTH_MEASURE( 0.02539999999999999897 ), #2 );
#126 = CARTESIAN_POINT ( 'NONE',  ( 0.2500000000000000000, 0.1212435565298208284, 3.061616997868382402E-17 ) ) ;
#127 = AXIS2_PLACEMENT_3D ( 'NONE', #264, #130, #279 ) ;
#128 = DIRECTION ( 'NONE',  ( 1.000000000000000000, -1.195921808165201631E-17, 0.000000000000000000 ) ) ;
#129 = PRESENTATION_LAYER_ASSIGNMENT (  '', '', ( #229 ) ) ;
#130 = DIRECTION ( 'NONE',  ( 1.195921808165201785E-17, 1.000000000000000000, 0.000000000000000000 ) ) ;
#131 = FILL_AREA_STYLE ('',( #24 ) ) ;
#132 = FACE_OUTER_BOUND ( 'NONE', #134, .T. ) ;
#133 = EDGE_LOOP ( 'NONE', ( #74, #237, #290, #103 ) ) ;
#134 = EDGE_LOOP ( 'NONE', ( #11, #178, #262, #271 ) ) ;
#135 = FACE_OUTER_BOUND ( 'NONE', #47, .T. ) ;
#136 = CIRCLE ( 'NONE', #263, 0.2499999999999997224 ) ;
#137 = ORIENTED_EDGE ( 'NONE', *, *, #216, .F. ) ;
#138 = PLANE ( 'NONE',  #244 ) ;
#139 = PRODUCT_DEFINITION_FORMATION_WITH_SPECIFIED_SOURCE ( 'ANY', '', #182, .NOT_KNOWN. ) ;
#140 = AXIS2_PLACEMENT_3D ( 'NONE', #186, #95, #59 ) ;
#141 = ADVANCED_FACE ( 'NONE', ( #12 ), #138, .F. ) ;
#142 =( NAMED_UNIT ( * ) PLANE_ANGLE_UNIT ( ) SI_UNIT ( $, .RADIAN. ) );
#143 = PRESENTATION_LAYER_ASSIGNMENT (  '', '', ( #199 ) ) ;
#144 = CARTESIAN_POINT ( 'NONE',  ( 0.000000000000000000, 0.000000000000000000, 0.000000000000000000 ) ) ;
#145 = DIMENSIONAL_EXPONENTS ( 1.000000000000000000, 0.000000000000000000, 0.000000000000000000, 0.000000000000000000, 0.000000000000000000, 0.000000000000000000, 0.000000000000000000 ) ;
#146 = CARTESIAN_POINT ( 'NONE',  ( -0.2499999999999999722, 3.000000000000000444, 0.000000000000000000 ) ) ;
#147 = STYLED_ITEM ( 'NONE', ( #39 ), #253 ) ;
#148 =( NAMED_UNIT ( * ) PLANE_ANGLE_UNIT ( ) SI_UNIT ( $, .RADIAN. ) );
#149 = PRODUCT_DEFINITION ( 'UNKNOWN', '', #139, #112 ) ;
#150 = PLANE ( 'NONE',  #275 ) ;
#151 = VECTOR ( 'NONE', #18, 39.37007874015748143 ) ;
#152 = ORIENTED_EDGE ( 'NONE', *, *, #53, .F. ) ;
#153 = SURFACE_SIDE_STYLE ('',( #245 ) ) ;
#154 =( NAMED_UNIT ( * ) SI_UNIT ( $, .STERADIAN. ) SOLID_ANGLE_UNIT ( ) );
#155 = DIRECTION ( 'NONE',  ( -1.212658365454024817E-16, 1.000000000000000000, -0.000000000000000000 ) ) ;
#156 = ORIENTED_EDGE ( 'NONE', *, *, #220, .F. ) ;
#157 =( GEOMETRIC_REPRESENTATION_CONTEXT ( 3 ) GLOBAL_UNCERTAINTY_ASSIGNED_CONTEXT ( ( #91 ) ) GLOBAL_UNIT_ASSIGNED_CONTEXT ( ( #173, #266, #27 ) ) REPRESENTATION_CONTEXT ( 'NONE', 'WORKASPACE' ) );
#158 = MECHANICAL_DESIGN_GEOMETRIC_PRESENTATION_REPRESENTATION (  '', ( #42 ), #4 ) ;
#159 = MANIFOLD_SOLID_BREP ( 'Revolve - Cutting Edge', #71 ) ;
#160 = ADVANCED_FACE ( 'NONE', ( #301 ), #177, .T. ) ;
#161 = FILL_AREA_STYLE_COLOUR ( '', #56 ) ;
#162 = PRODUCT_RELATED_PRODUCT_CATEGORY ( 'part', '', ( #182 ) ) ;
#163 = SURFACE_SIDE_STYLE ('',( #221 ) ) ;
#164 = AXIS2_PLACEMENT_3D ( 'NONE', #5, #102, #265 ) ;
#165 =( CONVERSION_BASED_UNIT ( 'INCH', #280 ) LENGTH_UNIT ( ) NAMED_UNIT ( #267 ) );
#166 =( CONVERSION_BASED_UNIT ( 'INCH', #62 ) LENGTH_UNIT ( ) NAMED_UNIT ( #108 ) );
#167 = LENGTH_MEASURE_WITH_UNIT ( LENGTH_MEASURE( 0.02539999999999999897 ), #260 );
#168 = ORIENTED_EDGE ( 'NONE', *, *, #124, .T. ) ;
#169 =( NAMED_UNIT ( * ) SI_UNIT ( $, .STERADIAN. ) SOLID_ANGLE_UNIT ( ) );
#170 = VERTEX_POINT ( 'NONE', #126 ) ;
#171 = CARTESIAN_POINT ( 'NONE',  ( 5.720915884980502567E-36, 4.783687232660806757E-19, 0.000000000000000000 ) ) ;
#172 = DIRECTION ( 'NONE',  ( -1.212658365454024817E-16, 1.000000000000000000, -0.000000000000000000 ) ) ;
#173 =( CONVERSION_BASED_UNIT ( 'INCH', #192 ) LENGTH_UNIT ( ) NAMED_UNIT ( #10 ) );
#174 = DIRECTION ( 'NONE',  ( -1.000000000000000000, -1.365923996832133088E-16, 0.000000000000000000 ) ) ;
#175 = VECTOR ( 'NONE', #8, 39.37007874015748854 ) ;
#176 = SURFACE_STYLE_USAGE ( .BOTH. , #153 ) ;
#177 = PLANE ( 'NONE',  #26 ) ;
#178 = ORIENTED_EDGE ( 'NONE', *, *, #53, .T. ) ;
#179 = DIRECTION ( 'NONE',  ( -1.000000000000000000, 0.000000000000000000, 0.000000000000000000 ) ) ;
#180 = DIRECTION ( 'NONE',  ( -1.195921808165201940E-17, -1.000000000000000000, 0.000000000000000000 ) ) ;
#181 = COLOUR_RGB ( '',0.7921568627450980005, 0.8196078431372548767, 0.9333333333333333481 ) ;
#182 = PRODUCT ( '59830', '59830', '', ( #281 ) ) ;
#183 = PRESENTATION_STYLE_ASSIGNMENT (( #278 ) ) ;
#184 = DIRECTION ( 'NONE',  ( -1.195921808165201785E-17, -1.000000000000000000, -0.000000000000000000 ) ) ;
#185 = CARTESIAN_POINT ( 'NONE',  ( -0.2500000000000000000, 0.1212435565298207868, 0.000000000000000000 ) ) ;
#186 = CARTESIAN_POINT ( 'NONE',  ( 5.720915884980502567E-36, 4.783687232660806757E-19, 0.000000000000000000 ) ) ;
#187 = FILL_AREA_STYLE ('',( #309 ) ) ;
#188 = CARTESIAN_POINT ( 'NONE',  ( 2.878624683705112206E-16, 0.1212435565298208007, 0.000000000000000000 ) ) ;
#189 = COLOUR_RGB ( '',1.000000000000000000, 0.000000000000000000, 0.000000000000000000 ) ;
#190 = UNCERTAINTY_MEASURE_WITH_UNIT (LENGTH_MEASURE( 1.000000000000000082E-05 ), #70, 'distance_accuracy_value', 'NONE');
#191 = FILL_AREA_STYLE ('',( #100 ) ) ;
#192 = LENGTH_MEASURE_WITH_UNIT ( LENGTH_MEASURE( 0.02539999999999999897 ), #298 );
#193 = EDGE_LOOP ( 'NONE', ( #268, #217 ) ) ;
#194 = COLOUR_RGB ( '',1.000000000000000000, 0.000000000000000000, 0.000000000000000000 ) ;
#195 = CARTESIAN_POINT ( 'NONE',  ( 0.04000000000000000083, 0.000000000000000000, 4.898587196589413537E-18 ) ) ;
#196 = CARTESIAN_POINT ( 'NONE',  ( 0.2500000000000000000, 3.000000000000000444, 0.000000000000000000 ) ) ;
#197 = CARTESIAN_POINT ( 'NONE',  ( -6.123233995736772199E-17, 3.000000000000000444, 0.000000000000000000 ) ) ;
#198 = DIRECTION ( 'NONE',  ( 1.212658365454024817E-16, -1.000000000000000000, 0.000000000000000000 ) ) ;
#199 = STYLED_ITEM ( 'NONE', ( #215 ), #251 ) ;
#200 =( NAMED_UNIT ( * ) PLANE_ANGLE_UNIT ( ) SI_UNIT ( $, .RADIAN. ) );
#201 = SURFACE_STYLE_USAGE ( .BOTH. , #274 ) ;
#202 = EDGE_LOOP ( 'NONE', ( #248, #152 ) ) ;
#203 = CIRCLE ( 'NONE', #243, 0.2500000000000000000 ) ;
#204 = DIRECTION ( 'NONE',  ( -1.212658365454024817E-16, 1.000000000000000000, 0.000000000000000000 ) ) ;
#205 = LINE ( 'NONE', #305, #151 ) ;
#206 = DIRECTION ( 'NONE',  ( -1.000000000000000000, -1.365923996832133088E-16, 0.000000000000000000 ) ) ;
#207 = APPLICATION_PROTOCOL_DEFINITION ( 'draft international standard', 'automotive_design', 1998, #46 ) ;
#208 = UNCERTAINTY_MEASURE_WITH_UNIT (LENGTH_MEASURE( 1.000000000000000082E-05 ), #78, 'distance_accuracy_value', 'NONE');
#209 = CIRCLE ( 'NONE', #249, 0.2500000000000000555 ) ;
#210 = CARTESIAN_POINT ( 'NONE',  ( 0.2500000000000000000, 3.000000000000000444, 3.061616997868382402E-17 ) ) ;
#211 =( GEOMETRIC_REPRESENTATION_CONTEXT ( 3 ) GLOBAL_UNCERTAINTY_ASSIGNED_CONTEXT ( ( #277 ) ) GLOBAL_UNIT_ASSIGNED_CONTEXT ( ( #252, #200, #82 ) ) REPRESENTATION_CONTEXT ( 'NONE', 'WORKASPACE' ) );
#212 = CARTESIAN_POINT ( 'NONE',  ( 2.878624683705112206E-16, 0.1212435565298208007, 0.000000000000000000 ) ) ;
#213 = DIMENSIONAL_EXPONENTS ( 1.000000000000000000, 0.000000000000000000, 0.000000000000000000, 0.000000000000000000, 0.000000000000000000, 0.000000000000000000, 0.000000000000000000 ) ;
#214 = CIRCLE ( 'NONE', #13, 0.04000000000000000083 ) ;
#215 = PRESENTATION_STYLE_ASSIGNMENT (( #176 ) ) ;
#216 = EDGE_CURVE ( 'NONE', #30, #110, #203, .T. ) ;
#217 = ORIENTED_EDGE ( 'NONE', *, *, #299, .T. ) ;
#218 = VERTEX_POINT ( 'NONE', #21 ) ;
#219 = DIRECTION ( 'NONE',  ( -1.000000000000000000, 0.000000000000000000, 0.000000000000000000 ) ) ;
#220 = EDGE_CURVE ( 'NONE', #98, #106, #104, .T. ) ;
#221 = SURFACE_STYLE_FILL_AREA ( #29 ) ;
#222 = ORIENTED_EDGE ( 'NONE', *, *, #63, .T. ) ;
#223 = LENGTH_MEASURE_WITH_UNIT ( LENGTH_MEASURE( 0.02539999999999999897 ), #113 );
#224 = ADVANCED_FACE ( 'NONE', ( #135 ), #150, .F. ) ;
#225 = MECHANICAL_DESIGN_GEOMETRIC_PRESENTATION_REPRESENTATION (  '', ( #229 ), #28 ) ;
#226 = CARTESIAN_POINT ( 'NONE',  ( 1.449978133535231439E-18, 0.1212435565298207868, 0.000000000000000000 ) ) ;
#227 = LINE ( 'NONE', #146, #44 ) ;
#228 = APPLICATION_PROTOCOL_DEFINITION ( 'draft international standard', 'automotive_design', 1998, #48 ) ;
#229 = STYLED_ITEM ( 'NONE', ( #89 ), #159 ) ;
#230 = DIRECTION ( 'NONE',  ( 1.000000000000000000, 0.000000000000000000, 0.000000000000000000 ) ) ;
#231 =( LENGTH_UNIT ( ) NAMED_UNIT ( * ) SI_UNIT ( $, .METRE. ) );
#232 = SURFACE_STYLE_FILL_AREA ( #191 ) ;
#233 =( NAMED_UNIT ( * ) PLANE_ANGLE_UNIT ( ) SI_UNIT ( $, .RADIAN. ) );
#234 = DIRECTION ( 'NONE',  ( 1.000000000000000000, 0.000000000000000000, 0.000000000000000000 ) ) ;
#235 = FILL_AREA_STYLE_COLOUR ( '', #86 ) ;
#236 = EDGE_CURVE ( 'NONE', #295, #254, #19, .T. ) ;
#237 = ORIENTED_EDGE ( 'NONE', *, *, #288, .T. ) ;
#238 = CIRCLE ( 'NONE', #307, 0.2499999999999997224 ) ;
#239 = EDGE_LOOP ( 'NONE', ( #45, #222, #51, #296 ) ) ;
#240 =( NAMED_UNIT ( * ) SI_UNIT ( $, .STERADIAN. ) SOLID_ANGLE_UNIT ( ) );
#241 =( NAMED_UNIT ( * ) PLANE_ANGLE_UNIT ( ) SI_UNIT ( $, .RADIAN. ) );
#242 = DIRECTION ( 'NONE',  ( -1.195921808165201785E-17, -1.000000000000000000, -0.000000000000000000 ) ) ;
#243 = AXIS2_PLACEMENT_3D ( 'NONE', #67, #184, #234 ) ;
#244 = AXIS2_PLACEMENT_3D ( 'NONE', #114, #204, #57 ) ;
#245 = SURFACE_STYLE_FILL_AREA ( #131 ) ;
#246 = ORIENTED_EDGE ( 'NONE', *, *, #119, .T. ) ;
#247 =( LENGTH_UNIT ( ) NAMED_UNIT ( * ) SI_UNIT ( $, .METRE. ) );
#248 = ORIENTED_EDGE ( 'NONE', *, *, #35, .F. ) ;
#249 = AXIS2_PLACEMENT_3D ( 'NONE', #272, #155, #179 ) ;
#250 =( CONVERSION_BASED_UNIT ( 'INCH', #117 ) LENGTH_UNIT ( ) NAMED_UNIT ( #213 ) );
#251 = ADVANCED_FACE ( 'NONE', ( #80 ), #306, .T. ) ;
#252 =( CONVERSION_BASED_UNIT ( 'INCH', #223 ) LENGTH_UNIT ( ) NAMED_UNIT ( #145 ) );
#253 = MANIFOLD_SOLID_BREP ( 'Revolve - Tool Body (Tipped Off)', #15 ) ;
#254 = VERTEX_POINT ( 'NONE', #64 ) ;
#255 = AXIS2_PLACEMENT_3D ( 'NONE', #22, #7, #101 ) ;
#256 = SURFACE_SIDE_STYLE ('',( #257 ) ) ;
#257 = SURFACE_STYLE_FILL_AREA ( #187 ) ;
#258 =( GEOMETRIC_REPRESENTATION_CONTEXT ( 3 ) GLOBAL_UNCERTAINTY_ASSIGNED_CONTEXT ( ( #97 ) ) GLOBAL_UNIT_ASSIGNED_CONTEXT ( ( #166, #233, #1 ) ) REPRESENTATION_CONTEXT ( 'NONE', 'WORKASPACE' ) );
#259 = PRESENTATION_LAYER_ASSIGNMENT (  '', '', ( #147 ) ) ;
#260 =( LENGTH_UNIT ( ) NAMED_UNIT ( * ) SI_UNIT ( $, .METRE. ) );
#261 = EDGE_CURVE ( 'NONE', #218, #254, #227, .T. ) ;
#262 = ORIENTED_EDGE ( 'NONE', *, *, #261, .T. ) ;
#263 = AXIS2_PLACEMENT_3D ( 'NONE', #188, #287, #206 ) ;
#264 = CARTESIAN_POINT ( 'NONE',  ( 5.720915884980502567E-36, 4.783687232660806757E-19, 0.000000000000000000 ) ) ;
#265 = DIRECTION ( 'NONE',  ( -1.000000000000000000, 1.195921808165201940E-17, 0.000000000000000000 ) ) ;
#266 =( NAMED_UNIT ( * ) PLANE_ANGLE_UNIT ( ) SI_UNIT ( $, .RADIAN. ) );
#267 = DIMENSIONAL_EXPONENTS ( 1.000000000000000000, 0.000000000000000000, 0.000000000000000000, 0.000000000000000000, 0.000000000000000000, 0.000000000000000000, 0.000000000000000000 ) ;
#268 = ORIENTED_EDGE ( 'NONE', *, *, #220, .T. ) ;
#269 = CARTESIAN_POINT ( 'NONE',  ( -6.123233995736772199E-17, 3.000000000000000444, 0.000000000000000000 ) ) ;
#270 = CARTESIAN_POINT ( 'NONE',  ( 0.04000000000000000083, 0.000000000000000000, 1.775737858763662224E-17 ) ) ;
#271 = ORIENTED_EDGE ( 'NONE', *, *, #236, .F. ) ;
#272 = CARTESIAN_POINT ( 'NONE',  ( -6.123233995736772199E-17, 3.000000000000000444, 0.000000000000000000 ) ) ;
#273 = ORIENTED_EDGE ( 'NONE', *, *, #20, .F. ) ;
#274 = SURFACE_SIDE_STYLE ('',( #34 ) ) ;
#275 = AXIS2_PLACEMENT_3D ( 'NONE', #196, #198, #77 ) ;
#276 = LINE ( 'NONE', #52, #65 ) ;
#277 = UNCERTAINTY_MEASURE_WITH_UNIT (LENGTH_MEASURE( 1.000000000000000082E-05 ), #252, 'distance_accuracy_value', 'NONE');
#278 = SURFACE_STYLE_USAGE ( .BOTH. , #163 ) ;
#279 = DIRECTION ( 'NONE',  ( -1.000000000000000000, 1.195921808165201631E-17, 0.000000000000000000 ) ) ;
#280 = LENGTH_MEASURE_WITH_UNIT ( LENGTH_MEASURE( 0.02539999999999999897 ), #118 );
#281 = PRODUCT_CONTEXT ( 'NONE', #48, 'mechanical' ) ;
#282 = SURFACE_STYLE_FILL_AREA ( #308 ) ;
#283 = SURFACE_STYLE_USAGE ( .BOTH. , #122 ) ;
#284 = SURFACE_STYLE_USAGE ( .BOTH. , #256 ) ;
#285 = DIRECTION ( 'NONE',  ( -1.212658365454024817E-16, 1.000000000000000000, -0.000000000000000000 ) ) ;
#286 = UNCERTAINTY_MEASURE_WITH_UNIT (LENGTH_MEASURE( 1.000000000000000082E-05 ), #165, 'distance_accuracy_value', 'NONE');
#287 = DIRECTION ( 'NONE',  ( -1.212658365454024817E-16, 1.000000000000000000, -0.000000000000000000 ) ) ;
#288 = EDGE_CURVE ( 'NONE', #170, #295, #205, .T. ) ;
#289 =( GEOMETRIC_REPRESENTATION_CONTEXT ( 3 ) GLOBAL_UNCERTAINTY_ASSIGNED_CONTEXT ( ( #286 ) ) GLOBAL_UNIT_ASSIGNED_CONTEXT ( ( #165, #142, #123 ) ) REPRESENTATION_CONTEXT ( 'NONE', 'WORKASPACE' ) );
#290 = ORIENTED_EDGE ( 'NONE', *, *, #124, .F. ) ;
#291 = ORIENTED_EDGE ( 'NONE', *, *, #236, .T. ) ;
#292 = AXIS2_PLACEMENT_3D ( 'NONE', #226, #14, #230 ) ;
#293 = MECHANICAL_DESIGN_GEOMETRIC_PRESENTATION_REPRESENTATION (  '', ( #147 ), #289 ) ;
#294 = FACE_OUTER_BOUND ( 'NONE', #133, .T. ) ;
#295 = VERTEX_POINT ( 'NONE', #210 ) ;
#296 = ORIENTED_EDGE ( 'NONE', *, *, #119, .F. ) ;
#297 = DIRECTION ( 'NONE',  ( -1.212658365454024817E-16, 1.000000000000000000, -0.000000000000000000 ) ) ;
#298 =( LENGTH_UNIT ( ) NAMED_UNIT ( * ) SI_UNIT ( $, .METRE. ) );
#299 = EDGE_CURVE ( 'NONE', #106, #98, #214, .T. ) ;
#300 = AXIS2_PLACEMENT_3D ( 'NONE', #144, #60, #40 ) ;
#301 = FACE_OUTER_BOUND ( 'NONE', #193, .T. ) ;
#302 = PRODUCT_DEFINITION_SHAPE ( 'NONE', 'NONE',  #149 ) ;
#303 =( NAMED_UNIT ( * ) PLANE_ANGLE_UNIT ( ) SI_UNIT ( $, .RADIAN. ) );
#304 = FACE_OUTER_BOUND ( 'NONE', #54, .T. ) ;
#305 = CARTESIAN_POINT ( 'NONE',  ( 0.2499999999999998335, 3.000000000000000444, 3.061616997868381785E-17 ) ) ;
#306 = CONICAL_SURFACE ( 'NONE', #127, 0.04000000000000000083, 1.047197551196600074 ) ;
#307 = AXIS2_PLACEMENT_3D ( 'NONE', #212, #105, #174 ) ;
#308 = FILL_AREA_STYLE ('',( #235 ) ) ;
#309 = FILL_AREA_STYLE_COLOUR ( '', #181 ) ;
ENDSEC;
END-ISO-10303-21;
