ISO-10303-21;
HEADER;
FILE_DESCRIPTION (( 'STEP AP214' ),
    '1' );
FILE_NAME ('82952.STEP',
    '2023-06-23T07:34:03',
    ( '' ),
    ( '' ),
    'SwSTEP 2.0',
    'SolidWorks 2023',
    '' );
FILE_SCHEMA (( 'AUTOMOTIVE_DESIGN' ));
ENDSEC;

DATA;
#1 = ORIENTED_EDGE ( 'NONE', *, *, #203, .T. ) ;
#2 = EDGE_LOOP ( 'NONE', ( #237, #250, #48, #301 ) ) ;
#3 = AXIS2_PLACEMENT_3D ( 'NONE', #126, #228, #258 ) ;
#4 = CARTESIAN_POINT ( 'NONE',  ( -1.358900375221237887E-18, 0.6054980216144648653, 0.000000000000000000 ) ) ;
#5 = MECHANICAL_DESIGN_GEOMETRIC_PRESENTATION_REPRESENTATION (  '', ( #354 ), #53 ) ;
#6 = AXIS2_PLACEMENT_3D ( 'NONE', #158, #277, #351 ) ;
#7 = ORIENTED_EDGE ( 'NONE', *, *, #10, .F. ) ;
#8 = DIRECTION ( 'NONE',  ( 0.000000000000000000, 0.000000000000000000, -1.000000000000000000 ) ) ;
#9 = APPLICATION_PROTOCOL_DEFINITION ( 'draft international standard', 'automotive_design', 1998, #179 ) ;
#10 = EDGE_CURVE ( 'NONE', #265, #80, #334, .T. ) ;
#11 = CARTESIAN_POINT ( 'NONE',  ( 0.09374999999999994449, 2.500000000000000000, 1.148106374200643863E-17 ) ) ;
#12 =( CONVERSION_BASED_UNIT ( 'INCH', #137 ) LENGTH_UNIT ( ) NAMED_UNIT ( #226 ) );
#13 = SURFACE_SIDE_STYLE ('',( #37 ) ) ;
#14 = PLANE ( 'NONE',  #51 ) ;
#15 = SURFACE_STYLE_USAGE ( .BOTH. , #13 ) ;
#16 = ORIENTED_EDGE ( 'NONE', *, *, #205, .T. ) ;
#17 = DIRECTION ( 'NONE',  ( 0.000000000000000000, -1.000000000000000000, -0.000000000000000000 ) ) ;
#18 = PRESENTATION_LAYER_ASSIGNMENT (  '', '', ( #298 ) ) ;
#19 = PRESENTATION_LAYER_ASSIGNMENT (  '', '', ( #313 ) ) ;
#20 = ORIENTED_EDGE ( 'NONE', *, *, #337, .T. ) ;
#21 = AXIS2_PLACEMENT_3D ( 'NONE', #4, #97, #45 ) ;
#22 = ADVANCED_FACE ( 'NONE', ( #252 ), #227, .F. ) ;
#23 = PRODUCT ( '82952', '82952', '', ( #321 ) ) ;
#24 = DIRECTION ( 'NONE',  ( -3.160378836509298460E-17, 1.000000000000000000, -0.000000000000000000 ) ) ;
#25 = EDGE_LOOP ( 'NONE', ( #41, #254 ) ) ;
#26 = VERTEX_POINT ( 'NONE', #197 ) ;
#27 = ORIENTED_EDGE ( 'NONE', *, *, #357, .F. ) ;
#28 = COLOUR_RGB ( '',1.000000000000000000, 0.000000000000000000, 0.000000000000000000 ) ;
#29 = ADVANCED_BREP_SHAPE_REPRESENTATION ( '82952', ( #60, #316, #264 ), #90 ) ;
#30 = FILL_AREA_STYLE ('',( #323 ) ) ;
#31 = UNCERTAINTY_MEASURE_WITH_UNIT (LENGTH_MEASURE( 1.000000000000000082E-05 ), #273, 'distance_accuracy_value', 'NONE');
#32 = AXIS2_PLACEMENT_3D ( 'NONE', #109, #218, #8 ) ;
#33 = MECHANICAL_DESIGN_GEOMETRIC_PRESENTATION_REPRESENTATION (  '', ( #313 ), #178 ) ;
#34 = LENGTH_MEASURE_WITH_UNIT ( LENGTH_MEASURE( 0.02539999999999999897 ), #343 );
#35 = CARTESIAN_POINT ( 'NONE',  ( -0.07810000000000000275, 0.5625000000000001110, 0.000000000000000000 ) ) ;
#36 = COLOUR_RGB ( '',0.7921568627450980005, 0.8196078431372548767, 0.9333333333333333481 ) ;
#37 = SURFACE_STYLE_FILL_AREA ( #327 ) ;
#38 = FACE_OUTER_BOUND ( 'NONE', #86, .T. ) ;
#39 = FACE_OUTER_BOUND ( 'NONE', #275, .T. ) ;
#40 =( LENGTH_UNIT ( ) NAMED_UNIT ( * ) SI_UNIT ( $, .METRE. ) );
#41 = ORIENTED_EDGE ( 'NONE', *, *, #128, .F. ) ;
#42 = MECHANICAL_DESIGN_GEOMETRIC_PRESENTATION_REPRESENTATION (  '', ( #276 ), #330 ) ;
#43 = PRESENTATION_STYLE_ASSIGNMENT (( #15 ) ) ;
#44 =( GEOMETRIC_REPRESENTATION_CONTEXT ( 3 ) GLOBAL_UNCERTAINTY_ASSIGNED_CONTEXT ( ( #96 ) ) GLOBAL_UNIT_ASSIGNED_CONTEXT ( ( #12, #214, #76 ) ) REPRESENTATION_CONTEXT ( 'NONE', 'WORKASPACE' ) );
#45 = DIRECTION ( 'NONE',  ( -1.000000000000000000, 0.000000000000000000, 0.000000000000000000 ) ) ;
#46 = ADVANCED_FACE ( 'NONE', ( #148 ), #319, .T. ) ;
#47 = PLANE ( 'NONE',  #59 ) ;
#48 = ORIENTED_EDGE ( 'NONE', *, *, #154, .F. ) ;
#49 =( NAMED_UNIT ( * ) PLANE_ANGLE_UNIT ( ) SI_UNIT ( $, .RADIAN. ) );
#50 = ORIENTED_EDGE ( 'NONE', *, *, #176, .F. ) ;
#51 = AXIS2_PLACEMENT_3D ( 'NONE', #138, #74, #116 ) ;
#52 = FACE_OUTER_BOUND ( 'NONE', #2, .T. ) ;
#53 =( GEOMETRIC_REPRESENTATION_CONTEXT ( 3 ) GLOBAL_UNCERTAINTY_ASSIGNED_CONTEXT ( ( #262 ) ) GLOBAL_UNIT_ASSIGNED_CONTEXT ( ( #287, #283, #94 ) ) REPRESENTATION_CONTEXT ( 'NONE', 'WORKASPACE' ) );
#54 =( LENGTH_UNIT ( ) NAMED_UNIT ( * ) SI_UNIT ( $, .METRE. ) );
#55 = UNCERTAINTY_MEASURE_WITH_UNIT (LENGTH_MEASURE( 1.000000000000000082E-05 ), #173, 'distance_accuracy_value', 'NONE');
#56 = DIRECTION ( 'NONE',  ( -1.000000000000000000, 0.000000000000000000, 0.000000000000000000 ) ) ;
#57 = ORIENTED_EDGE ( 'NONE', *, *, #85, .F. ) ;
#58 = SURFACE_STYLE_FILL_AREA ( #92 ) ;
#59 = AXIS2_PLACEMENT_3D ( 'NONE', #289, #87, #103 ) ;
#60 = MANIFOLD_SOLID_BREP ( 'Revolve - Cutting Edge', #342 ) ;
#61 = DIRECTION ( 'NONE',  ( -0.000000000000000000, -1.000000000000000000, -0.000000000000000000 ) ) ;
#62 = ADVANCED_FACE ( 'NONE', ( #326 ), #348, .T. ) ;
#63 = CARTESIAN_POINT ( 'NONE',  ( 0.09374999999999994449, 2.500000000000000000, 0.000000000000000000 ) ) ;
#64 = DIRECTION ( 'NONE',  ( 1.000000000000000000, 0.000000000000000000, 0.000000000000000000 ) ) ;
#65 = AXIS2_PLACEMENT_3D ( 'NONE', #134, #152, #259 ) ;
#66 = CONICAL_SURFACE ( 'NONE', #207, 0.07810000000000000275, 0.3490658503988665062 ) ;
#67 =( CONVERSION_BASED_UNIT ( 'INCH', #34 ) LENGTH_UNIT ( ) NAMED_UNIT ( #285 ) );
#68 = FILL_AREA_STYLE ('',( #324 ) ) ;
#69 =( NAMED_UNIT ( * ) PLANE_ANGLE_UNIT ( ) SI_UNIT ( $, .RADIAN. ) );
#70 = ADVANCED_FACE ( 'NONE', ( #160 ), #291, .T. ) ;
#71 = PRESENTATION_STYLE_ASSIGNMENT (( #350 ) ) ;
#72 = SURFACE_SIDE_STYLE ('',( #101 ) ) ;
#73 = DIRECTION ( 'NONE',  ( -0.000000000000000000, -1.000000000000000000, -0.000000000000000000 ) ) ;
#74 = DIRECTION ( 'NONE',  ( 0.000000000000000000, 1.000000000000000000, 0.000000000000000000 ) ) ;
#75 = DIRECTION ( 'NONE',  ( -3.160378836509298460E-17, 1.000000000000000000, -0.000000000000000000 ) ) ;
#76 =( NAMED_UNIT ( * ) SI_UNIT ( $, .STERADIAN. ) SOLID_ANGLE_UNIT ( ) );
#77 = LINE ( 'NONE', #242, #130 ) ;
#78 = EDGE_LOOP ( 'NONE', ( #115, #1, #20, #27 ) ) ;
#79 = LENGTH_MEASURE_WITH_UNIT ( LENGTH_MEASURE( 0.02539999999999999897 ), #40 );
#80 = VERTEX_POINT ( 'NONE', #193 ) ;
#81 = FILL_AREA_STYLE_COLOUR ( '', #131 ) ;
#82 = DIRECTION ( 'NONE',  ( -3.160378836509298460E-17, 1.000000000000000000, -0.000000000000000000 ) ) ;
#83 = VECTOR ( 'NONE', #251, 39.37007874015748143 ) ;
#84 = ORIENTED_EDGE ( 'NONE', *, *, #260, .T. ) ;
#85 = EDGE_CURVE ( 'NONE', #80, #308, #241, .T. ) ;
#86 = EDGE_LOOP ( 'NONE', ( #139, #84, #143, #161 ) ) ;
#87 = DIRECTION ( 'NONE',  ( -3.160378836509298460E-17, 1.000000000000000000, 0.000000000000000000 ) ) ;
#88 = ORIENTED_EDGE ( 'NONE', *, *, #205, .F. ) ;
#89 = LENGTH_MEASURE_WITH_UNIT ( LENGTH_MEASURE( 0.02539999999999999897 ), #54 );
#90 =( GEOMETRIC_REPRESENTATION_CONTEXT ( 3 ) GLOBAL_UNCERTAINTY_ASSIGNED_CONTEXT ( ( #55 ) ) GLOBAL_UNIT_ASSIGNED_CONTEXT ( ( #173, #125, #284 ) ) REPRESENTATION_CONTEXT ( 'NONE', 'WORKASPACE' ) );
#91 = CARTESIAN_POINT ( 'NONE',  ( 0.000000000000000000, 0.000000000000000000, 0.000000000000000000 ) ) ;
#92 = FILL_AREA_STYLE ('',( #225 ) ) ;
#93 = DIMENSIONAL_EXPONENTS ( 1.000000000000000000, 0.000000000000000000, 0.000000000000000000, 0.000000000000000000, 0.000000000000000000, 0.000000000000000000, 0.000000000000000000 ) ;
#94 =( NAMED_UNIT ( * ) SI_UNIT ( $, .STERADIAN. ) SOLID_ANGLE_UNIT ( ) );
#95 = VECTOR ( 'NONE', #24, 39.37007874015748143 ) ;
#96 = UNCERTAINTY_MEASURE_WITH_UNIT (LENGTH_MEASURE( 1.000000000000000082E-05 ), #12, 'distance_accuracy_value', 'NONE');
#97 = DIRECTION ( 'NONE',  ( -3.160378836509298460E-17, 1.000000000000000000, -0.000000000000000000 ) ) ;
#98 = CIRCLE ( 'NONE', #198, 0.07810000000000000275 ) ;
#99 =( NAMED_UNIT ( * ) PLANE_ANGLE_UNIT ( ) SI_UNIT ( $, .RADIAN. ) );
#100 = DIRECTION ( 'NONE',  ( 0.000000000000000000, 0.000000000000000000, 1.000000000000000000 ) ) ;
#101 = SURFACE_STYLE_FILL_AREA ( #272 ) ;
#102 = EDGE_CURVE ( 'NONE', #280, #168, #317, .T. ) ;
#103 = DIRECTION ( 'NONE',  ( -1.000000000000000000, -3.160378836509298460E-17, 0.000000000000000000 ) ) ;
#104 = AXIS2_PLACEMENT_3D ( 'NONE', #219, #82, #195 ) ;
#105 = CARTESIAN_POINT ( 'NONE',  ( 0.000000000000000000, 0.5625000000000001110, 0.000000000000000000 ) ) ;
#106 = CARTESIAN_POINT ( 'NONE',  ( 0.000000000000000000, 0.000000000000000000, 0.000000000000000000 ) ) ;
#107 = CARTESIAN_POINT ( 'NONE',  ( 0.07810000000000000275, 0.5625000000000001110, 1.052277762167363502E-17 ) ) ;
#108 = SURFACE_STYLE_FILL_AREA ( #186 ) ;
#109 = CARTESIAN_POINT ( 'NONE',  ( 0.000000000000000000, 0.000000000000000000, 0.000000000000000000 ) ) ;
#110 = AXIS2_PLACEMENT_3D ( 'NONE', #121, #133, #239 ) ;
#111 = LINE ( 'NONE', #278, #288 ) ;
#112 = DIRECTION ( 'NONE',  ( 0.000000000000000000, 0.000000000000000000, -1.000000000000000000 ) ) ;
#113 = PRODUCT_DEFINITION_FORMATION_WITH_SPECIFIED_SOURCE ( 'ANY', '', #23, .NOT_KNOWN. ) ;
#114 = ORIENTED_EDGE ( 'NONE', *, *, #176, .T. ) ;
#115 = ORIENTED_EDGE ( 'NONE', *, *, #230, .F. ) ;
#116 = DIRECTION ( 'NONE',  ( 0.000000000000000000, -0.000000000000000000, 1.000000000000000000 ) ) ;
#117 =( CONVERSION_BASED_UNIT ( 'INCH', #304 ) LENGTH_UNIT ( ) NAMED_UNIT ( #224 ) );
#118 = PRESENTATION_LAYER_ASSIGNMENT (  '', '', ( #188 ) ) ;
#119 = VERTEX_POINT ( 'NONE', #166 ) ;
#120 = EDGE_CURVE ( 'NONE', #168, #245, #111, .T. ) ;
#121 = CARTESIAN_POINT ( 'NONE',  ( 0.000000000000000000, 0.000000000000000000, 0.000000000000000000 ) ) ;
#122 =( GEOMETRIC_REPRESENTATION_CONTEXT ( 3 ) GLOBAL_UNCERTAINTY_ASSIGNED_CONTEXT ( ( #175 ) ) GLOBAL_UNIT_ASSIGNED_CONTEXT ( ( #142, #69, #274 ) ) REPRESENTATION_CONTEXT ( 'NONE', 'WORKASPACE' ) );
#123 = ORIENTED_EDGE ( 'NONE', *, *, #120, .F. ) ;
#124 = DIRECTION ( 'NONE',  ( -1.000000000000000000, 0.000000000000000000, 0.000000000000000000 ) ) ;
#125 =( NAMED_UNIT ( * ) PLANE_ANGLE_UNIT ( ) SI_UNIT ( $, .RADIAN. ) );
#126 = CARTESIAN_POINT ( 'NONE',  ( -6.123233995736766036E-17, 2.500000000000000000, 0.000000000000000000 ) ) ;
#127 = UNCERTAINTY_MEASURE_WITH_UNIT (LENGTH_MEASURE( 1.000000000000000082E-05 ), #117, 'distance_accuracy_value', 'NONE');
#128 = EDGE_CURVE ( 'NONE', #265, #280, #256, .T. ) ;
#129 = APPLICATION_PROTOCOL_DEFINITION ( 'draft international standard', 'automotive_design', 1998, #293 ) ;
#130 = VECTOR ( 'NONE', #271, 39.37007874015748143 ) ;
#131 = COLOUR_RGB ( '',1.000000000000000000, 0.000000000000000000, 0.000000000000000000 ) ;
#132 = ADVANCED_FACE ( 'NONE', ( #305 ), #47, .F. ) ;
#133 = DIRECTION ( 'NONE',  ( -0.000000000000000000, -1.000000000000000000, -0.000000000000000000 ) ) ;
#134 = CARTESIAN_POINT ( 'NONE',  ( 0.000000000000000000, 0.5625000000000000000, 0.000000000000000000 ) ) ;
#135 = FILL_AREA_STYLE_COLOUR ( '', #340 ) ;
#136 = SURFACE_SIDE_STYLE ('',( #108 ) ) ;
#137 = LENGTH_MEASURE_WITH_UNIT ( LENGTH_MEASURE( 0.02539999999999999897 ), #159 );
#138 = CARTESIAN_POINT ( 'NONE',  ( 0.000000000000000000, 0.5625000000000000000, 0.000000000000000000 ) ) ;
#139 = ORIENTED_EDGE ( 'NONE', *, *, #102, .F. ) ;
#140 = CIRCLE ( 'NONE', #240, 0.09375000000000001388 ) ;
#141 = DIRECTION ( 'NONE',  ( 0.000000000000000000, 0.000000000000000000, -1.000000000000000000 ) ) ;
#142 =( CONVERSION_BASED_UNIT ( 'INCH', #79 ) LENGTH_UNIT ( ) NAMED_UNIT ( #93 ) );
#143 = ORIENTED_EDGE ( 'NONE', *, *, #10, .T. ) ;
#144 = PRODUCT_DEFINITION_SHAPE ( 'NONE', 'NONE',  #318 ) ;
#145 = COLOUR_RGB ( '',1.000000000000000000, 0.000000000000000000, 0.000000000000000000 ) ;
#146 = ORIENTED_EDGE ( 'NONE', *, *, #182, .T. ) ;
#147 = EDGE_LOOP ( 'NONE', ( #123, #146, #247, #332 ) ) ;
#148 = FACE_OUTER_BOUND ( 'NONE', #306, .T. ) ;
#149 = AXIS2_PLACEMENT_3D ( 'NONE', #106, #73, #347 ) ;
#150 = CARTESIAN_POINT ( 'NONE',  ( 9.564491501340828324E-18, 0.5625000000000000000, 0.07810000000000000275 ) ) ;
#151 = PRESENTATION_STYLE_ASSIGNMENT (( #286 ) ) ;
#152 = DIRECTION ( 'NONE',  ( -0.000000000000000000, -1.000000000000000000, -0.000000000000000000 ) ) ;
#153 = PRESENTATION_LAYER_ASSIGNMENT (  '', '', ( #276 ) ) ;
#154 = EDGE_CURVE ( 'NONE', #353, #26, #229, .T. ) ;
#155 = CARTESIAN_POINT ( 'NONE',  ( -6.123233995736766036E-17, 2.500000000000000000, 0.000000000000000000 ) ) ;
#156 = CARTESIAN_POINT ( 'NONE',  ( -0.09375000000000006939, 2.500000000000000000, 0.000000000000000000 ) ) ;
#157 = CLOSED_SHELL ( 'NONE', ( #46, #171, #132, #210, #62, #22 ) ) ;
#158 = CARTESIAN_POINT ( 'NONE',  ( -1.358900375221237887E-18, 0.6054980216144648653, 0.000000000000000000 ) ) ;
#159 =( LENGTH_UNIT ( ) NAMED_UNIT ( * ) SI_UNIT ( $, .METRE. ) );
#160 = FACE_OUTER_BOUND ( 'NONE', #232, .T. ) ;
#161 = ORIENTED_EDGE ( 'NONE', *, *, #182, .F. ) ;
#162 = DIRECTION ( 'NONE',  ( -3.160378836509298460E-17, 1.000000000000000000, -0.000000000000000000 ) ) ;
#163 = LENGTH_MEASURE_WITH_UNIT ( LENGTH_MEASURE( 0.02539999999999999897 ), #295 );
#164 = CIRCLE ( 'NONE', #3, 0.09375000000000001388 ) ;
#165 = MECHANICAL_DESIGN_GEOMETRIC_PRESENTATION_REPRESENTATION (  '', ( #248 ), #44 ) ;
#166 = CARTESIAN_POINT ( 'NONE',  ( 0.000000000000000000, 0.5625000000000000000, -0.07810000000000000275 ) ) ;
#167 = ADVANCED_FACE ( 'NONE', ( #209 ), #253, .T. ) ;
#168 = VERTEX_POINT ( 'NONE', #302 ) ;
#169 = DIMENSIONAL_EXPONENTS ( 1.000000000000000000, 0.000000000000000000, 0.000000000000000000, 0.000000000000000000, 0.000000000000000000, 0.000000000000000000, 0.000000000000000000 ) ;
#170 = VECTOR ( 'NONE', #199, 39.37007874015748143 ) ;
#171 = ADVANCED_FACE ( 'NONE', ( #39 ), #255, .T. ) ;
#172 = PRESENTATION_LAYER_ASSIGNMENT (  '', '', ( #354 ) ) ;
#173 =( CONVERSION_BASED_UNIT ( 'INCH', #181 ) LENGTH_UNIT ( ) NAMED_UNIT ( #169 ) );
#174 = DIRECTION ( 'NONE',  ( -0.3420201433256693790, 0.9396926207859080948, 0.000000000000000000 ) ) ;
#175 = UNCERTAINTY_MEASURE_WITH_UNIT (LENGTH_MEASURE( 1.000000000000000082E-05 ), #142, 'distance_accuracy_value', 'NONE');
#176 = EDGE_CURVE ( 'NONE', #308, #245, #140, .T. ) ;
#177 = SURFACE_SIDE_STYLE ('',( #58 ) ) ;
#178 =( GEOMETRIC_REPRESENTATION_CONTEXT ( 3 ) GLOBAL_UNCERTAINTY_ASSIGNED_CONTEXT ( ( #127 ) ) GLOBAL_UNIT_ASSIGNED_CONTEXT ( ( #117, #49, #335 ) ) REPRESENTATION_CONTEXT ( 'NONE', 'WORKASPACE' ) );
#179 = APPLICATION_CONTEXT ( 'automotive_design' ) ;
#180 = EDGE_LOOP ( 'NONE', ( #339, #235 ) ) ;
#181 = LENGTH_MEASURE_WITH_UNIT ( LENGTH_MEASURE( 0.02539999999999999897 ), #257 );
#182 = EDGE_CURVE ( 'NONE', #168, #80, #217, .T. ) ;
#183 = CYLINDRICAL_SURFACE ( 'NONE', #32, 0.07810000000000000275 ) ;
#184 = CARTESIAN_POINT ( 'NONE',  ( 0.07810000000000000275, 0.5625000000000001110, 9.564491501340828324E-18 ) ) ;
#185 = SURFACE_STYLE_FILL_AREA ( #68 ) ;
#186 = FILL_AREA_STYLE ('',( #81 ) ) ;
#187 = SURFACE_SIDE_STYLE ('',( #185 ) ) ;
#188 = STYLED_ITEM ( 'NONE', ( #294 ), #167 ) ;
#189 = AXIS2_PLACEMENT_3D ( 'NONE', #91, #61, #202 ) ;
#190 = DIRECTION ( 'NONE',  ( -1.000000000000000000, 0.000000000000000000, 0.000000000000000000 ) ) ;
#191 = CARTESIAN_POINT ( 'NONE',  ( -0.07810000000000000275, 0.5625000000000001110, 0.000000000000000000 ) ) ;
#192 = DIRECTION ( 'NONE',  ( -1.000000000000000000, 0.000000000000000000, 0.000000000000000000 ) ) ;
#193 = CARTESIAN_POINT ( 'NONE',  ( -0.09375000000000001388, 0.6054980216144648653, 0.000000000000000000 ) ) ;
#194 = AXIS2_PLACEMENT_3D ( 'NONE', #310, #315, #56 ) ;
#195 = DIRECTION ( 'NONE',  ( -1.000000000000000000, 0.000000000000000000, 0.000000000000000000 ) ) ;
#196 = ORIENTED_EDGE ( 'NONE', *, *, #102, .T. ) ;
#197 = CARTESIAN_POINT ( 'NONE',  ( 9.564491501340828324E-18, 0.000000000000000000, 0.07810000000000000275 ) ) ;
#198 = AXIS2_PLACEMENT_3D ( 'NONE', #212, #300, #112 ) ;
#199 = DIRECTION ( 'NONE',  ( -0.000000000000000000, -1.000000000000000000, -0.000000000000000000 ) ) ;
#200 = UNCERTAINTY_MEASURE_WITH_UNIT (LENGTH_MEASURE( 1.000000000000000082E-05 ), #67, 'distance_accuracy_value', 'NONE');
#201 = ADVANCED_FACE ( 'NONE', ( #299 ), #14, .T. ) ;
#202 = DIRECTION ( 'NONE',  ( 0.000000000000000000, 0.000000000000000000, -1.000000000000000000 ) ) ;
#203 = EDGE_CURVE ( 'NONE', #358, #119, #215, .T. ) ;
#204 = SHAPE_DEFINITION_REPRESENTATION ( #144, #29 ) ;
#205 = EDGE_CURVE ( 'NONE', #80, #168, #222, .T. ) ;
#206 = PRESENTATION_STYLE_ASSIGNMENT (( #268 ) ) ;
#207 = AXIS2_PLACEMENT_3D ( 'NONE', #236, #162, #124 ) ;
#208 = PRESENTATION_LAYER_ASSIGNMENT (  '', '', ( #248 ) ) ;
#209 = FACE_OUTER_BOUND ( 'NONE', #78, .T. ) ;
#210 = ADVANCED_FACE ( 'NONE', ( #38 ), #66, .T. ) ;
#211 = DIRECTION ( 'NONE',  ( -3.160378836509298460E-17, 1.000000000000000000, -0.000000000000000000 ) ) ;
#212 = CARTESIAN_POINT ( 'NONE',  ( 0.000000000000000000, 0.5625000000000000000, 0.000000000000000000 ) ) ;
#213 = DIRECTION ( 'NONE',  ( 1.000000000000000000, 3.160378836509298460E-17, 0.000000000000000000 ) ) ;
#214 =( NAMED_UNIT ( * ) PLANE_ANGLE_UNIT ( ) SI_UNIT ( $, .RADIAN. ) );
#215 = CIRCLE ( 'NONE', #65, 0.07810000000000000275 ) ;
#216 = AXIS2_PLACEMENT_3D ( 'NONE', #63, #233, #213 ) ;
#217 = CIRCLE ( 'NONE', #6, 0.09375000000000001388 ) ;
#218 = DIRECTION ( 'NONE',  ( -0.000000000000000000, -1.000000000000000000, -0.000000000000000000 ) ) ;
#219 = CARTESIAN_POINT ( 'NONE',  ( 0.000000000000000000, 0.5625000000000001110, 0.000000000000000000 ) ) ;
#220 = ORIENTED_EDGE ( 'NONE', *, *, #128, .T. ) ;
#221 =( NAMED_UNIT ( * ) SI_UNIT ( $, .STERADIAN. ) SOLID_ANGLE_UNIT ( ) );
#222 = CIRCLE ( 'NONE', #21, 0.09375000000000001388 ) ;
#223 = ADVANCED_FACE ( 'NONE', ( #52 ), #183, .T. ) ;
#224 = DIMENSIONAL_EXPONENTS ( 1.000000000000000000, 0.000000000000000000, 0.000000000000000000, 0.000000000000000000, 0.000000000000000000, 0.000000000000000000, 0.000000000000000000 ) ;
#225 = FILL_AREA_STYLE_COLOUR ( '', #36 ) ;
#226 = DIMENSIONAL_EXPONENTS ( 1.000000000000000000, 0.000000000000000000, 0.000000000000000000, 0.000000000000000000, 0.000000000000000000, 0.000000000000000000, 0.000000000000000000 ) ;
#227 = PLANE ( 'NONE',  #216 ) ;
#228 = DIRECTION ( 'NONE',  ( -3.160378836509298460E-17, 1.000000000000000000, -0.000000000000000000 ) ) ;
#229 = CIRCLE ( 'NONE', #149, 0.07810000000000000275 ) ;
#230 = EDGE_CURVE ( 'NONE', #358, #26, #77, .T. ) ;
#231 = CARTESIAN_POINT ( 'NONE',  ( 0.000000000000000000, 0.5625000000000001110, 0.000000000000000000 ) ) ;
#232 = EDGE_LOOP ( 'NONE', ( #279, #243 ) ) ;
#233 = DIRECTION ( 'NONE',  ( 3.160378836509298460E-17, -1.000000000000000000, 0.000000000000000000 ) ) ;
#234 = DIRECTION ( 'NONE',  ( -1.000000000000000000, 0.000000000000000000, 0.000000000000000000 ) ) ;
#235 = ORIENTED_EDGE ( 'NONE', *, *, #203, .F. ) ;
#236 = CARTESIAN_POINT ( 'NONE',  ( 0.000000000000000000, 0.5625000000000001110, 0.000000000000000000 ) ) ;
#237 = ORIENTED_EDGE ( 'NONE', *, *, #267, .T. ) ;
#238 = AXIS2_PLACEMENT_3D ( 'NONE', #231, #331, #190 ) ;
#239 = DIRECTION ( 'NONE',  ( 0.000000000000000000, 0.000000000000000000, -1.000000000000000000 ) ) ;
#240 = AXIS2_PLACEMENT_3D ( 'NONE', #338, #75, #325 ) ;
#241 = LINE ( 'NONE', #303, #95 ) ;
#242 = CARTESIAN_POINT ( 'NONE',  ( 9.564491501340828324E-18, 0.000000000000000000, 0.07810000000000000275 ) ) ;
#243 = ORIENTED_EDGE ( 'NONE', *, *, #357, .T. ) ;
#244 = DIRECTION ( 'NONE',  ( -3.160378836509298460E-17, 1.000000000000000000, -0.000000000000000000 ) ) ;
#245 = VERTEX_POINT ( 'NONE', #11 ) ;
#246 = PRODUCT_RELATED_PRODUCT_CATEGORY ( 'part', '', ( #23 ) ) ;
#247 = ORIENTED_EDGE ( 'NONE', *, *, #85, .T. ) ;
#248 = STYLED_ITEM ( 'NONE', ( #206 ), #70 ) ;
#249 = CIRCLE ( 'NONE', #238, 0.07810000000000000275 ) ;
#250 = ORIENTED_EDGE ( 'NONE', *, *, #230, .T. ) ;
#251 = DIRECTION ( 'NONE',  ( 0.3420201433256692680, 0.9396926207859080948, 4.188538737676999160E-17 ) ) ;
#252 = FACE_OUTER_BOUND ( 'NONE', #355, .T. ) ;
#253 = CYLINDRICAL_SURFACE ( 'NONE', #110, 0.07810000000000000275 ) ;
#254 = ORIENTED_EDGE ( 'NONE', *, *, #260, .F. ) ;
#255 = CONICAL_SURFACE ( 'NONE', #263, 0.07810000000000000275, 0.3490658503988665062 ) ;
#256 = CIRCLE ( 'NONE', #104, 0.07810000000000000275 ) ;
#257 =( LENGTH_UNIT ( ) NAMED_UNIT ( * ) SI_UNIT ( $, .METRE. ) );
#258 = DIRECTION ( 'NONE',  ( -1.000000000000000000, 0.000000000000000000, 0.000000000000000000 ) ) ;
#259 = DIRECTION ( 'NONE',  ( 0.000000000000000000, 0.000000000000000000, -1.000000000000000000 ) ) ;
#260 = EDGE_CURVE ( 'NONE', #280, #265, #249, .T. ) ;
#261 = CARTESIAN_POINT ( 'NONE',  ( 0.000000000000000000, 0.000000000000000000, 0.000000000000000000 ) ) ;
#262 = UNCERTAINTY_MEASURE_WITH_UNIT (LENGTH_MEASURE( 1.000000000000000082E-05 ), #287, 'distance_accuracy_value', 'NONE');
#263 = AXIS2_PLACEMENT_3D ( 'NONE', #105, #244, #192 ) ;
#264 = AXIS2_PLACEMENT_3D ( 'NONE', #261, #100, #64 ) ;
#265 = VERTEX_POINT ( 'NONE', #35 ) ;
#266 =( NAMED_UNIT ( * ) SI_UNIT ( $, .STERADIAN. ) SOLID_ANGLE_UNIT ( ) );
#267 = EDGE_CURVE ( 'NONE', #119, #358, #98, .T. ) ;
#268 = SURFACE_STYLE_USAGE ( .BOTH. , #72 ) ;
#269 = MECHANICAL_DESIGN_GEOMETRIC_PRESENTATION_REPRESENTATION (  '', ( #188 ), #352 ) ;
#270 = SURFACE_STYLE_USAGE ( .BOTH. , #187 ) ;
#271 = DIRECTION ( 'NONE',  ( -0.000000000000000000, -1.000000000000000000, -0.000000000000000000 ) ) ;
#272 = FILL_AREA_STYLE ('',( #296 ) ) ;
#273 =( CONVERSION_BASED_UNIT ( 'INCH', #163 ) LENGTH_UNIT ( ) NAMED_UNIT ( #359 ) );
#274 =( NAMED_UNIT ( * ) SI_UNIT ( $, .STERADIAN. ) SOLID_ANGLE_UNIT ( ) );
#275 = EDGE_LOOP ( 'NONE', ( #220, #196, #88, #7 ) ) ;
#276 = STYLED_ITEM ( 'NONE', ( #71 ), #201 ) ;
#277 = DIRECTION ( 'NONE',  ( -3.160378836509298460E-17, 1.000000000000000000, -0.000000000000000000 ) ) ;
#278 = CARTESIAN_POINT ( 'NONE',  ( 0.09374999999999994449, 2.500000000000000000, 1.148106374200643863E-17 ) ) ;
#279 = ORIENTED_EDGE ( 'NONE', *, *, #154, .T. ) ;
#280 = VERTEX_POINT ( 'NONE', #107 ) ;
#281 = AXIS2_PLACEMENT_3D ( 'NONE', #336, #17, #141 ) ;
#282 = DIMENSIONAL_EXPONENTS ( 1.000000000000000000, 0.000000000000000000, 0.000000000000000000, 0.000000000000000000, 0.000000000000000000, 0.000000000000000000, 0.000000000000000000 ) ;
#283 =( NAMED_UNIT ( * ) PLANE_ANGLE_UNIT ( ) SI_UNIT ( $, .RADIAN. ) );
#284 =( NAMED_UNIT ( * ) SI_UNIT ( $, .STERADIAN. ) SOLID_ANGLE_UNIT ( ) );
#285 = DIMENSIONAL_EXPONENTS ( 1.000000000000000000, 0.000000000000000000, 0.000000000000000000, 0.000000000000000000, 0.000000000000000000, 0.000000000000000000, 0.000000000000000000 ) ;
#286 = SURFACE_STYLE_USAGE ( .BOTH. , #177 ) ;
#287 =( CONVERSION_BASED_UNIT ( 'INCH', #89 ) LENGTH_UNIT ( ) NAMED_UNIT ( #282 ) );
#288 = VECTOR ( 'NONE', #356, 39.37007874015748143 ) ;
#289 = CARTESIAN_POINT ( 'NONE',  ( 3.900311809394916198E-35, 0.5625000000000000000, 0.000000000000000000 ) ) ;
#290 = LINE ( 'NONE', #320, #170 ) ;
#291 = PLANE ( 'NONE',  #281 ) ;
#292 = SURFACE_STYLE_USAGE ( .BOTH. , #346 ) ;
#293 = APPLICATION_CONTEXT ( 'automotive_design' ) ;
#294 = PRESENTATION_STYLE_ASSIGNMENT (( #270 ) ) ;
#295 =( LENGTH_UNIT ( ) NAMED_UNIT ( * ) SI_UNIT ( $, .METRE. ) );
#296 = FILL_AREA_STYLE_COLOUR ( '', #28 ) ;
#297 = COLOUR_RGB ( '',1.000000000000000000, 0.000000000000000000, 0.000000000000000000 ) ;
#298 = STYLED_ITEM ( 'NONE', ( #333 ), #223 ) ;
#299 = FACE_OUTER_BOUND ( 'NONE', #180, .T. ) ;
#300 = DIRECTION ( 'NONE',  ( -0.000000000000000000, -1.000000000000000000, -0.000000000000000000 ) ) ;
#301 = ORIENTED_EDGE ( 'NONE', *, *, #337, .F. ) ;
#302 = CARTESIAN_POINT ( 'NONE',  ( 0.09375000000000001388, 0.6054980216144648653, 1.148106374200643555E-17 ) ) ;
#303 = CARTESIAN_POINT ( 'NONE',  ( -0.09375000000000006939, 2.500000000000000000, 0.000000000000000000 ) ) ;
#304 = LENGTH_MEASURE_WITH_UNIT ( LENGTH_MEASURE( 0.02539999999999999897 ), #307 );
#305 = FACE_OUTER_BOUND ( 'NONE', #25, .T. ) ;
#306 = EDGE_LOOP ( 'NONE', ( #16, #311, #50, #57 ) ) ;
#307 =( LENGTH_UNIT ( ) NAMED_UNIT ( * ) SI_UNIT ( $, .METRE. ) );
#308 = VERTEX_POINT ( 'NONE', #156 ) ;
#309 = SURFACE_STYLE_FILL_AREA ( #30 ) ;
#310 = CARTESIAN_POINT ( 'NONE',  ( -6.123233995736766036E-17, 2.500000000000000000, 0.000000000000000000 ) ) ;
#311 = ORIENTED_EDGE ( 'NONE', *, *, #120, .T. ) ;
#312 = MECHANICAL_DESIGN_GEOMETRIC_PRESENTATION_REPRESENTATION (  '', ( #298 ), #122 ) ;
#313 = STYLED_ITEM ( 'NONE', ( #151 ), #60 ) ;
#314 = CARTESIAN_POINT ( 'NONE',  ( 0.000000000000000000, 0.000000000000000000, -0.07810000000000000275 ) ) ;
#315 = DIRECTION ( 'NONE',  ( -3.160378836509298460E-17, 1.000000000000000000, -0.000000000000000000 ) ) ;
#316 = MANIFOLD_SOLID_BREP ( 'Revolve - Tool Body (Reduced Cut Diameter)', #157 ) ;
#317 = LINE ( 'NONE', #184, #83 ) ;
#318 = PRODUCT_DEFINITION ( 'UNKNOWN', '', #113, #341 ) ;
#319 = CYLINDRICAL_SURFACE ( 'NONE', #194, 0.09375000000000001388 ) ;
#320 = CARTESIAN_POINT ( 'NONE',  ( 0.000000000000000000, 0.000000000000000000, -0.07810000000000000275 ) ) ;
#321 = PRODUCT_CONTEXT ( 'NONE', #179, 'mechanical' ) ;
#322 = AXIS2_PLACEMENT_3D ( 'NONE', #155, #211, #234 ) ;
#323 = FILL_AREA_STYLE_COLOUR ( '', #145 ) ;
#324 = FILL_AREA_STYLE_COLOUR ( '', #297 ) ;
#325 = DIRECTION ( 'NONE',  ( -1.000000000000000000, 0.000000000000000000, 0.000000000000000000 ) ) ;
#326 = FACE_OUTER_BOUND ( 'NONE', #147, .T. ) ;
#327 = FILL_AREA_STYLE ('',( #135 ) ) ;
#328 = ORIENTED_EDGE ( 'NONE', *, *, #329, .T. ) ;
#329 = EDGE_CURVE ( 'NONE', #245, #308, #164, .T. ) ;
#330 =( GEOMETRIC_REPRESENTATION_CONTEXT ( 3 ) GLOBAL_UNCERTAINTY_ASSIGNED_CONTEXT ( ( #31 ) ) GLOBAL_UNIT_ASSIGNED_CONTEXT ( ( #273, #344, #266 ) ) REPRESENTATION_CONTEXT ( 'NONE', 'WORKASPACE' ) );
#331 = DIRECTION ( 'NONE',  ( -3.160378836509298460E-17, 1.000000000000000000, -0.000000000000000000 ) ) ;
#332 = ORIENTED_EDGE ( 'NONE', *, *, #329, .F. ) ;
#333 = PRESENTATION_STYLE_ASSIGNMENT (( #292 ) ) ;
#334 = LINE ( 'NONE', #191, #349 ) ;
#335 =( NAMED_UNIT ( * ) SI_UNIT ( $, .STERADIAN. ) SOLID_ANGLE_UNIT ( ) );
#336 = CARTESIAN_POINT ( 'NONE',  ( 0.000000000000000000, 0.000000000000000000, 0.000000000000000000 ) ) ;
#337 = EDGE_CURVE ( 'NONE', #119, #353, #290, .T. ) ;
#338 = CARTESIAN_POINT ( 'NONE',  ( -6.123233995736766036E-17, 2.500000000000000000, 0.000000000000000000 ) ) ;
#339 = ORIENTED_EDGE ( 'NONE', *, *, #267, .F. ) ;
#340 = COLOUR_RGB ( '',0.7921568627450980005, 0.8196078431372548767, 0.9333333333333333481 ) ;
#341 = PRODUCT_DEFINITION_CONTEXT ( 'detailed design', #293, 'design' ) ;
#342 = CLOSED_SHELL ( 'NONE', ( #223, #201, #167, #70 ) ) ;
#343 =( LENGTH_UNIT ( ) NAMED_UNIT ( * ) SI_UNIT ( $, .METRE. ) );
#344 =( NAMED_UNIT ( * ) PLANE_ANGLE_UNIT ( ) SI_UNIT ( $, .RADIAN. ) );
#345 = CIRCLE ( 'NONE', #189, 0.07810000000000000275 ) ;
#346 = SURFACE_SIDE_STYLE ('',( #309 ) ) ;
#347 = DIRECTION ( 'NONE',  ( 0.000000000000000000, 0.000000000000000000, -1.000000000000000000 ) ) ;
#348 = CYLINDRICAL_SURFACE ( 'NONE', #322, 0.09375000000000001388 ) ;
#349 = VECTOR ( 'NONE', #174, 39.37007874015748143 ) ;
#350 = SURFACE_STYLE_USAGE ( .BOTH. , #136 ) ;
#351 = DIRECTION ( 'NONE',  ( -1.000000000000000000, 0.000000000000000000, 0.000000000000000000 ) ) ;
#352 =( GEOMETRIC_REPRESENTATION_CONTEXT ( 3 ) GLOBAL_UNCERTAINTY_ASSIGNED_CONTEXT ( ( #200 ) ) GLOBAL_UNIT_ASSIGNED_CONTEXT ( ( #67, #99, #221 ) ) REPRESENTATION_CONTEXT ( 'NONE', 'WORKASPACE' ) );
#353 = VERTEX_POINT ( 'NONE', #314 ) ;
#354 = STYLED_ITEM ( 'NONE', ( #43 ), #316 ) ;
#355 = EDGE_LOOP ( 'NONE', ( #114, #328 ) ) ;
#356 = DIRECTION ( 'NONE',  ( -3.160378836509298460E-17, 1.000000000000000000, -0.000000000000000000 ) ) ;
#357 = EDGE_CURVE ( 'NONE', #26, #353, #345, .T. ) ;
#358 = VERTEX_POINT ( 'NONE', #150 ) ;
#359 = DIMENSIONAL_EXPONENTS ( 1.000000000000000000, 0.000000000000000000, 0.000000000000000000, 0.000000000000000000, 0.000000000000000000, 0.000000000000000000, 0.000000000000000000 ) ;
ENDSEC;
END-ISO-10303-21;
