ISO-10303-21;
HEADER;
FILE_DESCRIPTION (( 'STEP AP214' ),
    '1' );
FILE_NAME ('59464.STEP',
    '2023-07-24T15:47:45',
    ( '' ),
    ( '' ),
    'SwSTEP 2.0',
    'SolidWorks 2023',
    '' );
FILE_SCHEMA (( 'AUTOMOTIVE_DESIGN' ));
ENDSEC;

DATA;
#1 = DIRECTION ( 'NONE',  ( -0.000000000000000000, -1.000000000000000000, -0.000000000000000000 ) ) ;
#2 = ORIENTED_EDGE ( 'NONE', *, *, #85, .T. ) ;
#3 = PRODUCT_DEFINITION ( 'UNKNOWN', '', #157, #246 ) ;
#4 = FILL_AREA_STYLE ('',( #113 ) ) ;
#5 = CARTESIAN_POINT ( 'NONE',  ( 0.000000000000000000, 15.00000000000000000, 0.000000000000000000 ) ) ;
#6 = PRESENTATION_STYLE_ASSIGNMENT (( #155 ) ) ;
#7 =( GEOMETRIC_REPRESENTATION_CONTEXT ( 3 ) GLOBAL_UNCERTAINTY_ASSIGNED_CONTEXT ( ( #127 ) ) GLOBAL_UNIT_ASSIGNED_CONTEXT ( ( #116, #161, #184 ) ) REPRESENTATION_CONTEXT ( 'NONE', 'WORKASPACE' ) );
#8 = CARTESIAN_POINT ( 'NONE',  ( 0.000000000000000000, 0.000000000000000000, 0.000000000000000000 ) ) ;
#9 = EDGE_CURVE ( 'NONE', #285, #279, #225, .T. ) ;
#10 = MECHANICAL_DESIGN_GEOMETRIC_PRESENTATION_REPRESENTATION (  '', ( #182 ), #104 ) ;
#11 = PRESENTATION_STYLE_ASSIGNMENT (( #205 ) ) ;
#12 = APPLICATION_PROTOCOL_DEFINITION ( 'draft international standard', 'automotive_design', 1998, #122 ) ;
#13 = SURFACE_STYLE_FILL_AREA ( #165 ) ;
#14 = CARTESIAN_POINT ( 'NONE',  ( 0.000000000000000000, 0.000000000000000000, -5.000000000000000000 ) ) ;
#15 = SHAPE_DEFINITION_REPRESENTATION ( #242, #92 ) ;
#16 = CARTESIAN_POINT ( 'NONE',  ( 6.123233995736752477E-17, 63.00000000000000000, 0.000000000000000000 ) ) ;
#17 = EDGE_LOOP ( 'NONE', ( #80, #229, #282, #185 ) ) ;
#18 = COLOUR_RGB ( '',1.000000000000000000, 0.000000000000000000, 0.000000000000000000 ) ;
#19 = ORIENTED_EDGE ( 'NONE', *, *, #138, .T. ) ;
#20 = DIRECTION ( 'NONE',  ( -0.000000000000000000, -1.000000000000000000, -0.000000000000000000 ) ) ;
#21 =( GEOMETRIC_REPRESENTATION_CONTEXT ( 3 ) GLOBAL_UNCERTAINTY_ASSIGNED_CONTEXT ( ( #112 ) ) GLOBAL_UNIT_ASSIGNED_CONTEXT ( ( #35, #260, #186 ) ) REPRESENTATION_CONTEXT ( 'NONE', 'WORKASPACE' ) );
#22 = DIRECTION ( 'NONE',  ( 1.275673749111823304E-18, 1.000000000000000000, -0.000000000000000000 ) ) ;
#23 = STYLED_ITEM ( 'NONE', ( #75 ), #145 ) ;
#24 = MECHANICAL_DESIGN_GEOMETRIC_PRESENTATION_REPRESENTATION (  '', ( #254 ), #269 ) ;
#25 = APPLICATION_CONTEXT ( 'automotive_design' ) ;
#26 = CARTESIAN_POINT ( 'NONE',  ( 0.000000000000000000, 15.00000000000000000, 0.000000000000000000 ) ) ;
#27 = CARTESIAN_POINT ( 'NONE',  ( 5.000000000000000000, 63.00000000000000000, 6.123233995736766282E-16 ) ) ;
#28 = ORIENTED_EDGE ( 'NONE', *, *, #219, .F. ) ;
#29 =( GEOMETRIC_REPRESENTATION_CONTEXT ( 3 ) GLOBAL_UNCERTAINTY_ASSIGNED_CONTEXT ( ( #43 ) ) GLOBAL_UNIT_ASSIGNED_CONTEXT ( ( #93, #68, #217 ) ) REPRESENTATION_CONTEXT ( 'NONE', 'WORKASPACE' ) );
#30 = AXIS2_PLACEMENT_3D ( 'NONE', #81, #37, #258 ) ;
#31 = LINE ( 'NONE', #14, #268 ) ;
#32 = AXIS2_PLACEMENT_3D ( 'NONE', #130, #255, #118 ) ;
#33 = ADVANCED_FACE ( 'NONE', ( #234 ), #168, .F. ) ;
#34 = SURFACE_SIDE_STYLE ('',( #13 ) ) ;
#35 =( LENGTH_UNIT ( ) NAMED_UNIT ( * ) SI_UNIT ( .MILLI., .METRE. ) );
#36 = CARTESIAN_POINT ( 'NONE',  ( 5.000000000000000000, 63.00000000000000000, 0.000000000000000000 ) ) ;
#37 = DIRECTION ( 'NONE',  ( 0.000000000000000000, 0.000000000000000000, 1.000000000000000000 ) ) ;
#38 = DIRECTION ( 'NONE',  ( 1.275673749111823304E-18, 1.000000000000000000, -0.000000000000000000 ) ) ;
#39 = VERTEX_POINT ( 'NONE', #106 ) ;
#40 = STYLED_ITEM ( 'NONE', ( #238 ), #280 ) ;
#41 = DIRECTION ( 'NONE',  ( 0.000000000000000000, 0.000000000000000000, -1.000000000000000000 ) ) ;
#42 = FILL_AREA_STYLE ('',( #248 ) ) ;
#43 = UNCERTAINTY_MEASURE_WITH_UNIT (LENGTH_MEASURE( 1.000000000000000082E-05 ), #93, 'distance_accuracy_value', 'NONE');
#44 = DIRECTION ( 'NONE',  ( 0.000000000000000000, 0.000000000000000000, -1.000000000000000000 ) ) ;
#45 = ADVANCED_FACE ( 'NONE', ( #100 ), #86, .F. ) ;
#46 = CIRCLE ( 'NONE', #51, 5.000000000000000000 ) ;
#47 = DIRECTION ( 'NONE',  ( -1.000000000000000000, 0.000000000000000000, 0.000000000000000000 ) ) ;
#48 = EDGE_CURVE ( 'NONE', #39, #279, #31, .T. ) ;
#49 =( LENGTH_UNIT ( ) NAMED_UNIT ( * ) SI_UNIT ( .MILLI., .METRE. ) );
#50 = AXIS2_PLACEMENT_3D ( 'NONE', #16, #142, #235 ) ;
#51 = AXIS2_PLACEMENT_3D ( 'NONE', #5, #20, #44 ) ;
#52 = FILL_AREA_STYLE ('',( #136 ) ) ;
#53 = SURFACE_STYLE_FILL_AREA ( #256 ) ;
#54 = ADVANCED_FACE ( 'NONE', ( #101 ), #166, .T. ) ;
#55 =( LENGTH_UNIT ( ) NAMED_UNIT ( * ) SI_UNIT ( .MILLI., .METRE. ) );
#56 = AXIS2_PLACEMENT_3D ( 'NONE', #275, #77, #252 ) ;
#57 = APPLICATION_PROTOCOL_DEFINITION ( 'draft international standard', 'automotive_design', 1998, #25 ) ;
#58 = VERTEX_POINT ( 'NONE', #66 ) ;
#59 = DIRECTION ( 'NONE',  ( 0.000000000000000000, 0.000000000000000000, -1.000000000000000000 ) ) ;
#60 = DIRECTION ( 'NONE',  ( -0.000000000000000000, -1.000000000000000000, -0.000000000000000000 ) ) ;
#61 = DIRECTION ( 'NONE',  ( -1.000000000000000000, 1.275673749111823304E-18, 0.000000000000000000 ) ) ;
#62 = MECHANICAL_DESIGN_GEOMETRIC_PRESENTATION_REPRESENTATION (  '', ( #23 ), #29 ) ;
#63 = PRESENTATION_LAYER_ASSIGNMENT (  '', '', ( #137 ) ) ;
#64 = ORIENTED_EDGE ( 'NONE', *, *, #89, .F. ) ;
#65 = CARTESIAN_POINT ( 'NONE',  ( 0.000000000000000000, 0.000000000000000000, 0.000000000000000000 ) ) ;
#66 = CARTESIAN_POINT ( 'NONE',  ( 5.000000000000000000, 63.00000000000000000, 6.123233995736766282E-16 ) ) ;
#67 = ORIENTED_EDGE ( 'NONE', *, *, #134, .F. ) ;
#68 =( NAMED_UNIT ( * ) PLANE_ANGLE_UNIT ( ) SI_UNIT ( $, .RADIAN. ) );
#69 = EDGE_LOOP ( 'NONE', ( #267, #245 ) ) ;
#70 = MECHANICAL_DESIGN_GEOMETRIC_PRESENTATION_REPRESENTATION (  '', ( #164 ), #7 ) ;
#71 = UNCERTAINTY_MEASURE_WITH_UNIT (LENGTH_MEASURE( 1.000000000000000082E-05 ), #49, 'distance_accuracy_value', 'NONE');
#72 = DIRECTION ( 'NONE',  ( -0.000000000000000000, -1.000000000000000000, -0.000000000000000000 ) ) ;
#73 =( NAMED_UNIT ( * ) SI_UNIT ( $, .STERADIAN. ) SOLID_ANGLE_UNIT ( ) );
#74 = CIRCLE ( 'NONE', #56, 5.000000000000000000 ) ;
#75 = PRESENTATION_STYLE_ASSIGNMENT (( #176 ) ) ;
#76 = COLOUR_RGB ( '',0.7921568627450980005, 0.8196078431372548767, 0.9333333333333333481 ) ;
#77 = DIRECTION ( 'NONE',  ( -0.000000000000000000, -1.000000000000000000, -0.000000000000000000 ) ) ;
#78 = CYLINDRICAL_SURFACE ( 'NONE', #237, 5.000000000000000000 ) ;
#79 = FACE_OUTER_BOUND ( 'NONE', #210, .T. ) ;
#80 = ORIENTED_EDGE ( 'NONE', *, *, #85, .F. ) ;
#81 = CARTESIAN_POINT ( 'NONE',  ( 0.000000000000000000, 0.000000000000000000, 0.000000000000000000 ) ) ;
#82 = ORIENTED_EDGE ( 'NONE', *, *, #150, .T. ) ;
#83 = DIRECTION ( 'NONE',  ( 0.000000000000000000, 0.000000000000000000, -1.000000000000000000 ) ) ;
#84 =( NAMED_UNIT ( * ) PLANE_ANGLE_UNIT ( ) SI_UNIT ( $, .RADIAN. ) );
#85 = EDGE_CURVE ( 'NONE', #259, #285, #103, .T. ) ;
#86 = PLANE ( 'NONE',  #128 ) ;
#87 = CARTESIAN_POINT ( 'NONE',  ( 6.123233995736752477E-17, 63.00000000000000000, 0.000000000000000000 ) ) ;
#88 = AXIS2_PLACEMENT_3D ( 'NONE', #87, #251, #47 ) ;
#89 = EDGE_CURVE ( 'NONE', #169, #58, #111, .T. ) ;
#90 = UNCERTAINTY_MEASURE_WITH_UNIT (LENGTH_MEASURE( 1.000000000000000082E-05 ), #55, 'distance_accuracy_value', 'NONE');
#91 = SURFACE_SIDE_STYLE ('',( #108 ) ) ;
#92 = ADVANCED_BREP_SHAPE_REPRESENTATION ( '59464', ( #278, #178, #30 ), #21 ) ;
#93 =( LENGTH_UNIT ( ) NAMED_UNIT ( * ) SI_UNIT ( .MILLI., .METRE. ) );
#94 = CLOSED_SHELL ( 'NONE', ( #145, #270, #280, #167 ) ) ;
#95 =( NAMED_UNIT ( * ) SI_UNIT ( $, .STERADIAN. ) SOLID_ANGLE_UNIT ( ) );
#96 = SURFACE_SIDE_STYLE ('',( #117 ) ) ;
#97 = CARTESIAN_POINT ( 'NONE',  ( 6.123233995736766282E-16, 0.000000000000000000, 5.000000000000000000 ) ) ;
#98 = EDGE_CURVE ( 'NONE', #58, #169, #220, .T. ) ;
#99 = AXIS2_PLACEMENT_3D ( 'NONE', #120, #60, #83 ) ;
#100 = FACE_OUTER_BOUND ( 'NONE', #69, .T. ) ;
#101 = FACE_OUTER_BOUND ( 'NONE', #206, .T. ) ;
#102 = ORIENTED_EDGE ( 'NONE', *, *, #219, .T. ) ;
#103 = LINE ( 'NONE', #190, #236 ) ;
#104 =( GEOMETRIC_REPRESENTATION_CONTEXT ( 3 ) GLOBAL_UNCERTAINTY_ASSIGNED_CONTEXT ( ( #90 ) ) GLOBAL_UNIT_ASSIGNED_CONTEXT ( ( #55, #84, #189 ) ) REPRESENTATION_CONTEXT ( 'NONE', 'WORKASPACE' ) );
#105 = EDGE_LOOP ( 'NONE', ( #82, #2, #146, #148 ) ) ;
#106 = CARTESIAN_POINT ( 'NONE',  ( 0.000000000000000000, 15.00000000000000000, -5.000000000000000000 ) ) ;
#107 = ORIENTED_EDGE ( 'NONE', *, *, #188, .T. ) ;
#108 = SURFACE_STYLE_FILL_AREA ( #4 ) ;
#109 = PRODUCT_RELATED_PRODUCT_CATEGORY ( 'part', '', ( #213 ) ) ;
#110 = FACE_OUTER_BOUND ( 'NONE', #173, .T. ) ;
#111 = CIRCLE ( 'NONE', #276, 5.000000000000000000 ) ;
#112 = UNCERTAINTY_MEASURE_WITH_UNIT (LENGTH_MEASURE( 1.000000000000000082E-05 ), #35, 'distance_accuracy_value', 'NONE');
#113 = FILL_AREA_STYLE_COLOUR ( '', #160 ) ;
#114 = PLANE ( 'NONE',  #187 ) ;
#115 =( GEOMETRIC_REPRESENTATION_CONTEXT ( 3 ) GLOBAL_UNCERTAINTY_ASSIGNED_CONTEXT ( ( #193 ) ) GLOBAL_UNIT_ASSIGNED_CONTEXT ( ( #121, #240, #140 ) ) REPRESENTATION_CONTEXT ( 'NONE', 'WORKASPACE' ) );
#116 =( LENGTH_UNIT ( ) NAMED_UNIT ( * ) SI_UNIT ( .MILLI., .METRE. ) );
#117 = SURFACE_STYLE_FILL_AREA ( #52 ) ;
#118 = DIRECTION ( 'NONE',  ( -1.000000000000000000, 0.000000000000000000, 0.000000000000000000 ) ) ;
#119 = CIRCLE ( 'NONE', #32, 5.000000000000000000 ) ;
#120 = CARTESIAN_POINT ( 'NONE',  ( 0.000000000000000000, 0.000000000000000000, 0.000000000000000000 ) ) ;
#121 =( LENGTH_UNIT ( ) NAMED_UNIT ( * ) SI_UNIT ( .MILLI., .METRE. ) );
#122 = APPLICATION_CONTEXT ( 'automotive_design' ) ;
#123 = EDGE_LOOP ( 'NONE', ( #286, #154 ) ) ;
#124 = FILL_AREA_STYLE_COLOUR ( '', #18 ) ;
#125 = DIRECTION ( 'NONE',  ( -1.000000000000000000, 0.000000000000000000, 0.000000000000000000 ) ) ;
#126 = COLOUR_RGB ( '',1.000000000000000000, 0.000000000000000000, 0.000000000000000000 ) ;
#127 = UNCERTAINTY_MEASURE_WITH_UNIT (LENGTH_MEASURE( 1.000000000000000082E-05 ), #116, 'distance_accuracy_value', 'NONE');
#128 = AXIS2_PLACEMENT_3D ( 'NONE', #36, #241, #212 ) ;
#129 = CARTESIAN_POINT ( 'NONE',  ( 0.000000000000000000, 0.000000000000000000, 0.000000000000000000 ) ) ;
#130 = CARTESIAN_POINT ( 'NONE',  ( 0.000000000000000000, 15.00000000000000000, 0.000000000000000000 ) ) ;
#131 = SURFACE_STYLE_USAGE ( .BOTH. , #96 ) ;
#132 = PRESENTATION_LAYER_ASSIGNMENT (  '', '', ( #40 ) ) ;
#133 = SURFACE_STYLE_FILL_AREA ( #152 ) ;
#134 = EDGE_CURVE ( 'NONE', #259, #39, #143, .T. ) ;
#135 =( NAMED_UNIT ( * ) PLANE_ANGLE_UNIT ( ) SI_UNIT ( $, .RADIAN. ) );
#136 = FILL_AREA_STYLE_COLOUR ( '', #126 ) ;
#137 = STYLED_ITEM ( 'NONE', ( #6 ), #167 ) ;
#138 = EDGE_CURVE ( 'NONE', #208, #169, #177, .T. ) ;
#139 = PLANE ( 'NONE',  #231 ) ;
#140 =( NAMED_UNIT ( * ) SI_UNIT ( $, .STERADIAN. ) SOLID_ANGLE_UNIT ( ) );
#141 = ORIENTED_EDGE ( 'NONE', *, *, #150, .F. ) ;
#142 = DIRECTION ( 'NONE',  ( 1.275673749111823304E-18, 1.000000000000000000, -0.000000000000000000 ) ) ;
#143 = CIRCLE ( 'NONE', #281, 5.000000000000000000 ) ;
#144 = SURFACE_STYLE_USAGE ( .BOTH. , #34 ) ;
#145 = ADVANCED_FACE ( 'NONE', ( #195 ), #216, .T. ) ;
#146 = ORIENTED_EDGE ( 'NONE', *, *, #247, .F. ) ;
#147 = DIRECTION ( 'NONE',  ( -0.000000000000000000, -1.000000000000000000, -0.000000000000000000 ) ) ;
#148 = ORIENTED_EDGE ( 'NONE', *, *, #48, .F. ) ;
#149 = CARTESIAN_POINT ( 'NONE',  ( 6.123233995736752477E-17, 63.00000000000000000, 0.000000000000000000 ) ) ;
#150 = EDGE_CURVE ( 'NONE', #39, #259, #46, .T. ) ;
#151 = COLOUR_RGB ( '',1.000000000000000000, 0.000000000000000000, 0.000000000000000000 ) ;
#152 = FILL_AREA_STYLE ('',( #223 ) ) ;
#153 = PRESENTATION_LAYER_ASSIGNMENT (  '', '', ( #254 ) ) ;
#154 = ORIENTED_EDGE ( 'NONE', *, *, #188, .F. ) ;
#155 = SURFACE_STYLE_USAGE ( .BOTH. , #91 ) ;
#156 = PRESENTATION_LAYER_ASSIGNMENT (  '', '', ( #23 ) ) ;
#157 = PRODUCT_DEFINITION_FORMATION_WITH_SPECIFIED_SOURCE ( 'ANY', '', #213, .NOT_KNOWN. ) ;
#158 = CYLINDRICAL_SURFACE ( 'NONE', #88, 5.000000000000000000 ) ;
#159 = CARTESIAN_POINT ( 'NONE',  ( 0.000000000000000000, 15.00000000000000000, 0.000000000000000000 ) ) ;
#160 = COLOUR_RGB ( '',1.000000000000000000, 0.000000000000000000, 0.000000000000000000 ) ;
#161 =( NAMED_UNIT ( * ) PLANE_ANGLE_UNIT ( ) SI_UNIT ( $, .RADIAN. ) );
#162 = FILL_AREA_STYLE_COLOUR ( '', #76 ) ;
#163 = CARTESIAN_POINT ( 'NONE',  ( 6.123233995736766282E-16, 15.00000000000000000, 5.000000000000000000 ) ) ;
#164 = STYLED_ITEM ( 'NONE', ( #200 ), #270 ) ;
#165 = FILL_AREA_STYLE ('',( #124 ) ) ;
#166 = CYLINDRICAL_SURFACE ( 'NONE', #50, 5.000000000000000000 ) ;
#167 = ADVANCED_FACE ( 'NONE', ( #110 ), #114, .T. ) ;
#168 = PLANE ( 'NONE',  #194 ) ;
#169 = VERTEX_POINT ( 'NONE', #274 ) ;
#170 = PRODUCT_CONTEXT ( 'NONE', #25, 'mechanical' ) ;
#171 = ADVANCED_FACE ( 'NONE', ( #172 ), #158, .T. ) ;
#172 = FACE_OUTER_BOUND ( 'NONE', #191, .T. ) ;
#173 = EDGE_LOOP ( 'NONE', ( #211, #201 ) ) ;
#174 = UNCERTAINTY_MEASURE_WITH_UNIT (LENGTH_MEASURE( 1.000000000000000082E-05 ), #244, 'distance_accuracy_value', 'NONE');
#175 = DIRECTION ( 'NONE',  ( -0.000000000000000000, -1.000000000000000000, -0.000000000000000000 ) ) ;
#176 = SURFACE_STYLE_USAGE ( .BOTH. , #272 ) ;
#177 = LINE ( 'NONE', #249, #203 ) ;
#178 = MANIFOLD_SOLID_BREP ( 'Revolve - Tool Body (Straight Shanked)', #287 ) ;
#179 = LINE ( 'NONE', #27, #250 ) ;
#180 = DIRECTION ( 'NONE',  ( 1.275673749111823304E-18, 1.000000000000000000, -0.000000000000000000 ) ) ;
#181 = AXIS2_PLACEMENT_3D ( 'NONE', #149, #38, #214 ) ;
#182 = STYLED_ITEM ( 'NONE', ( #11 ), #278 ) ;
#183 = DIRECTION ( 'NONE',  ( 0.000000000000000000, 1.000000000000000000, 0.000000000000000000 ) ) ;
#184 =( NAMED_UNIT ( * ) SI_UNIT ( $, .STERADIAN. ) SOLID_ANGLE_UNIT ( ) );
#185 = ORIENTED_EDGE ( 'NONE', *, *, #9, .F. ) ;
#186 =( NAMED_UNIT ( * ) SI_UNIT ( $, .STERADIAN. ) SOLID_ANGLE_UNIT ( ) );
#187 = AXIS2_PLACEMENT_3D ( 'NONE', #129, #266, #222 ) ;
#188 = EDGE_CURVE ( 'NONE', #261, #208, #119, .T. ) ;
#189 =( NAMED_UNIT ( * ) SI_UNIT ( $, .STERADIAN. ) SOLID_ANGLE_UNIT ( ) );
#190 = CARTESIAN_POINT ( 'NONE',  ( 6.123233995736766282E-16, 0.000000000000000000, 5.000000000000000000 ) ) ;
#191 = EDGE_LOOP ( 'NONE', ( #265, #102, #64, #215 ) ) ;
#192 = CARTESIAN_POINT ( 'NONE',  ( 0.000000000000000000, 15.00000000000000000, 0.000000000000000000 ) ) ;
#193 = UNCERTAINTY_MEASURE_WITH_UNIT (LENGTH_MEASURE( 1.000000000000000082E-05 ), #121, 'distance_accuracy_value', 'NONE');
#194 = AXIS2_PLACEMENT_3D ( 'NONE', #264, #209, #61 ) ;
#195 = FACE_OUTER_BOUND ( 'NONE', #105, .T. ) ;
#196 = PRESENTATION_LAYER_ASSIGNMENT (  '', '', ( #164 ) ) ;
#197 =( NAMED_UNIT ( * ) PLANE_ANGLE_UNIT ( ) SI_UNIT ( $, .RADIAN. ) );
#198 = DIRECTION ( 'NONE',  ( 0.000000000000000000, 0.000000000000000000, -1.000000000000000000 ) ) ;
#199 = MECHANICAL_DESIGN_GEOMETRIC_PRESENTATION_REPRESENTATION (  '', ( #40 ), #115 ) ;
#200 = PRESENTATION_STYLE_ASSIGNMENT (( #131 ) ) ;
#201 = ORIENTED_EDGE ( 'NONE', *, *, #9, .T. ) ;
#202 = SURFACE_STYLE_USAGE ( .BOTH. , #233 ) ;
#203 = VECTOR ( 'NONE', #22, 1000.000000000000000 ) ;
#204 = EDGE_CURVE ( 'NONE', #208, #261, #257, .T. ) ;
#205 = SURFACE_STYLE_USAGE ( .BOTH. , #230 ) ;
#206 = EDGE_LOOP ( 'NONE', ( #28, #107, #19, #218 ) ) ;
#207 = DIRECTION ( 'NONE',  ( 1.275673749111823304E-18, 1.000000000000000000, -0.000000000000000000 ) ) ;
#208 = VERTEX_POINT ( 'NONE', #228 ) ;
#209 = DIRECTION ( 'NONE',  ( 1.275673749111823304E-18, 1.000000000000000000, -0.000000000000000000 ) ) ;
#210 = EDGE_LOOP ( 'NONE', ( #141, #67 ) ) ;
#211 = ORIENTED_EDGE ( 'NONE', *, *, #247, .T. ) ;
#212 = DIRECTION ( 'NONE',  ( 1.000000000000000000, -1.275673749111823304E-18, 0.000000000000000000 ) ) ;
#213 = PRODUCT ( '59464', '59464', '', ( #170 ) ) ;
#214 = DIRECTION ( 'NONE',  ( -1.000000000000000000, 0.000000000000000000, 0.000000000000000000 ) ) ;
#215 = ORIENTED_EDGE ( 'NONE', *, *, #138, .F. ) ;
#216 = CYLINDRICAL_SURFACE ( 'NONE', #273, 5.000000000000000000 ) ;
#217 =( NAMED_UNIT ( * ) SI_UNIT ( $, .STERADIAN. ) SOLID_ANGLE_UNIT ( ) );
#218 = ORIENTED_EDGE ( 'NONE', *, *, #98, .F. ) ;
#219 = EDGE_CURVE ( 'NONE', #261, #58, #179, .T. ) ;
#220 = CIRCLE ( 'NONE', #181, 5.000000000000000000 ) ;
#221 = COLOUR_RGB ( '',0.7921568627450980005, 0.8196078431372548767, 0.9333333333333333481 ) ;
#222 = DIRECTION ( 'NONE',  ( 0.000000000000000000, 0.000000000000000000, -1.000000000000000000 ) ) ;
#223 = FILL_AREA_STYLE_COLOUR ( '', #221 ) ;
#224 = PRESENTATION_STYLE_ASSIGNMENT (( #202 ) ) ;
#225 = CIRCLE ( 'NONE', #99, 5.000000000000000000 ) ;
#226 = PRESENTATION_LAYER_ASSIGNMENT (  '', '', ( #182 ) ) ;
#227 = CARTESIAN_POINT ( 'NONE',  ( 5.000000000000000000, 15.00000000000000000, 6.123233995736766282E-16 ) ) ;
#228 = CARTESIAN_POINT ( 'NONE',  ( -5.000000000000000000, 15.00000000000000000, 0.000000000000000000 ) ) ;
#229 = ORIENTED_EDGE ( 'NONE', *, *, #134, .T. ) ;
#230 = SURFACE_SIDE_STYLE ('',( #53 ) ) ;
#231 = AXIS2_PLACEMENT_3D ( 'NONE', #26, #183, #277 ) ;
#232 = MECHANICAL_DESIGN_GEOMETRIC_PRESENTATION_REPRESENTATION (  '', ( #137 ), #262 ) ;
#233 = SURFACE_SIDE_STYLE ('',( #133 ) ) ;
#234 = FACE_OUTER_BOUND ( 'NONE', #123, .T. ) ;
#235 = DIRECTION ( 'NONE',  ( -1.000000000000000000, 0.000000000000000000, 0.000000000000000000 ) ) ;
#236 = VECTOR ( 'NONE', #1, 1000.000000000000000 ) ;
#237 = AXIS2_PLACEMENT_3D ( 'NONE', #65, #147, #59 ) ;
#238 = PRESENTATION_STYLE_ASSIGNMENT (( #144 ) ) ;
#239 = DIRECTION ( 'NONE',  ( -0.000000000000000000, -1.000000000000000000, -0.000000000000000000 ) ) ;
#240 =( NAMED_UNIT ( * ) PLANE_ANGLE_UNIT ( ) SI_UNIT ( $, .RADIAN. ) );
#241 = DIRECTION ( 'NONE',  ( -1.275673749111823304E-18, -1.000000000000000000, 0.000000000000000000 ) ) ;
#242 = PRODUCT_DEFINITION_SHAPE ( 'NONE', 'NONE',  #3 ) ;
#243 = AXIS2_PLACEMENT_3D ( 'NONE', #159, #180, #253 ) ;
#244 =( LENGTH_UNIT ( ) NAMED_UNIT ( * ) SI_UNIT ( .MILLI., .METRE. ) );
#245 = ORIENTED_EDGE ( 'NONE', *, *, #98, .T. ) ;
#246 = PRODUCT_DEFINITION_CONTEXT ( 'detailed design', #122, 'design' ) ;
#247 = EDGE_CURVE ( 'NONE', #279, #285, #74, .T. ) ;
#248 = FILL_AREA_STYLE_COLOUR ( '', #151 ) ;
#249 = CARTESIAN_POINT ( 'NONE',  ( -5.000000000000000000, 63.00000000000000000, 0.000000000000000000 ) ) ;
#250 = VECTOR ( 'NONE', #207, 1000.000000000000000 ) ;
#251 = DIRECTION ( 'NONE',  ( 1.275673749111823304E-18, 1.000000000000000000, -0.000000000000000000 ) ) ;
#252 = DIRECTION ( 'NONE',  ( 0.000000000000000000, 0.000000000000000000, -1.000000000000000000 ) ) ;
#253 = DIRECTION ( 'NONE',  ( -1.000000000000000000, 0.000000000000000000, 0.000000000000000000 ) ) ;
#254 = STYLED_ITEM ( 'NONE', ( #224 ), #178 ) ;
#255 = DIRECTION ( 'NONE',  ( 1.275673749111823304E-18, 1.000000000000000000, -0.000000000000000000 ) ) ;
#256 = FILL_AREA_STYLE ('',( #162 ) ) ;
#257 = CIRCLE ( 'NONE', #243, 5.000000000000000000 ) ;
#258 = DIRECTION ( 'NONE',  ( 1.000000000000000000, 0.000000000000000000, 0.000000000000000000 ) ) ;
#259 = VERTEX_POINT ( 'NONE', #163 ) ;
#260 =( NAMED_UNIT ( * ) PLANE_ANGLE_UNIT ( ) SI_UNIT ( $, .RADIAN. ) );
#261 = VERTEX_POINT ( 'NONE', #227 ) ;
#262 =( GEOMETRIC_REPRESENTATION_CONTEXT ( 3 ) GLOBAL_UNCERTAINTY_ASSIGNED_CONTEXT ( ( #174 ) ) GLOBAL_UNIT_ASSIGNED_CONTEXT ( ( #244, #197, #73 ) ) REPRESENTATION_CONTEXT ( 'NONE', 'WORKASPACE' ) );
#263 = CARTESIAN_POINT ( 'NONE',  ( 0.000000000000000000, 0.000000000000000000, -5.000000000000000000 ) ) ;
#264 = CARTESIAN_POINT ( 'NONE',  ( 4.068358785432537958E-36, 15.00000000000000000, 0.000000000000000000 ) ) ;
#265 = ORIENTED_EDGE ( 'NONE', *, *, #204, .T. ) ;
#266 = DIRECTION ( 'NONE',  ( 0.000000000000000000, -1.000000000000000000, -0.000000000000000000 ) ) ;
#267 = ORIENTED_EDGE ( 'NONE', *, *, #89, .T. ) ;
#268 = VECTOR ( 'NONE', #239, 1000.000000000000000 ) ;
#269 =( GEOMETRIC_REPRESENTATION_CONTEXT ( 3 ) GLOBAL_UNCERTAINTY_ASSIGNED_CONTEXT ( ( #71 ) ) GLOBAL_UNIT_ASSIGNED_CONTEXT ( ( #49, #135, #95 ) ) REPRESENTATION_CONTEXT ( 'NONE', 'WORKASPACE' ) );
#270 = ADVANCED_FACE ( 'NONE', ( #79 ), #139, .T. ) ;
#271 = SURFACE_STYLE_FILL_AREA ( #42 ) ;
#272 = SURFACE_SIDE_STYLE ('',( #271 ) ) ;
#273 = AXIS2_PLACEMENT_3D ( 'NONE', #8, #72, #41 ) ;
#274 = CARTESIAN_POINT ( 'NONE',  ( -5.000000000000000000, 63.00000000000000000, 0.000000000000000000 ) ) ;
#275 = CARTESIAN_POINT ( 'NONE',  ( 0.000000000000000000, 0.000000000000000000, 0.000000000000000000 ) ) ;
#276 = AXIS2_PLACEMENT_3D ( 'NONE', #284, #288, #125 ) ;
#277 = DIRECTION ( 'NONE',  ( 0.000000000000000000, -0.000000000000000000, 1.000000000000000000 ) ) ;
#278 = MANIFOLD_SOLID_BREP ( 'Revolve - Cutting Edge', #94 ) ;
#279 = VERTEX_POINT ( 'NONE', #263 ) ;
#280 = ADVANCED_FACE ( 'NONE', ( #283 ), #78, .T. ) ;
#281 = AXIS2_PLACEMENT_3D ( 'NONE', #192, #175, #198 ) ;
#282 = ORIENTED_EDGE ( 'NONE', *, *, #48, .T. ) ;
#283 = FACE_OUTER_BOUND ( 'NONE', #17, .T. ) ;
#284 = CARTESIAN_POINT ( 'NONE',  ( 6.123233995736752477E-17, 63.00000000000000000, 0.000000000000000000 ) ) ;
#285 = VERTEX_POINT ( 'NONE', #97 ) ;
#286 = ORIENTED_EDGE ( 'NONE', *, *, #204, .F. ) ;
#287 = CLOSED_SHELL ( 'NONE', ( #171, #33, #54, #45 ) ) ;
#288 = DIRECTION ( 'NONE',  ( 1.275673749111823304E-18, 1.000000000000000000, -0.000000000000000000 ) ) ;
ENDSEC;
END-ISO-10303-21;
