ISO-10303-21;
HEADER;
FILE_DESCRIPTION (( 'STEP AP214' ),
    '1' );
FILE_NAME ('Micro_SFL-250-46.STEP',
    '2021-09-02T05:01:00',
    ( '' ),
    ( '' ),
    'SwSTEP 2.0',
    'SolidWorks 2020',
    '' );
FILE_SCHEMA (( 'AUTOMOTIVE_DESIGN' ));
ENDSEC;

DATA;
#1 = ORIENTED_EDGE ( 'NONE', *, *, #110, .T. ) ;
#2 = VECTOR ( 'NONE', #263, 39.37007874015747433 ) ;
#3 = ORIENTED_EDGE ( 'NONE', *, *, #213, .F. ) ;
#4 = CARTESIAN_POINT ( 'NONE',  ( 0.0000000000000000000, 0.0000000000000000000, 2.485000000000000320 ) ) ;
#5 = CONICAL_SURFACE ( 'NONE', #174, 0.1100000000000001948, 0.7853981633974517207 ) ;
#6 =( GEOMETRIC_REPRESENTATION_CONTEXT ( 3 ) GLOBAL_UNCERTAINTY_ASSIGNED_CONTEXT ( ( #180 ) ) GLOBAL_UNIT_ASSIGNED_CONTEXT ( ( #100, #24, #48 ) ) REPRESENTATION_CONTEXT ( 'NONE', 'WORKASPACE' ) );
#7 = CARTESIAN_POINT ( 'NONE',  ( -0.1248749999999999166, 1.530043094684724646E-17, 0.7500000000000001110 ) ) ;
#8 = DIRECTION ( 'NONE',  ( -0.0000000000000000000, -0.0000000000000000000, -1.000000000000000000 ) ) ;
#9 = DIRECTION ( 'NONE',  ( -1.224646799147353207E-16, -0.0000000000000000000, -1.000000000000000000 ) ) ;
#10 = ADVANCED_FACE ( 'NONE', ( #149 ), #127, .F. ) ;
#11 = VECTOR ( 'NONE', #148, 39.37007874015748143 ) ;
#12 = CIRCLE ( 'NONE', #54, 0.1250000000000000000 ) ;
#13 = CARTESIAN_POINT ( 'NONE',  ( -0.1248749999999999999, 0.0000000000000000000, 1.529277690435257475E-17 ) ) ;
#14 = EDGE_CURVE ( 'NONE', #52, #145, #241, .T. ) ;
#15 = APPLICATION_CONTEXT ( 'automotive_design' ) ;
#16 = DIRECTION ( 'NONE',  ( -1.224646799147353207E-16, -0.0000000000000000000, -1.000000000000000000 ) ) ;
#17 = CYLINDRICAL_SURFACE ( 'NONE', #78, 0.1250000000000000000 ) ;
#18 = CARTESIAN_POINT ( 'NONE',  ( 0.0000000000000000000, 0.0000000000000000000, 2.500000000000000000 ) ) ;
#19 = MECHANICAL_DESIGN_GEOMETRIC_PRESENTATION_REPRESENTATION (  '', ( #150 ), #137 ) ;
#20 = SHAPE_DEFINITION_REPRESENTATION ( #278, #96 ) ;
#21 = ORIENTED_EDGE ( 'NONE', *, *, #26, .T. ) ;
#22 = DIRECTION ( 'NONE',  ( 0.0000000000000000000, 0.0000000000000000000, -1.000000000000000000 ) ) ;
#23 = CIRCLE ( 'NONE', #133, 0.1100000000000001948 ) ;
#24 =( NAMED_UNIT ( * ) PLANE_ANGLE_UNIT ( ) SI_UNIT ( $, .RADIAN. ) );
#25 = EDGE_LOOP ( 'NONE', ( #55, #92, #257, #210 ) ) ;
#26 = EDGE_CURVE ( 'NONE', #234, #248, #46, .T. ) ;
#27 = EDGE_LOOP ( 'NONE', ( #140, #144, #21, #277 ) ) ;
#28 = CONICAL_SURFACE ( 'NONE', #187, 0.1248749999999999999, 0.1745329251994338082 ) ;
#29 = ORIENTED_EDGE ( 'NONE', *, *, #26, .F. ) ;
#30 = ORIENTED_EDGE ( 'NONE', *, *, #51, .T. ) ;
#31 = DIRECTION ( 'NONE',  ( -1.000000000000000000, 0.0000000000000000000, 0.0000000000000000000 ) ) ;
#32 = MECHANICAL_DESIGN_GEOMETRIC_PRESENTATION_REPRESENTATION (  '', ( #291 ), #6 ) ;
#33 = DIRECTION ( 'NONE',  ( -1.000000000000000000, 0.0000000000000000000, 1.224646799147353454E-16 ) ) ;
#34 = CARTESIAN_POINT ( 'NONE',  ( 0.1250000000000000000, 1.530808498934191509E-17, 2.500000000000000000 ) ) ;
#35 = DIRECTION ( 'NONE',  ( 1.000000000000000000, 0.0000000000000000000, 0.0000000000000000000 ) ) ;
#36 = EDGE_CURVE ( 'NONE', #43, #248, #130, .T. ) ;
#37 = VECTOR ( 'NONE', #198, 39.37007874015748143 ) ;
#38 = DIRECTION ( 'NONE',  ( 0.1736481776669313026, 0.0000000000000000000, 0.9848077530122077983 ) ) ;
#39 = CARTESIAN_POINT ( 'NONE',  ( 9.184850993605150903E-17, 0.0000000000000000000, 0.7500000000000001110 ) ) ;
#40 =( NAMED_UNIT ( * ) PLANE_ANGLE_UNIT ( ) SI_UNIT ( $, .RADIAN. ) );
#41 = ADVANCED_FACE ( 'NONE', ( #103 ), #214, .T. ) ;
#42 = APPLICATION_PROTOCOL_DEFINITION ( 'draft international standard', 'automotive_design', 1998, #15 ) ;
#43 = VERTEX_POINT ( 'NONE', #242 ) ;
#44 = EDGE_CURVE ( 'NONE', #43, #166, #157, .T. ) ;
#45 = PRESENTATION_STYLE_ASSIGNMENT (( #86 ) ) ;
#46 = CIRCLE ( 'NONE', #167, 0.1250000000000000000 ) ;
#47 =( GEOMETRIC_REPRESENTATION_CONTEXT ( 3 ) GLOBAL_UNCERTAINTY_ASSIGNED_CONTEXT ( ( #292 ) ) GLOBAL_UNIT_ASSIGNED_CONTEXT ( ( #163, #227, #275 ) ) REPRESENTATION_CONTEXT ( 'NONE', 'WORKASPACE' ) );
#48 =( NAMED_UNIT ( * ) SI_UNIT ( $, .STERADIAN. ) SOLID_ANGLE_UNIT ( ) );
#49 = CARTESIAN_POINT ( 'NONE',  ( 0.0000000000000000000, 0.0000000000000000000, 2.500000000000000000 ) ) ;
#50 = ORIENTED_EDGE ( 'NONE', *, *, #139, .F. ) ;
#51 = EDGE_CURVE ( 'NONE', #122, #43, #287, .T. ) ;
#52 = VERTEX_POINT ( 'NONE', #7 ) ;
#53 = EDGE_LOOP ( 'NONE', ( #189, #279, #207, #146 ) ) ;
#54 = AXIS2_PLACEMENT_3D ( 'NONE', #247, #136, #141 ) ;
#55 = ORIENTED_EDGE ( 'NONE', *, *, #36, .F. ) ;
#56 = CARTESIAN_POINT ( 'NONE',  ( 0.0000000000000000000, 0.0000000000000000000, 0.0000000000000000000 ) ) ;
#57 = CARTESIAN_POINT ( 'NONE',  ( 0.0000000000000000000, 0.0000000000000000000, 2.500000000000000000 ) ) ;
#58 = VECTOR ( 'NONE', #8, 39.37007874015748143 ) ;
#59 = LINE ( 'NONE', #216, #58 ) ;
#60 = DIRECTION ( 'NONE',  ( -1.224646799147353207E-16, -0.0000000000000000000, -1.000000000000000000 ) ) ;
#61 = DIRECTION ( 'NONE',  ( 1.000000000000000000, 0.0000000000000000000, -0.0000000000000000000 ) ) ;
#62 = COLOUR_RGB ( '',0.7921568627450980005, 0.8196078431372548767, 0.9333333333333333481 ) ;
#63 = CARTESIAN_POINT ( 'NONE',  ( -0.1250000000000000000, 0.0000000000000000000, 2.485000000000000320 ) ) ;
#64 = PRODUCT_DEFINITION_FORMATION_WITH_SPECIFIED_SOURCE ( 'ANY', '', #295, .NOT_KNOWN. ) ;
#65 = CARTESIAN_POINT ( 'NONE',  ( 0.0000000000000000000, 0.0000000000000000000, 2.500000000000000000 ) ) ;
#66 = DIRECTION ( 'NONE',  ( 1.000000000000000000, 0.0000000000000000000, 0.0000000000000000000 ) ) ;
#67 = CLOSED_SHELL ( 'NONE', ( #87, #261, #299, #151, #159, #156, #266, #143, #41, #10 ) ) ;
#68 = FACE_OUTER_BOUND ( 'NONE', #280, .T. ) ;
#69 = CIRCLE ( 'NONE', #228, 0.1250000000000000000 ) ;
#70 = ORIENTED_EDGE ( 'NONE', *, *, #205, .F. ) ;
#71 = DIRECTION ( 'NONE',  ( -1.000000000000000000, 0.0000000000000000000, 0.0000000000000000000 ) ) ;
#72 =( LENGTH_UNIT ( ) NAMED_UNIT ( * ) SI_UNIT ( $, .METRE. ) );
#73 =( LENGTH_UNIT ( ) NAMED_UNIT ( * ) SI_UNIT ( $, .METRE. ) );
#74 = LENGTH_MEASURE_WITH_UNIT ( LENGTH_MEASURE( 0.02539999999999999897 ), #72 );
#75 = ORIENTED_EDGE ( 'NONE', *, *, #14, .F. ) ;
#76 = VERTEX_POINT ( 'NONE', #194 ) ;
#77 = ORIENTED_EDGE ( 'NONE', *, *, #36, .T. ) ;
#78 = AXIS2_PLACEMENT_3D ( 'NONE', #65, #109, #202 ) ;
#79 = DIRECTION ( 'NONE',  ( -0.0000000000000000000, -0.0000000000000000000, -1.000000000000000000 ) ) ;
#80 = DIRECTION ( 'NONE',  ( -1.224646799147353207E-16, -0.0000000000000000000, -1.000000000000000000 ) ) ;
#81 = DIRECTION ( 'NONE',  ( 0.0000000000000000000, 0.0000000000000000000, 1.000000000000000000 ) ) ;
#82 = EDGE_CURVE ( 'NONE', #125, #145, #238, .T. ) ;
#83 = FACE_OUTER_BOUND ( 'NONE', #209, .T. ) ;
#84 = DIRECTION ( 'NONE',  ( 1.000000000000000000, 0.0000000000000000000, 0.0000000000000000000 ) ) ;
#85 = DIRECTION ( 'NONE',  ( -1.000000000000000000, 0.0000000000000000000, 1.224646799147353454E-16 ) ) ;
#86 = SURFACE_STYLE_USAGE ( .BOTH. , #269 ) ;
#87 = ADVANCED_FACE ( 'NONE', ( #284 ), #106, .T. ) ;
#88 = DIRECTION ( 'NONE',  ( -1.224646799147353207E-16, -0.0000000000000000000, -1.000000000000000000 ) ) ;
#89 = ORIENTED_EDGE ( 'NONE', *, *, #237, .F. ) ;
#90 = PRODUCT_DEFINITION_CONTEXT ( 'detailed design', #15, 'design' ) ;
#91 = FACE_OUTER_BOUND ( 'NONE', #27, .T. ) ;
#92 = ORIENTED_EDGE ( 'NONE', *, *, #44, .T. ) ;
#93 = SURFACE_STYLE_FILL_AREA ( #222 ) ;
#94 = PRESENTATION_LAYER_ASSIGNMENT (  '', '', ( #150 ) ) ;
#95 = APPLICATION_PROTOCOL_DEFINITION ( 'draft international standard', 'automotive_design', 1998, #255 ) ;
#96 = ADVANCED_BREP_SHAPE_REPRESENTATION ( 'Micro_SFL-250-46', ( #264, #124 ), #47 ) ;
#97 = ORIENTED_EDGE ( 'NONE', *, *, #245, .T. ) ;
#98 = SURFACE_SIDE_STYLE ('',( #211 ) ) ;
#99 = ORIENTED_EDGE ( 'NONE', *, *, #116, .F. ) ;
#100 =( CONVERSION_BASED_UNIT ( 'INCH', #165 ) LENGTH_UNIT ( ) NAMED_UNIT ( #233 ) );
#101 = ORIENTED_EDGE ( 'NONE', *, *, #230, .T. ) ;
#102 = DIRECTION ( 'NONE',  ( 1.224646799147353207E-16, 0.0000000000000000000, 1.000000000000000000 ) ) ;
#103 = FACE_OUTER_BOUND ( 'NONE', #53, .T. ) ;
#104 = FACE_OUTER_BOUND ( 'NONE', #272, .T. ) ;
#105 = EDGE_CURVE ( 'NONE', #52, #234, #196, .T. ) ;
#106 = CYLINDRICAL_SURFACE ( 'NONE', #243, 0.1248749999999999999 ) ;
#107 = PRESENTATION_LAYER_ASSIGNMENT (  '', '', ( #291 ) ) ;
#108 = DIRECTION ( 'NONE',  ( 0.0000000000000000000, 0.0000000000000000000, 1.000000000000000000 ) ) ;
#109 = DIRECTION ( 'NONE',  ( -0.0000000000000000000, -0.0000000000000000000, -1.000000000000000000 ) ) ;
#110 = EDGE_CURVE ( 'NONE', #212, #248, #176, .T. ) ;
#111 = CARTESIAN_POINT ( 'NONE',  ( 0.1248750000000000970, 0.0000000000000000000, 0.7500000000000001110 ) ) ;
#112 = AXIS2_PLACEMENT_3D ( 'NONE', #282, #79, #31 ) ;
#113 = DIRECTION ( 'NONE',  ( 1.000000000000000000, 0.0000000000000000000, 0.0000000000000000000 ) ) ;
#114 = CARTESIAN_POINT ( 'NONE',  ( 0.1250000000000000833, 1.530808498934192433E-17, 0.7507089102274522308 ) ) ;
#115 = DIRECTION ( 'NONE',  ( 0.0000000000000000000, 0.0000000000000000000, 1.000000000000000000 ) ) ;
#116 = EDGE_CURVE ( 'NONE', #122, #76, #297, .T. ) ;
#117 = ORIENTED_EDGE ( 'NONE', *, *, #237, .T. ) ;
#118 = CARTESIAN_POINT ( 'NONE',  ( 9.184850993605150903E-17, 0.0000000000000000000, 0.7500000000000001110 ) ) ;
#119 = AXIS2_PLACEMENT_3D ( 'NONE', #152, #239, #260 ) ;
#120 = FACE_OUTER_BOUND ( 'NONE', #229, .T. ) ;
#121 = ORIENTED_EDGE ( 'NONE', *, *, #51, .F. ) ;
#122 = VERTEX_POINT ( 'NONE', #219 ) ;
#123 = CIRCLE ( 'NONE', #223, 0.1248749999999999999 ) ;
#124 = AXIS2_PLACEMENT_3D ( 'NONE', #131, #115, #203 ) ;
#125 = VERTEX_POINT ( 'NONE', #177 ) ;
#126 = ORIENTED_EDGE ( 'NONE', *, *, #44, .F. ) ;
#127 = PLANE ( 'NONE',  #271 ) ;
#128 = VECTOR ( 'NONE', #171, 39.37007874015748143 ) ;
#129 = DIRECTION ( 'NONE',  ( 1.000000000000000000, 0.0000000000000000000, 0.0000000000000000000 ) ) ;
#130 = LINE ( 'NONE', #34, #37 ) ;
#131 = CARTESIAN_POINT ( 'NONE',  ( 0.0000000000000000000, 0.0000000000000000000, 0.0000000000000000000 ) ) ;
#132 = CARTESIAN_POINT ( 'NONE',  ( -0.1248749999999999166, 1.529277690435257475E-17, 0.7500000000000001110 ) ) ;
#133 = AXIS2_PLACEMENT_3D ( 'NONE', #18, #226, #289 ) ;
#134 = FACE_OUTER_BOUND ( 'NONE', #188, .T. ) ;
#135 =( LENGTH_UNIT ( ) NAMED_UNIT ( * ) SI_UNIT ( $, .METRE. ) );
#136 = DIRECTION ( 'NONE',  ( 0.0000000000000000000, 0.0000000000000000000, -1.000000000000000000 ) ) ;
#137 =( GEOMETRIC_REPRESENTATION_CONTEXT ( 3 ) GLOBAL_UNCERTAINTY_ASSIGNED_CONTEXT ( ( #267 ) ) GLOBAL_UNIT_ASSIGNED_CONTEXT ( ( #268, #40, #224 ) ) REPRESENTATION_CONTEXT ( 'NONE', 'WORKASPACE' ) );
#138 = CARTESIAN_POINT ( 'NONE',  ( 9.193532640014472135E-17, 0.0000000000000000000, 0.7507089102274522308 ) ) ;
#139 = EDGE_CURVE ( 'NONE', #166, #234, #59, .T. ) ;
#140 = ORIENTED_EDGE ( 'NONE', *, *, #245, .F. ) ;
#141 = DIRECTION ( 'NONE',  ( 1.000000000000000000, 0.0000000000000000000, 0.0000000000000000000 ) ) ;
#142 = CONICAL_SURFACE ( 'NONE', #197, 0.1100000000000001948, 0.7853981633974517207 ) ;
#143 = ADVANCED_FACE ( 'NONE', ( #134 ), #28, .T. ) ;
#144 = ORIENTED_EDGE ( 'NONE', *, *, #105, .T. ) ;
#145 = VERTEX_POINT ( 'NONE', #191 ) ;
#146 = ORIENTED_EDGE ( 'NONE', *, *, #82, .F. ) ;
#147 = ORIENTED_EDGE ( 'NONE', *, *, #82, .T. ) ;
#148 = DIRECTION ( 'NONE',  ( -1.224646799147353207E-16, -0.0000000000000000000, -1.000000000000000000 ) ) ;
#149 = FACE_OUTER_BOUND ( 'NONE', #168, .T. ) ;
#150 = STYLED_ITEM ( 'NONE', ( #45 ), #264 ) ;
#151 = ADVANCED_FACE ( 'NONE', ( #83 ), #154, .T. ) ;
#152 = CARTESIAN_POINT ( 'NONE',  ( 1.872825028598994811E-33, 0.0000000000000000000, 1.529277690435257475E-17 ) ) ;
#153 = PRODUCT_RELATED_PRODUCT_CATEGORY ( 'part', '', ( #295 ) ) ;
#154 = CYLINDRICAL_SURFACE ( 'NONE', #112, 0.1250000000000000000 ) ;
#155 = DIRECTION ( 'NONE',  ( 0.0000000000000000000, 0.0000000000000000000, 1.000000000000000000 ) ) ;
#156 = ADVANCED_FACE ( 'NONE', ( #104 ), #173, .T. ) ;
#157 = CIRCLE ( 'NONE', #286, 0.1250000000000000000 ) ;
#158 = LINE ( 'NONE', #178, #281 ) ;
#159 = ADVANCED_FACE ( 'NONE', ( #290 ), #17, .T. ) ;
#160 = AXIS2_PLACEMENT_3D ( 'NONE', #57, #155, #129 ) ;
#161 = DIRECTION ( 'NONE',  ( 1.224646799147353207E-16, 0.0000000000000000000, 1.000000000000000000 ) ) ;
#162 = CARTESIAN_POINT ( 'NONE',  ( -0.1249999999999999167, 0.0000000000000000000, 0.7507089102274522308 ) ) ;
#163 =( CONVERSION_BASED_UNIT ( 'INCH', #74 ) LENGTH_UNIT ( ) NAMED_UNIT ( #283 ) );
#164 = AXIS2_PLACEMENT_3D ( 'NONE', #244, #181, #71 ) ;
#165 = LENGTH_MEASURE_WITH_UNIT ( LENGTH_MEASURE( 0.02539999999999999897 ), #73 );
#166 = VERTEX_POINT ( 'NONE', #63 ) ;
#167 = AXIS2_PLACEMENT_3D ( 'NONE', #240, #80, #35 ) ;
#168 = EDGE_LOOP ( 'NONE', ( #294, #147 ) ) ;
#169 = VECTOR ( 'NONE', #38, 39.37007874015748143 ) ;
#170 = SURFACE_STYLE_USAGE ( .BOTH. , #98 ) ;
#171 = DIRECTION ( 'NONE',  ( 0.7071067811865499042, 8.659560562354961208E-17, -0.7071067811865451302 ) ) ;
#172 = CARTESIAN_POINT ( 'NONE',  ( 0.0000000000000000000, 0.0000000000000000000, 0.0000000000000000000 ) ) ;
#173 = PLANE ( 'NONE',  #252 ) ;
#174 = AXIS2_PLACEMENT_3D ( 'NONE', #49, #206, #298 ) ;
#175 = PRODUCT_DEFINITION ( 'UNKNOWN', '', #64, #90 ) ;
#176 = LINE ( 'NONE', #259, #169 ) ;
#177 = CARTESIAN_POINT ( 'NONE',  ( 0.1248749999999999999, 1.529277690435257475E-17, 0.0000000000000000000 ) ) ;
#178 = CARTESIAN_POINT ( 'NONE',  ( -0.1100000000000001948, 0.0000000000000000000, 2.500000000000000000 ) ) ;
#179 = PRODUCT_CONTEXT ( 'NONE', #255, 'mechanical' ) ;
#180 = UNCERTAINTY_MEASURE_WITH_UNIT (LENGTH_MEASURE( 1.000000000000000082E-05 ), #100, 'distance_accuracy_value', 'NONE');
#181 = DIRECTION ( 'NONE',  ( -1.224646799147353207E-16, -0.0000000000000000000, -1.000000000000000000 ) ) ;
#182 = ORIENTED_EDGE ( 'NONE', *, *, #213, .T. ) ;
#183 = CIRCLE ( 'NONE', #164, 0.1248749999999999999 ) ;
#184 = DIRECTION ( 'NONE',  ( 1.000000000000000000, 0.0000000000000000000, -0.0000000000000000000 ) ) ;
#185 = FILL_AREA_STYLE_COLOUR ( '', #232 ) ;
#186 = PRESENTATION_STYLE_ASSIGNMENT (( #170 ) ) ;
#187 = AXIS2_PLACEMENT_3D ( 'NONE', #258, #102, #235 ) ;
#188 = EDGE_LOOP ( 'NONE', ( #250, #190, #1, #101 ) ) ;
#189 = ORIENTED_EDGE ( 'NONE', *, *, #253, .F. ) ;
#190 = ORIENTED_EDGE ( 'NONE', *, *, #193, .F. ) ;
#191 = CARTESIAN_POINT ( 'NONE',  ( -0.1248749999999999999, 0.0000000000000000000, 3.058555380870514950E-17 ) ) ;
#192 = CIRCLE ( 'NONE', #200, 0.1248749999999999999 ) ;
#193 = EDGE_CURVE ( 'NONE', #212, #52, #123, .T. ) ;
#194 = CARTESIAN_POINT ( 'NONE',  ( -0.1100000000000001948, 0.0000000000000000000, 2.500000000000000000 ) ) ;
#195 = CARTESIAN_POINT ( 'NONE',  ( 0.0000000000000000000, 0.0000000000000000000, 2.500000000000000000 ) ) ;
#196 = LINE ( 'NONE', #132, #2 ) ;
#197 = AXIS2_PLACEMENT_3D ( 'NONE', #249, #22, #296 ) ;
#198 = DIRECTION ( 'NONE',  ( -0.0000000000000000000, -0.0000000000000000000, -1.000000000000000000 ) ) ;
#199 = DIRECTION ( 'NONE',  ( -1.224646799147353207E-16, -0.0000000000000000000, -1.000000000000000000 ) ) ;
#200 = AXIS2_PLACEMENT_3D ( 'NONE', #201, #221, #85 ) ;
#201 = CARTESIAN_POINT ( 'NONE',  ( 1.872825028598994811E-33, 0.0000000000000000000, 1.529277690435257475E-17 ) ) ;
#202 = DIRECTION ( 'NONE',  ( -1.000000000000000000, 0.0000000000000000000, 0.0000000000000000000 ) ) ;
#203 = DIRECTION ( 'NONE',  ( 1.000000000000000000, 0.0000000000000000000, 0.0000000000000000000 ) ) ;
#204 = LINE ( 'NONE', #246, #276 ) ;
#205 = EDGE_CURVE ( 'NONE', #76, #166, #158, .T. ) ;
#206 = DIRECTION ( 'NONE',  ( 0.0000000000000000000, 0.0000000000000000000, -1.000000000000000000 ) ) ;
#207 = ORIENTED_EDGE ( 'NONE', *, *, #14, .T. ) ;
#208 = CONICAL_SURFACE ( 'NONE', #220, 0.1248749999999999999, 0.1745329251994338082 ) ;
#209 = EDGE_LOOP ( 'NONE', ( #117, #77, #29, #50 ) ) ;
#210 = ORIENTED_EDGE ( 'NONE', *, *, #230, .F. ) ;
#211 = SURFACE_STYLE_FILL_AREA ( #274 ) ;
#212 = VERTEX_POINT ( 'NONE', #111 ) ;
#213 = EDGE_CURVE ( 'NONE', #76, #122, #23, .T. ) ;
#214 = CYLINDRICAL_SURFACE ( 'NONE', #215, 0.1248749999999999999 ) ;
#215 = AXIS2_PLACEMENT_3D ( 'NONE', #56, #9, #285 ) ;
#216 = CARTESIAN_POINT ( 'NONE',  ( -0.1250000000000000000, 0.0000000000000000000, 2.500000000000000000 ) ) ;
#217 = CARTESIAN_POINT ( 'NONE',  ( 0.0000000000000000000, 0.0000000000000000000, 0.0000000000000000000 ) ) ;
#218 = EDGE_CURVE ( 'NONE', #145, #125, #192, .T. ) ;
#219 = CARTESIAN_POINT ( 'NONE',  ( 0.1100000000000001948, 1.438959988998141146E-17, 2.500000000000000000 ) ) ;
#220 = AXIS2_PLACEMENT_3D ( 'NONE', #39, #161, #66 ) ;
#221 = DIRECTION ( 'NONE',  ( -1.224646799147353207E-16, -0.0000000000000000000, -1.000000000000000000 ) ) ;
#222 = FILL_AREA_STYLE ('',( #251 ) ) ;
#223 = AXIS2_PLACEMENT_3D ( 'NONE', #118, #199, #273 ) ;
#224 =( NAMED_UNIT ( * ) SI_UNIT ( $, .STERADIAN. ) SOLID_ANGLE_UNIT ( ) );
#225 = ORIENTED_EDGE ( 'NONE', *, *, #116, .T. ) ;
#226 = DIRECTION ( 'NONE',  ( 0.0000000000000000000, 0.0000000000000000000, 1.000000000000000000 ) ) ;
#227 =( NAMED_UNIT ( * ) PLANE_ANGLE_UNIT ( ) SI_UNIT ( $, .RADIAN. ) );
#228 = AXIS2_PLACEMENT_3D ( 'NONE', #138, #16, #113 ) ;
#229 = EDGE_LOOP ( 'NONE', ( #99, #30, #89, #70 ) ) ;
#230 = EDGE_CURVE ( 'NONE', #248, #234, #69, .T. ) ;
#231 = EDGE_LOOP ( 'NONE', ( #97, #254, #270, #75 ) ) ;
#232 = COLOUR_RGB ( '',0.7921568627450980005, 0.8196078431372548767, 0.9333333333333333481 ) ;
#233 = DIMENSIONAL_EXPONENTS ( 1.000000000000000000, 0.0000000000000000000, 0.0000000000000000000, 0.0000000000000000000, 0.0000000000000000000, 0.0000000000000000000, 0.0000000000000000000 ) ;
#234 = VERTEX_POINT ( 'NONE', #162 ) ;
#235 = DIRECTION ( 'NONE',  ( 1.000000000000000000, 0.0000000000000000000, 0.0000000000000000000 ) ) ;
#236 = DIMENSIONAL_EXPONENTS ( 1.000000000000000000, 0.0000000000000000000, 0.0000000000000000000, 0.0000000000000000000, 0.0000000000000000000, 0.0000000000000000000, 0.0000000000000000000 ) ;
#237 = EDGE_CURVE ( 'NONE', #166, #43, #12, .T. ) ;
#238 = CIRCLE ( 'NONE', #119, 0.1248749999999999999 ) ;
#239 = DIRECTION ( 'NONE',  ( -1.224646799147353207E-16, -0.0000000000000000000, -1.000000000000000000 ) ) ;
#240 = CARTESIAN_POINT ( 'NONE',  ( 9.193532640014472135E-17, 0.0000000000000000000, 0.7507089102274522308 ) ) ;
#241 = LINE ( 'NONE', #13, #11 ) ;
#242 = CARTESIAN_POINT ( 'NONE',  ( 0.1250000000000000000, 1.530808498934191509E-17, 2.485000000000000320 ) ) ;
#243 = AXIS2_PLACEMENT_3D ( 'NONE', #217, #60, #33 ) ;
#244 = CARTESIAN_POINT ( 'NONE',  ( 9.184850993605150903E-17, 0.0000000000000000000, 0.7500000000000001110 ) ) ;
#245 = EDGE_CURVE ( 'NONE', #52, #212, #183, .T. ) ;
#246 = CARTESIAN_POINT ( 'NONE',  ( 0.1248749999999999999, 1.529277690435257475E-17, -1.529277690435257475E-17 ) ) ;
#247 = CARTESIAN_POINT ( 'NONE',  ( 0.0000000000000000000, 0.0000000000000000000, 2.485000000000000320 ) ) ;
#248 = VERTEX_POINT ( 'NONE', #114 ) ;
#249 = CARTESIAN_POINT ( 'NONE',  ( 0.0000000000000000000, 0.0000000000000000000, 2.500000000000000000 ) ) ;
#250 = ORIENTED_EDGE ( 'NONE', *, *, #105, .F. ) ;
#251 = FILL_AREA_STYLE_COLOUR ( '', #62 ) ;
#252 = AXIS2_PLACEMENT_3D ( 'NONE', #195, #81, #184 ) ;
#253 = EDGE_CURVE ( 'NONE', #212, #125, #204, .T. ) ;
#254 = ORIENTED_EDGE ( 'NONE', *, *, #253, .T. ) ;
#255 = APPLICATION_CONTEXT ( 'automotive_design' ) ;
#256 = ORIENTED_EDGE ( 'NONE', *, *, #205, .T. ) ;
#257 = ORIENTED_EDGE ( 'NONE', *, *, #139, .T. ) ;
#258 = CARTESIAN_POINT ( 'NONE',  ( 9.184850993605150903E-17, 0.0000000000000000000, 0.7500000000000001110 ) ) ;
#259 = CARTESIAN_POINT ( 'NONE',  ( 0.1248750000000000970, 0.0000000000000000000, 0.7500000000000001110 ) ) ;
#260 = DIRECTION ( 'NONE',  ( -1.000000000000000000, 0.0000000000000000000, 1.224646799147353454E-16 ) ) ;
#261 = ADVANCED_FACE ( 'NONE', ( #91 ), #208, .T. ) ;
#262 = CARTESIAN_POINT ( 'NONE',  ( 0.1100000000000001948, 1.347111479062090784E-17, 2.500000000000000000 ) ) ;
#263 = DIRECTION ( 'NONE',  ( -0.1736481776669311083, 2.126576849575782084E-17, 0.9848077530122080203 ) ) ;
#264 = MANIFOLD_SOLID_BREP ( 'Cut-Revolve1', #67 ) ;
#265 = LENGTH_MEASURE_WITH_UNIT ( LENGTH_MEASURE( 0.02539999999999999897 ), #135 );
#266 = ADVANCED_FACE ( 'NONE', ( #68 ), #142, .T. ) ;
#267 = UNCERTAINTY_MEASURE_WITH_UNIT (LENGTH_MEASURE( 1.000000000000000082E-05 ), #268, 'distance_accuracy_value', 'NONE');
#268 =( CONVERSION_BASED_UNIT ( 'INCH', #265 ) LENGTH_UNIT ( ) NAMED_UNIT ( #236 ) );
#269 = SURFACE_SIDE_STYLE ('',( #93 ) ) ;
#270 = ORIENTED_EDGE ( 'NONE', *, *, #218, .F. ) ;
#271 = AXIS2_PLACEMENT_3D ( 'NONE', #172, #108, #61 ) ;
#272 = EDGE_LOOP ( 'NONE', ( #182, #225 ) ) ;
#273 = DIRECTION ( 'NONE',  ( -1.000000000000000000, 0.0000000000000000000, 0.0000000000000000000 ) ) ;
#274 = FILL_AREA_STYLE ('',( #185 ) ) ;
#275 =( NAMED_UNIT ( * ) SI_UNIT ( $, .STERADIAN. ) SOLID_ANGLE_UNIT ( ) );
#276 = VECTOR ( 'NONE', #88, 39.37007874015748143 ) ;
#277 = ORIENTED_EDGE ( 'NONE', *, *, #110, .F. ) ;
#278 = PRODUCT_DEFINITION_SHAPE ( 'NONE', 'NONE',  #175 ) ;
#279 = ORIENTED_EDGE ( 'NONE', *, *, #193, .T. ) ;
#280 = EDGE_LOOP ( 'NONE', ( #121, #3, #256, #126 ) ) ;
#281 = VECTOR ( 'NONE', #293, 39.37007874015748143 ) ;
#282 = CARTESIAN_POINT ( 'NONE',  ( 0.0000000000000000000, 0.0000000000000000000, 2.500000000000000000 ) ) ;
#283 = DIMENSIONAL_EXPONENTS ( 1.000000000000000000, 0.0000000000000000000, 0.0000000000000000000, 0.0000000000000000000, 0.0000000000000000000, 0.0000000000000000000, 0.0000000000000000000 ) ;
#284 = FACE_OUTER_BOUND ( 'NONE', #231, .T. ) ;
#285 = DIRECTION ( 'NONE',  ( -1.000000000000000000, 0.0000000000000000000, 1.224646799147353454E-16 ) ) ;
#286 = AXIS2_PLACEMENT_3D ( 'NONE', #4, #288, #84 ) ;
#287 = LINE ( 'NONE', #262, #128 ) ;
#288 = DIRECTION ( 'NONE',  ( 0.0000000000000000000, 0.0000000000000000000, -1.000000000000000000 ) ) ;
#289 = DIRECTION ( 'NONE',  ( 1.000000000000000000, 0.0000000000000000000, 0.0000000000000000000 ) ) ;
#290 = FACE_OUTER_BOUND ( 'NONE', #25, .T. ) ;
#291 = STYLED_ITEM ( 'NONE', ( #186 ), #96 ) ;
#292 = UNCERTAINTY_MEASURE_WITH_UNIT (LENGTH_MEASURE( 1.000000000000000082E-05 ), #163, 'distance_accuracy_value', 'NONE');
#293 = DIRECTION ( 'NONE',  ( -0.7071067811865499042, 0.0000000000000000000, -0.7071067811865451302 ) ) ;
#294 = ORIENTED_EDGE ( 'NONE', *, *, #218, .T. ) ;
#295 = PRODUCT ( 'Micro_SFL-250-46', 'Micro_SFL-250-46', '', ( #179 ) ) ;
#296 = DIRECTION ( 'NONE',  ( -1.000000000000000000, 0.0000000000000000000, 0.0000000000000000000 ) ) ;
#297 = CIRCLE ( 'NONE', #160, 0.1100000000000001948 ) ;
#298 = DIRECTION ( 'NONE',  ( -1.000000000000000000, 0.0000000000000000000, 0.0000000000000000000 ) ) ;
#299 = ADVANCED_FACE ( 'NONE', ( #120 ), #5, .T. ) ;
ENDSEC;
END-ISO-10303-21;
