ISO-10303-21;
HEADER;
FILE_DESCRIPTION (( 'STEP AP214' ),
    '1' );
FILE_NAME ('84992.STEP',
    '2023-06-23T15:24:44',
    ( '' ),
    ( '' ),
    'SwSTEP 2.0',
    'SolidWorks 2023',
    '' );
FILE_SCHEMA (( 'AUTOMOTIVE_DESIGN' ));
ENDSEC;

DATA;
#1 = SURFACE_STYLE_USAGE ( .BOTH. , #74 ) ;
#2 = VECTOR ( 'NONE', #25, 39.37007874015748143 ) ;
#3 = MECHANICAL_DESIGN_GEOMETRIC_PRESENTATION_REPRESENTATION (  '', ( #213 ), #142 ) ;
#4 = DIRECTION ( 'NONE',  ( -7.347880794884121462E-17, 1.000000000000000000, -0.000000000000000000 ) ) ;
#5 = CARTESIAN_POINT ( 'NONE',  ( -0.5000000000000004441, 4.500000000000000000, 0.000000000000000000 ) ) ;
#6 = DIRECTION ( 'NONE',  ( 0.000000000000000000, 0.000000000000000000, -1.000000000000000000 ) ) ;
#7 = VERTEX_POINT ( 'NONE', #5 ) ;
#8 = CARTESIAN_POINT ( 'NONE',  ( 0.000000000000000000, 0.000000000000000000, -0.5000000000000000000 ) ) ;
#9 = EDGE_LOOP ( 'NONE', ( #221, #249 ) ) ;
#10 =( NAMED_UNIT ( * ) SI_UNIT ( $, .STERADIAN. ) SOLID_ANGLE_UNIT ( ) );
#11 = FILL_AREA_STYLE ('',( #137 ) ) ;
#12 = CARTESIAN_POINT ( 'NONE',  ( 0.000000000000000000, 2.000000000000000000, 0.000000000000000000 ) ) ;
#13 =( GEOMETRIC_REPRESENTATION_CONTEXT ( 3 ) GLOBAL_UNCERTAINTY_ASSIGNED_CONTEXT ( ( #109 ) ) GLOBAL_UNIT_ASSIGNED_CONTEXT ( ( #19, #91, #260 ) ) REPRESENTATION_CONTEXT ( 'NONE', 'WORKASPACE' ) );
#14 = CIRCLE ( 'NONE', #126, 0.5000000000000000000 ) ;
#15 = SHAPE_DEFINITION_REPRESENTATION ( #205, #256 ) ;
#16 = LENGTH_MEASURE_WITH_UNIT ( LENGTH_MEASURE( 0.02539999999999999897 ), #107 );
#17 = DIRECTION ( 'NONE',  ( 0.000000000000000000, 0.000000000000000000, 1.000000000000000000 ) ) ;
#18 = LINE ( 'NONE', #257, #211 ) ;
#19 =( CONVERSION_BASED_UNIT ( 'INCH', #236 ) LENGTH_UNIT ( ) NAMED_UNIT ( #159 ) );
#20 = AXIS2_PLACEMENT_3D ( 'NONE', #303, #117, #164 ) ;
#21 = DIRECTION ( 'NONE',  ( -0.000000000000000000, -1.000000000000000000, -0.000000000000000000 ) ) ;
#22 = DIRECTION ( 'NONE',  ( -7.347880794884121462E-17, 1.000000000000000000, -0.000000000000000000 ) ) ;
#23 = LINE ( 'NONE', #73, #125 ) ;
#24 = CIRCLE ( 'NONE', #270, 0.5000000000000002220 ) ;
#25 = DIRECTION ( 'NONE',  ( -7.347880794884121462E-17, 1.000000000000000000, -0.000000000000000000 ) ) ;
#26 = CYLINDRICAL_SURFACE ( 'NONE', #172, 0.5000000000000000000 ) ;
#27 = FILL_AREA_STYLE_COLOUR ( '', #206 ) ;
#28 = EDGE_CURVE ( 'NONE', #57, #130, #133, .T. ) ;
#29 = FACE_OUTER_BOUND ( 'NONE', #202, .T. ) ;
#30 = DIRECTION ( 'NONE',  ( 0.000000000000000000, 0.000000000000000000, -1.000000000000000000 ) ) ;
#31 = CARTESIAN_POINT ( 'NONE',  ( 0.000000000000000000, 2.000000000000000000, 0.000000000000000000 ) ) ;
#32 = AXIS2_PLACEMENT_3D ( 'NONE', #217, #118, #95 ) ;
#33 = DIRECTION ( 'NONE',  ( -0.000000000000000000, -1.000000000000000000, -0.000000000000000000 ) ) ;
#34 = ORIENTED_EDGE ( 'NONE', *, *, #219, .T. ) ;
#35 = CARTESIAN_POINT ( 'NONE',  ( 0.000000000000000000, 0.000000000000000000, 0.000000000000000000 ) ) ;
#36 = SURFACE_STYLE_FILL_AREA ( #166 ) ;
#37 = MECHANICAL_DESIGN_GEOMETRIC_PRESENTATION_REPRESENTATION (  '', ( #229 ), #94 ) ;
#38 = PRESENTATION_LAYER_ASSIGNMENT (  '', '', ( #157 ) ) ;
#39 = ADVANCED_FACE ( 'NONE', ( #29 ), #26, .T. ) ;
#40 = AXIS2_PLACEMENT_3D ( 'NONE', #12, #110, #204 ) ;
#41 = UNCERTAINTY_MEASURE_WITH_UNIT (LENGTH_MEASURE( 1.000000000000000082E-05 ), #43, 'distance_accuracy_value', 'NONE');
#42 = CARTESIAN_POINT ( 'NONE',  ( -1.836970198721030427E-16, 4.500000000000000000, 0.000000000000000000 ) ) ;
#43 =( CONVERSION_BASED_UNIT ( 'INCH', #277 ) LENGTH_UNIT ( ) NAMED_UNIT ( #232 ) );
#44 = DIRECTION ( 'NONE',  ( 1.000000000000000000, 0.000000000000000000, 0.000000000000000000 ) ) ;
#45 = CLOSED_SHELL ( 'NONE', ( #264, #165, #131, #49 ) ) ;
#46 = SURFACE_SIDE_STYLE ('',( #279 ) ) ;
#47 = CIRCLE ( 'NONE', #216, 0.5000000000000000000 ) ;
#48 = UNCERTAINTY_MEASURE_WITH_UNIT (LENGTH_MEASURE( 1.000000000000000082E-05 ), #129, 'distance_accuracy_value', 'NONE');
#49 = ADVANCED_FACE ( 'NONE', ( #238 ), #282, .F. ) ;
#50 =( GEOMETRIC_REPRESENTATION_CONTEXT ( 3 ) GLOBAL_UNCERTAINTY_ASSIGNED_CONTEXT ( ( #245 ) ) GLOBAL_UNIT_ASSIGNED_CONTEXT ( ( #92, #170, #239 ) ) REPRESENTATION_CONTEXT ( 'NONE', 'WORKASPACE' ) );
#51 = DIRECTION ( 'NONE',  ( -1.000000000000000000, 0.000000000000000000, 0.000000000000000000 ) ) ;
#52 = EDGE_CURVE ( 'NONE', #57, #247, #18, .T. ) ;
#53 = DIRECTION ( 'NONE',  ( -1.000000000000000000, -7.347880794884121462E-17, 0.000000000000000000 ) ) ;
#54 = ORIENTED_EDGE ( 'NONE', *, *, #90, .F. ) ;
#55 = EDGE_LOOP ( 'NONE', ( #145, #200 ) ) ;
#56 = DIRECTION ( 'NONE',  ( -0.000000000000000000, -1.000000000000000000, -0.000000000000000000 ) ) ;
#57 = VERTEX_POINT ( 'NONE', #186 ) ;
#58 = DIRECTION ( 'NONE',  ( -1.000000000000000000, 0.000000000000000000, 0.000000000000000000 ) ) ;
#59 = EDGE_LOOP ( 'NONE', ( #105, #61 ) ) ;
#60 = LINE ( 'NONE', #8, #72 ) ;
#61 = ORIENTED_EDGE ( 'NONE', *, *, #28, .F. ) ;
#62 =( NAMED_UNIT ( * ) SI_UNIT ( $, .STERADIAN. ) SOLID_ANGLE_UNIT ( ) );
#63 = ADVANCED_FACE ( 'NONE', ( #188 ), #235, .T. ) ;
#64 = CARTESIAN_POINT ( 'NONE',  ( 0.000000000000000000, 0.000000000000000000, 0.000000000000000000 ) ) ;
#65 = PRESENTATION_LAYER_ASSIGNMENT (  '', '', ( #179 ) ) ;
#66 = AXIS2_PLACEMENT_3D ( 'NONE', #42, #298, #58 ) ;
#67 = DIRECTION ( 'NONE',  ( 0.000000000000000000, -1.000000000000000000, -0.000000000000000000 ) ) ;
#68 = FACE_OUTER_BOUND ( 'NONE', #296, .T. ) ;
#69 = CARTESIAN_POINT ( 'NONE',  ( -1.836970198721030427E-16, 4.500000000000000000, 0.000000000000000000 ) ) ;
#70 = EDGE_LOOP ( 'NONE', ( #103, #128, #286, #54 ) ) ;
#71 = PRESENTATION_LAYER_ASSIGNMENT (  '', '', ( #111 ) ) ;
#72 = VECTOR ( 'NONE', #297, 39.37007874015748143 ) ;
#73 = CARTESIAN_POINT ( 'NONE',  ( 6.123233995736766036E-17, 0.000000000000000000, 0.5000000000000000000 ) ) ;
#74 = SURFACE_SIDE_STYLE ('',( #193 ) ) ;
#75 = SURFACE_STYLE_USAGE ( .BOTH. , #156 ) ;
#76 = ORIENTED_EDGE ( 'NONE', *, *, #52, .F. ) ;
#77 = LENGTH_MEASURE_WITH_UNIT ( LENGTH_MEASURE( 0.02539999999999999897 ), #158 );
#78 = ORIENTED_EDGE ( 'NONE', *, *, #28, .T. ) ;
#79 = CIRCLE ( 'NONE', #283, 0.5000000000000000000 ) ;
#80 = MANIFOLD_SOLID_BREP ( 'Revolve - Cutting Edge', #280 ) ;
#81 = CARTESIAN_POINT ( 'NONE',  ( 0.000000000000000000, 2.000000000000000000, 0.000000000000000000 ) ) ;
#82 = LENGTH_MEASURE_WITH_UNIT ( LENGTH_MEASURE( 0.02539999999999999897 ), #175 );
#83 = EDGE_CURVE ( 'NONE', #290, #292, #99, .T. ) ;
#84 = MANIFOLD_SOLID_BREP ( 'Revolve - Tool Body (Straight Shanked)', #45 ) ;
#85 = PRESENTATION_LAYER_ASSIGNMENT (  '', '', ( #213 ) ) ;
#86 = SURFACE_STYLE_USAGE ( .BOTH. , #46 ) ;
#87 = UNCERTAINTY_MEASURE_WITH_UNIT (LENGTH_MEASURE( 1.000000000000000082E-05 ), #308, 'distance_accuracy_value', 'NONE');
#88 =( LENGTH_UNIT ( ) NAMED_UNIT ( * ) SI_UNIT ( $, .METRE. ) );
#89 = PRESENTATION_LAYER_ASSIGNMENT (  '', '', ( #229 ) ) ;
#90 = EDGE_CURVE ( 'NONE', #130, #7, #140, .T. ) ;
#91 =( NAMED_UNIT ( * ) PLANE_ANGLE_UNIT ( ) SI_UNIT ( $, .RADIAN. ) );
#92 =( CONVERSION_BASED_UNIT ( 'INCH', #263 ) LENGTH_UNIT ( ) NAMED_UNIT ( #276 ) );
#93 = DIMENSIONAL_EXPONENTS ( 1.000000000000000000, 0.000000000000000000, 0.000000000000000000, 0.000000000000000000, 0.000000000000000000, 0.000000000000000000, 0.000000000000000000 ) ;
#94 =( GEOMETRIC_REPRESENTATION_CONTEXT ( 3 ) GLOBAL_UNCERTAINTY_ASSIGNED_CONTEXT ( ( #148 ) ) GLOBAL_UNIT_ASSIGNED_CONTEXT ( ( #281, #301, #252 ) ) REPRESENTATION_CONTEXT ( 'NONE', 'WORKASPACE' ) );
#95 = DIRECTION ( 'NONE',  ( -1.000000000000000000, 0.000000000000000000, 0.000000000000000000 ) ) ;
#96 = EDGE_CURVE ( 'NONE', #294, #150, #261, .T. ) ;
#97 = CARTESIAN_POINT ( 'NONE',  ( 0.000000000000000000, 2.000000000000000000, 0.000000000000000000 ) ) ;
#98 = CARTESIAN_POINT ( 'NONE',  ( -0.5000000000000000000, 2.000000000000000000, 0.000000000000000000 ) ) ;
#99 = CIRCLE ( 'NONE', #191, 0.5000000000000000000 ) ;
#100 = CYLINDRICAL_SURFACE ( 'NONE', #223, 0.5000000000000000000 ) ;
#101 = ORIENTED_EDGE ( 'NONE', *, *, #144, .F. ) ;
#102 = PRESENTATION_STYLE_ASSIGNMENT (( #254 ) ) ;
#103 = ORIENTED_EDGE ( 'NONE', *, *, #114, .T. ) ;
#104 = FILL_AREA_STYLE_COLOUR ( '', #163 ) ;
#105 = ORIENTED_EDGE ( 'NONE', *, *, #114, .F. ) ;
#106 = PRODUCT_RELATED_PRODUCT_CATEGORY ( 'part', '', ( #253 ) ) ;
#107 =( LENGTH_UNIT ( ) NAMED_UNIT ( * ) SI_UNIT ( $, .METRE. ) );
#108 =( LENGTH_UNIT ( ) NAMED_UNIT ( * ) SI_UNIT ( $, .METRE. ) );
#109 = UNCERTAINTY_MEASURE_WITH_UNIT (LENGTH_MEASURE( 1.000000000000000082E-05 ), #19, 'distance_accuracy_value', 'NONE');
#110 = DIRECTION ( 'NONE',  ( 0.000000000000000000, 1.000000000000000000, 0.000000000000000000 ) ) ;
#111 = STYLED_ITEM ( 'NONE', ( #121 ), #39 ) ;
#112 = APPLICATION_PROTOCOL_DEFINITION ( 'draft international standard', 'automotive_design', 1998, #304 ) ;
#113 = FILL_AREA_STYLE_COLOUR ( '', #136 ) ;
#114 = EDGE_CURVE ( 'NONE', #130, #57, #79, .T. ) ;
#115 = MECHANICAL_DESIGN_GEOMETRIC_PRESENTATION_REPRESENTATION (  '', ( #111 ), #151 ) ;
#116 = CARTESIAN_POINT ( 'NONE',  ( 0.000000000000000000, 0.000000000000000000, 0.000000000000000000 ) ) ;
#117 = DIRECTION ( 'NONE',  ( 7.347880794884121462E-17, -1.000000000000000000, 0.000000000000000000 ) ) ;
#118 = DIRECTION ( 'NONE',  ( -7.347880794884121462E-17, 1.000000000000000000, -0.000000000000000000 ) ) ;
#119 = COLOUR_RGB ( '',1.000000000000000000, 0.000000000000000000, 0.000000000000000000 ) ;
#120 = DIRECTION ( 'NONE',  ( 0.000000000000000000, 0.000000000000000000, -1.000000000000000000 ) ) ;
#121 = PRESENTATION_STYLE_ASSIGNMENT (( #1 ) ) ;
#122 = SURFACE_STYLE_FILL_AREA ( #306 ) ;
#123 = FACE_OUTER_BOUND ( 'NONE', #224, .T. ) ;
#124 = FILL_AREA_STYLE ('',( #269 ) ) ;
#125 = VECTOR ( 'NONE', #222, 39.37007874015748143 ) ;
#126 = AXIS2_PLACEMENT_3D ( 'NONE', #81, #56, #6 ) ;
#127 = FACE_OUTER_BOUND ( 'NONE', #55, .T. ) ;
#128 = ORIENTED_EDGE ( 'NONE', *, *, #52, .T. ) ;
#129 =( CONVERSION_BASED_UNIT ( 'INCH', #77 ) LENGTH_UNIT ( ) NAMED_UNIT ( #233 ) );
#130 = VERTEX_POINT ( 'NONE', #98 ) ;
#131 = ADVANCED_FACE ( 'NONE', ( #68 ), #307, .T. ) ;
#132 = SURFACE_SIDE_STYLE ('',( #36 ) ) ;
#133 = CIRCLE ( 'NONE', #237, 0.5000000000000000000 ) ;
#134 = CYLINDRICAL_SURFACE ( 'NONE', #66, 0.5000000000000001110 ) ;
#135 = EDGE_CURVE ( 'NONE', #294, #292, #23, .T. ) ;
#136 = COLOUR_RGB ( '',0.7921568627450980005, 0.8196078431372548767, 0.9333333333333333481 ) ;
#137 = FILL_AREA_STYLE_COLOUR ( '', #255 ) ;
#138 =( NAMED_UNIT ( * ) SI_UNIT ( $, .STERADIAN. ) SOLID_ANGLE_UNIT ( ) );
#139 = MECHANICAL_DESIGN_GEOMETRIC_PRESENTATION_REPRESENTATION (  '', ( #179 ), #50 ) ;
#140 = LINE ( 'NONE', #141, #2 ) ;
#141 = CARTESIAN_POINT ( 'NONE',  ( -0.5000000000000003331, 4.500000000000000000, 0.000000000000000000 ) ) ;
#142 =( GEOMETRIC_REPRESENTATION_CONTEXT ( 3 ) GLOBAL_UNCERTAINTY_ASSIGNED_CONTEXT ( ( #287 ) ) GLOBAL_UNIT_ASSIGNED_CONTEXT ( ( #251, #231, #10 ) ) REPRESENTATION_CONTEXT ( 'NONE', 'WORKASPACE' ) );
#143 = CARTESIAN_POINT ( 'NONE',  ( 0.000000000000000000, 0.000000000000000000, 0.000000000000000000 ) ) ;
#144 = EDGE_CURVE ( 'NONE', #247, #7, #167, .T. ) ;
#145 = ORIENTED_EDGE ( 'NONE', *, *, #259, .F. ) ;
#146 = FACE_OUTER_BOUND ( 'NONE', #59, .T. ) ;
#147 = ORIENTED_EDGE ( 'NONE', *, *, #144, .T. ) ;
#148 = UNCERTAINTY_MEASURE_WITH_UNIT (LENGTH_MEASURE( 1.000000000000000082E-05 ), #281, 'distance_accuracy_value', 'NONE');
#149 = SURFACE_STYLE_FILL_AREA ( #180 ) ;
#150 = VERTEX_POINT ( 'NONE', #284 ) ;
#151 =( GEOMETRIC_REPRESENTATION_CONTEXT ( 3 ) GLOBAL_UNCERTAINTY_ASSIGNED_CONTEXT ( ( #87 ) ) GLOBAL_UNIT_ASSIGNED_CONTEXT ( ( #308, #195, #214 ) ) REPRESENTATION_CONTEXT ( 'NONE', 'WORKASPACE' ) );
#152 =( GEOMETRIC_REPRESENTATION_CONTEXT ( 3 ) GLOBAL_UNCERTAINTY_ASSIGNED_CONTEXT ( ( #48 ) ) GLOBAL_UNIT_ASSIGNED_CONTEXT ( ( #129, #201, #62 ) ) REPRESENTATION_CONTEXT ( 'NONE', 'WORKASPACE' ) );
#153 = SURFACE_STYLE_FILL_AREA ( #291 ) ;
#154 = EDGE_CURVE ( 'NONE', #7, #247, #24, .T. ) ;
#155 = EDGE_LOOP ( 'NONE', ( #178, #147 ) ) ;
#156 = SURFACE_SIDE_STYLE ('',( #153 ) ) ;
#157 = STYLED_ITEM ( 'NONE', ( #210 ), #80 ) ;
#158 =( LENGTH_UNIT ( ) NAMED_UNIT ( * ) SI_UNIT ( $, .METRE. ) );
#159 = DIMENSIONAL_EXPONENTS ( 1.000000000000000000, 0.000000000000000000, 0.000000000000000000, 0.000000000000000000, 0.000000000000000000, 0.000000000000000000, 0.000000000000000000 ) ;
#160 = PRODUCT_CONTEXT ( 'NONE', #304, 'mechanical' ) ;
#161 = DIRECTION ( 'NONE',  ( 0.000000000000000000, 0.000000000000000000, -1.000000000000000000 ) ) ;
#162 = PRESENTATION_LAYER_ASSIGNMENT (  '', '', ( #295 ) ) ;
#163 = COLOUR_RGB ( '',1.000000000000000000, 0.000000000000000000, 0.000000000000000000 ) ;
#164 = DIRECTION ( 'NONE',  ( 1.000000000000000000, 7.347880794884121462E-17, 0.000000000000000000 ) ) ;
#165 = ADVANCED_FACE ( 'NONE', ( #146 ), #174, .F. ) ;
#166 = FILL_AREA_STYLE ('',( #113 ) ) ;
#167 = CIRCLE ( 'NONE', #32, 0.5000000000000002220 ) ;
#168 = DIRECTION ( 'NONE',  ( -0.000000000000000000, -1.000000000000000000, -0.000000000000000000 ) ) ;
#169 = AXIS2_PLACEMENT_3D ( 'NONE', #299, #17, #44 ) ;
#170 =( NAMED_UNIT ( * ) PLANE_ANGLE_UNIT ( ) SI_UNIT ( $, .RADIAN. ) );
#171 = DIRECTION ( 'NONE',  ( 0.000000000000000000, 0.000000000000000000, -1.000000000000000000 ) ) ;
#172 = AXIS2_PLACEMENT_3D ( 'NONE', #234, #21, #161 ) ;
#173 = DIRECTION ( 'NONE',  ( -7.347880794884121462E-17, 1.000000000000000000, -0.000000000000000000 ) ) ;
#174 = PLANE ( 'NONE',  #305 ) ;
#175 =( LENGTH_UNIT ( ) NAMED_UNIT ( * ) SI_UNIT ( $, .METRE. ) );
#176 = ORIENTED_EDGE ( 'NONE', *, *, #219, .F. ) ;
#177 = CARTESIAN_POINT ( 'NONE',  ( 0.5000000000000000000, 4.500000000000000000, 6.123233995736767268E-17 ) ) ;
#178 = ORIENTED_EDGE ( 'NONE', *, *, #154, .T. ) ;
#179 = STYLED_ITEM ( 'NONE', ( #192 ), #84 ) ;
#180 = FILL_AREA_STYLE ('',( #104 ) ) ;
#181 = PLANE ( 'NONE',  #40 ) ;
#182 = AXIS2_PLACEMENT_3D ( 'NONE', #116, #67, #189 ) ;
#183 =( GEOMETRIC_REPRESENTATION_CONTEXT ( 3 ) GLOBAL_UNCERTAINTY_ASSIGNED_CONTEXT ( ( #41 ) ) GLOBAL_UNIT_ASSIGNED_CONTEXT ( ( #43, #209, #138 ) ) REPRESENTATION_CONTEXT ( 'NONE', 'WORKASPACE' ) );
#184 = APPLICATION_PROTOCOL_DEFINITION ( 'draft international standard', 'automotive_design', 1998, #241 ) ;
#185 = DIMENSIONAL_EXPONENTS ( 1.000000000000000000, 0.000000000000000000, 0.000000000000000000, 0.000000000000000000, 0.000000000000000000, 0.000000000000000000, 0.000000000000000000 ) ;
#186 = CARTESIAN_POINT ( 'NONE',  ( 0.5000000000000000000, 2.000000000000000000, 6.123233995736767268E-17 ) ) ;
#187 = COLOUR_RGB ( '',1.000000000000000000, 0.000000000000000000, 0.000000000000000000 ) ;
#188 = FACE_OUTER_BOUND ( 'NONE', #9, .T. ) ;
#189 = DIRECTION ( 'NONE',  ( 0.000000000000000000, 0.000000000000000000, -1.000000000000000000 ) ) ;
#190 = DIRECTION ( 'NONE',  ( -7.347880794884121462E-17, 1.000000000000000000, -0.000000000000000000 ) ) ;
#191 = AXIS2_PLACEMENT_3D ( 'NONE', #64, #168, #171 ) ;
#192 = PRESENTATION_STYLE_ASSIGNMENT (( #215 ) ) ;
#193 = SURFACE_STYLE_FILL_AREA ( #124 ) ;
#194 = CARTESIAN_POINT ( 'NONE',  ( 0.000000000000000000, 2.000000000000000000, 0.000000000000000000 ) ) ;
#195 =( NAMED_UNIT ( * ) PLANE_ANGLE_UNIT ( ) SI_UNIT ( $, .RADIAN. ) );
#196 = FILL_AREA_STYLE_COLOUR ( '', #119 ) ;
#197 = ORIENTED_EDGE ( 'NONE', *, *, #96, .T. ) ;
#198 = LENGTH_MEASURE_WITH_UNIT ( LENGTH_MEASURE( 0.02539999999999999897 ), #108 );
#199 = EDGE_CURVE ( 'NONE', #292, #290, #47, .T. ) ;
#200 = ORIENTED_EDGE ( 'NONE', *, *, #96, .F. ) ;
#201 =( NAMED_UNIT ( * ) PLANE_ANGLE_UNIT ( ) SI_UNIT ( $, .RADIAN. ) );
#202 = EDGE_LOOP ( 'NONE', ( #244, #197, #34, #220 ) ) ;
#203 = ADVANCED_FACE ( 'NONE', ( #123 ), #100, .T. ) ;
#204 = DIRECTION ( 'NONE',  ( 0.000000000000000000, -0.000000000000000000, 1.000000000000000000 ) ) ;
#205 = PRODUCT_DEFINITION_SHAPE ( 'NONE', 'NONE',  #288 ) ;
#206 = COLOUR_RGB ( '',0.7921568627450980005, 0.8196078431372548767, 0.9333333333333333481 ) ;
#207 =( LENGTH_UNIT ( ) NAMED_UNIT ( * ) SI_UNIT ( $, .METRE. ) );
#208 = DIMENSIONAL_EXPONENTS ( 1.000000000000000000, 0.000000000000000000, 0.000000000000000000, 0.000000000000000000, 0.000000000000000000, 0.000000000000000000, 0.000000000000000000 ) ;
#209 =( NAMED_UNIT ( * ) PLANE_ANGLE_UNIT ( ) SI_UNIT ( $, .RADIAN. ) );
#210 = PRESENTATION_STYLE_ASSIGNMENT (( #278 ) ) ;
#211 = VECTOR ( 'NONE', #190, 39.37007874015748143 ) ;
#212 = MECHANICAL_DESIGN_GEOMETRIC_PRESENTATION_REPRESENTATION (  '', ( #157 ), #13 ) ;
#213 = STYLED_ITEM ( 'NONE', ( #102 ), #275 ) ;
#214 =( NAMED_UNIT ( * ) SI_UNIT ( $, .STERADIAN. ) SOLID_ANGLE_UNIT ( ) );
#215 = SURFACE_STYLE_USAGE ( .BOTH. , #262 ) ;
#216 = AXIS2_PLACEMENT_3D ( 'NONE', #143, #246, #30 ) ;
#217 = CARTESIAN_POINT ( 'NONE',  ( -1.836970198721030427E-16, 4.500000000000000000, 0.000000000000000000 ) ) ;
#218 = DIRECTION ( 'NONE',  ( -7.347880794884121462E-17, 1.000000000000000000, -0.000000000000000000 ) ) ;
#219 = EDGE_CURVE ( 'NONE', #150, #290, #60, .T. ) ;
#220 = ORIENTED_EDGE ( 'NONE', *, *, #199, .F. ) ;
#221 = ORIENTED_EDGE ( 'NONE', *, *, #83, .T. ) ;
#222 = DIRECTION ( 'NONE',  ( -0.000000000000000000, -1.000000000000000000, -0.000000000000000000 ) ) ;
#223 = AXIS2_PLACEMENT_3D ( 'NONE', #35, #33, #226 ) ;
#224 = EDGE_LOOP ( 'NONE', ( #225, #227, #271, #176 ) ) ;
#225 = ORIENTED_EDGE ( 'NONE', *, *, #259, .T. ) ;
#226 = DIRECTION ( 'NONE',  ( 0.000000000000000000, 0.000000000000000000, -1.000000000000000000 ) ) ;
#227 = ORIENTED_EDGE ( 'NONE', *, *, #135, .T. ) ;
#228 = PRESENTATION_STYLE_ASSIGNMENT (( #86 ) ) ;
#229 = STYLED_ITEM ( 'NONE', ( #228 ), #63 ) ;
#230 = FACE_OUTER_BOUND ( 'NONE', #70, .T. ) ;
#231 =( NAMED_UNIT ( * ) PLANE_ANGLE_UNIT ( ) SI_UNIT ( $, .RADIAN. ) );
#232 = DIMENSIONAL_EXPONENTS ( 1.000000000000000000, 0.000000000000000000, 0.000000000000000000, 0.000000000000000000, 0.000000000000000000, 0.000000000000000000, 0.000000000000000000 ) ;
#233 = DIMENSIONAL_EXPONENTS ( 1.000000000000000000, 0.000000000000000000, 0.000000000000000000, 0.000000000000000000, 0.000000000000000000, 0.000000000000000000, 0.000000000000000000 ) ;
#234 = CARTESIAN_POINT ( 'NONE',  ( 0.000000000000000000, 0.000000000000000000, 0.000000000000000000 ) ) ;
#235 = PLANE ( 'NONE',  #182 ) ;
#236 = LENGTH_MEASURE_WITH_UNIT ( LENGTH_MEASURE( 0.02539999999999999897 ), #88 );
#237 = AXIS2_PLACEMENT_3D ( 'NONE', #31, #173, #273 ) ;
#238 = FACE_OUTER_BOUND ( 'NONE', #155, .T. ) ;
#239 =( NAMED_UNIT ( * ) SI_UNIT ( $, .STERADIAN. ) SOLID_ANGLE_UNIT ( ) );
#240 = DIRECTION ( 'NONE',  ( -1.000000000000000000, 0.000000000000000000, 0.000000000000000000 ) ) ;
#241 = APPLICATION_CONTEXT ( 'automotive_design' ) ;
#242 = MECHANICAL_DESIGN_GEOMETRIC_PRESENTATION_REPRESENTATION (  '', ( #295 ), #152 ) ;
#243 = DIRECTION ( 'NONE',  ( -0.000000000000000000, -1.000000000000000000, -0.000000000000000000 ) ) ;
#244 = ORIENTED_EDGE ( 'NONE', *, *, #135, .F. ) ;
#245 = UNCERTAINTY_MEASURE_WITH_UNIT (LENGTH_MEASURE( 1.000000000000000082E-05 ), #92, 'distance_accuracy_value', 'NONE');
#246 = DIRECTION ( 'NONE',  ( -0.000000000000000000, -1.000000000000000000, -0.000000000000000000 ) ) ;
#247 = VERTEX_POINT ( 'NONE', #177 ) ;
#248 = SURFACE_SIDE_STYLE ('',( #149 ) ) ;
#249 = ORIENTED_EDGE ( 'NONE', *, *, #199, .T. ) ;
#250 = PRESENTATION_STYLE_ASSIGNMENT (( #75 ) ) ;
#251 =( CONVERSION_BASED_UNIT ( 'INCH', #198 ) LENGTH_UNIT ( ) NAMED_UNIT ( #185 ) );
#252 =( NAMED_UNIT ( * ) SI_UNIT ( $, .STERADIAN. ) SOLID_ANGLE_UNIT ( ) );
#253 = PRODUCT ( '84992', '84992', '', ( #160 ) ) ;
#254 = SURFACE_STYLE_USAGE ( .BOTH. , #248 ) ;
#255 = COLOUR_RGB ( '',1.000000000000000000, 0.000000000000000000, 0.000000000000000000 ) ;
#256 = ADVANCED_BREP_SHAPE_REPRESENTATION ( '84992', ( #80, #84, #169 ), #183 ) ;
#257 = CARTESIAN_POINT ( 'NONE',  ( 0.4999999999999999445, 4.500000000000000000, 6.123233995736767268E-17 ) ) ;
#258 = AXIS2_PLACEMENT_3D ( 'NONE', #97, #243, #120 ) ;
#259 = EDGE_CURVE ( 'NONE', #150, #294, #14, .T. ) ;
#260 =( NAMED_UNIT ( * ) SI_UNIT ( $, .STERADIAN. ) SOLID_ANGLE_UNIT ( ) );
#261 = CIRCLE ( 'NONE', #258, 0.5000000000000000000 ) ;
#262 = SURFACE_SIDE_STYLE ('',( #122 ) ) ;
#263 = LENGTH_MEASURE_WITH_UNIT ( LENGTH_MEASURE( 0.02539999999999999897 ), #289 );
#264 = ADVANCED_FACE ( 'NONE', ( #230 ), #134, .T. ) ;
#265 = DIRECTION ( 'NONE',  ( -7.347880794884121462E-17, 1.000000000000000000, 0.000000000000000000 ) ) ;
#266 = CARTESIAN_POINT ( 'NONE',  ( 1.349783804395672634E-33, 2.000000000000000000, 0.000000000000000000 ) ) ;
#267 = ORIENTED_EDGE ( 'NONE', *, *, #90, .T. ) ;
#268 = CARTESIAN_POINT ( 'NONE',  ( 0.000000000000000000, 0.000000000000000000, -0.5000000000000000000 ) ) ;
#269 = FILL_AREA_STYLE_COLOUR ( '', #187 ) ;
#270 = AXIS2_PLACEMENT_3D ( 'NONE', #69, #4, #51 ) ;
#271 = ORIENTED_EDGE ( 'NONE', *, *, #83, .F. ) ;
#272 = PRODUCT_DEFINITION_CONTEXT ( 'detailed design', #241, 'design' ) ;
#273 = DIRECTION ( 'NONE',  ( -1.000000000000000000, 0.000000000000000000, 0.000000000000000000 ) ) ;
#274 = PRODUCT_DEFINITION_FORMATION_WITH_SPECIFIED_SOURCE ( 'ANY', '', #253, .NOT_KNOWN. ) ;
#275 = ADVANCED_FACE ( 'NONE', ( #127 ), #181, .T. ) ;
#276 = DIMENSIONAL_EXPONENTS ( 1.000000000000000000, 0.000000000000000000, 0.000000000000000000, 0.000000000000000000, 0.000000000000000000, 0.000000000000000000, 0.000000000000000000 ) ;
#277 = LENGTH_MEASURE_WITH_UNIT ( LENGTH_MEASURE( 0.02539999999999999897 ), #207 );
#278 = SURFACE_STYLE_USAGE ( .BOTH. , #132 ) ;
#279 = SURFACE_STYLE_FILL_AREA ( #11 ) ;
#280 = CLOSED_SHELL ( 'NONE', ( #203, #275, #39, #63 ) ) ;
#281 =( CONVERSION_BASED_UNIT ( 'INCH', #16 ) LENGTH_UNIT ( ) NAMED_UNIT ( #208 ) );
#282 = PLANE ( 'NONE',  #20 ) ;
#283 = AXIS2_PLACEMENT_3D ( 'NONE', #194, #218, #309 ) ;
#284 = CARTESIAN_POINT ( 'NONE',  ( 0.000000000000000000, 2.000000000000000000, -0.5000000000000000000 ) ) ;
#285 = CARTESIAN_POINT ( 'NONE',  ( -1.836970198721030427E-16, 4.500000000000000000, 0.000000000000000000 ) ) ;
#286 = ORIENTED_EDGE ( 'NONE', *, *, #154, .F. ) ;
#287 = UNCERTAINTY_MEASURE_WITH_UNIT (LENGTH_MEASURE( 1.000000000000000082E-05 ), #251, 'distance_accuracy_value', 'NONE');
#288 = PRODUCT_DEFINITION ( 'UNKNOWN', '', #274, #272 ) ;
#289 =( LENGTH_UNIT ( ) NAMED_UNIT ( * ) SI_UNIT ( $, .METRE. ) );
#290 = VERTEX_POINT ( 'NONE', #268 ) ;
#291 = FILL_AREA_STYLE ('',( #196 ) ) ;
#292 = VERTEX_POINT ( 'NONE', #293 ) ;
#293 = CARTESIAN_POINT ( 'NONE',  ( 6.123233995736766036E-17, 0.000000000000000000, 0.5000000000000000000 ) ) ;
#294 = VERTEX_POINT ( 'NONE', #302 ) ;
#295 = STYLED_ITEM ( 'NONE', ( #250 ), #203 ) ;
#296 = EDGE_LOOP ( 'NONE', ( #76, #78, #267, #101 ) ) ;
#297 = DIRECTION ( 'NONE',  ( -0.000000000000000000, -1.000000000000000000, -0.000000000000000000 ) ) ;
#298 = DIRECTION ( 'NONE',  ( -7.347880794884121462E-17, 1.000000000000000000, -0.000000000000000000 ) ) ;
#299 = CARTESIAN_POINT ( 'NONE',  ( 0.000000000000000000, 0.000000000000000000, 0.000000000000000000 ) ) ;
#300 = AXIS2_PLACEMENT_3D ( 'NONE', #285, #22, #240 ) ;
#301 =( NAMED_UNIT ( * ) PLANE_ANGLE_UNIT ( ) SI_UNIT ( $, .RADIAN. ) );
#302 = CARTESIAN_POINT ( 'NONE',  ( 6.123233995736766036E-17, 2.000000000000000000, 0.5000000000000000000 ) ) ;
#303 = CARTESIAN_POINT ( 'NONE',  ( 0.5000000000000000000, 4.500000000000000000, 0.000000000000000000 ) ) ;
#304 = APPLICATION_CONTEXT ( 'automotive_design' ) ;
#305 = AXIS2_PLACEMENT_3D ( 'NONE', #266, #265, #53 ) ;
#306 = FILL_AREA_STYLE ('',( #27 ) ) ;
#307 = CYLINDRICAL_SURFACE ( 'NONE', #300, 0.5000000000000001110 ) ;
#308 =( CONVERSION_BASED_UNIT ( 'INCH', #82 ) LENGTH_UNIT ( ) NAMED_UNIT ( #93 ) );
#309 = DIRECTION ( 'NONE',  ( -1.000000000000000000, 0.000000000000000000, 0.000000000000000000 ) ) ;
ENDSEC;
END-ISO-10303-21;
