ISO-10303-21;
HEADER;
FILE_DESCRIPTION (( 'STEP AP214' ),
    '1' );
FILE_NAME ('03647.STEP',
    '2023-06-22T15:36:05',
    ( '' ),
    ( '' ),
    'SwSTEP 2.0',
    'SolidWorks 2023',
    '' );
FILE_SCHEMA (( 'AUTOMOTIVE_DESIGN' ));
ENDSEC;

DATA;
#1 = PRESENTATION_LAYER_ASSIGNMENT (  '', '', ( #288 ) ) ;
#2 = CARTESIAN_POINT ( 'NONE',  ( -0.3749999999999995004, 4.000000000000000000, 0.000000000000000000 ) ) ;
#3 = ORIENTED_EDGE ( 'NONE', *, *, #226, .T. ) ;
#4 = EDGE_CURVE ( 'NONE', #296, #50, #282, .T. ) ;
#5 = CARTESIAN_POINT ( 'NONE',  ( 0.000000000000000000, 0.000000000000000000, -0.3750000000000000555 ) ) ;
#6 = PRODUCT_RELATED_PRODUCT_CATEGORY ( 'part', '', ( #162 ) ) ;
#7 = DIRECTION ( 'NONE',  ( -1.000000000000000000, 0.000000000000000000, 0.000000000000000000 ) ) ;
#8 = DIRECTION ( 'NONE',  ( 8.164311994315692567E-17, 1.000000000000000000, -0.000000000000000000 ) ) ;
#9 = DIRECTION ( 'NONE',  ( -1.000000000000000000, 0.000000000000000000, 0.000000000000000000 ) ) ;
#10 = STYLED_ITEM ( 'NONE', ( #280 ), #92 ) ;
#11 = PRESENTATION_STYLE_ASSIGNMENT (( #106 ) ) ;
#12 = VECTOR ( 'NONE', #16, 39.37007874015748143 ) ;
#13 =( NAMED_UNIT ( * ) SI_UNIT ( $, .STERADIAN. ) SOLID_ANGLE_UNIT ( ) );
#14 = EDGE_CURVE ( 'NONE', #50, #30, #261, .T. ) ;
#15 = VERTEX_POINT ( 'NONE', #287 ) ;
#16 = DIRECTION ( 'NONE',  ( -0.000000000000000000, -1.000000000000000000, -0.000000000000000000 ) ) ;
#17 = AXIS2_PLACEMENT_3D ( 'NONE', #258, #176, #59 ) ;
#18 = ORIENTED_EDGE ( 'NONE', *, *, #90, .F. ) ;
#19 = CYLINDRICAL_SURFACE ( 'NONE', #74, 0.3750000000000000555 ) ;
#20 = CARTESIAN_POINT ( 'NONE',  ( 0.000000000000000000, 0.000000000000000000, 0.000000000000000000 ) ) ;
#21 = CLOSED_SHELL ( 'NONE', ( #72, #135, #49, #188 ) ) ;
#22 = COLOUR_RGB ( '',1.000000000000000000, 0.000000000000000000, 0.000000000000000000 ) ;
#23 =( NAMED_UNIT ( * ) SI_UNIT ( $, .STERADIAN. ) SOLID_ANGLE_UNIT ( ) );
#24 = CARTESIAN_POINT ( 'NONE',  ( 0.000000000000000000, 0.000000000000000000, 0.000000000000000000 ) ) ;
#25 = CARTESIAN_POINT ( 'NONE',  ( 4.592425496802575451E-17, 1.000000000000000222, 0.3750000000000000555 ) ) ;
#26 = ORIENTED_EDGE ( 'NONE', *, *, #14, .T. ) ;
#27 = AXIS2_PLACEMENT_3D ( 'NONE', #24, #169, #215 ) ;
#28 = CARTESIAN_POINT ( 'NONE',  ( 0.000000000000000000, 0.000000000000000000, 0.000000000000000000 ) ) ;
#29 = UNCERTAINTY_MEASURE_WITH_UNIT (LENGTH_MEASURE( 1.000000000000000082E-05 ), #216, 'distance_accuracy_value', 'NONE');
#30 = VERTEX_POINT ( 'NONE', #2 ) ;
#31 = FILL_AREA_STYLE ('',( #78 ) ) ;
#32 = PRESENTATION_LAYER_ASSIGNMENT (  '', '', ( #273 ) ) ;
#33 = DIRECTION ( 'NONE',  ( 8.164311994315692567E-17, 1.000000000000000000, -0.000000000000000000 ) ) ;
#34 = FILL_AREA_STYLE_COLOUR ( '', #89 ) ;
#35 = FACE_OUTER_BOUND ( 'NONE', #213, .T. ) ;
#36 = ORIENTED_EDGE ( 'NONE', *, *, #226, .F. ) ;
#37 = LENGTH_MEASURE_WITH_UNIT ( LENGTH_MEASURE( 0.02539999999999999897 ), #81 );
#38 = DIRECTION ( 'NONE',  ( -1.000000000000000000, 0.000000000000000000, 0.000000000000000000 ) ) ;
#39 = SURFACE_SIDE_STYLE ('',( #155 ) ) ;
#40 = EDGE_CURVE ( 'NONE', #218, #15, #144, .T. ) ;
#41 =( GEOMETRIC_REPRESENTATION_CONTEXT ( 3 ) GLOBAL_UNCERTAINTY_ASSIGNED_CONTEXT ( ( #246 ) ) GLOBAL_UNIT_ASSIGNED_CONTEXT ( ( #292, #130, #175 ) ) REPRESENTATION_CONTEXT ( 'NONE', 'WORKASPACE' ) );
#42 = FACE_OUTER_BOUND ( 'NONE', #239, .T. ) ;
#43 =( LENGTH_UNIT ( ) NAMED_UNIT ( * ) SI_UNIT ( $, .METRE. ) );
#44 = ORIENTED_EDGE ( 'NONE', *, *, #14, .F. ) ;
#45 =( NAMED_UNIT ( * ) PLANE_ANGLE_UNIT ( ) SI_UNIT ( $, .RADIAN. ) );
#46 =( NAMED_UNIT ( * ) SI_UNIT ( $, .STERADIAN. ) SOLID_ANGLE_UNIT ( ) );
#47 = CYLINDRICAL_SURFACE ( 'NONE', #278, 0.3749999999999998890 ) ;
#48 = CARTESIAN_POINT ( 'NONE',  ( 0.3750000000000000555, 4.000000000000000000, 0.000000000000000000 ) ) ;
#49 = ADVANCED_FACE ( 'NONE', ( #266 ), #47, .T. ) ;
#50 = VERTEX_POINT ( 'NONE', #102 ) ;
#51 = CIRCLE ( 'NONE', #60, 0.3750000000000000555 ) ;
#52 = ORIENTED_EDGE ( 'NONE', *, *, #4, .F. ) ;
#53 = EDGE_CURVE ( 'NONE', #293, #15, #255, .T. ) ;
#54 = DIRECTION ( 'NONE',  ( 0.000000000000000000, -1.000000000000000000, -0.000000000000000000 ) ) ;
#55 = AXIS2_PLACEMENT_3D ( 'NONE', #221, #172, #9 ) ;
#56 = COLOUR_RGB ( '',0.7921568627450980005, 0.8196078431372548767, 0.9333333333333333481 ) ;
#57 = SURFACE_SIDE_STYLE ('',( #174 ) ) ;
#58 = ORIENTED_EDGE ( 'NONE', *, *, #4, .T. ) ;
#59 = DIRECTION ( 'NONE',  ( -1.000000000000000000, 0.000000000000000000, 0.000000000000000000 ) ) ;
#60 = AXIS2_PLACEMENT_3D ( 'NONE', #113, #87, #190 ) ;
#61 = DIMENSIONAL_EXPONENTS ( 1.000000000000000000, 0.000000000000000000, 0.000000000000000000, 0.000000000000000000, 0.000000000000000000, 0.000000000000000000, 0.000000000000000000 ) ;
#62 = SURFACE_SIDE_STYLE ('',( #134 ) ) ;
#63 = AXIS2_PLACEMENT_3D ( 'NONE', #212, #86, #38 ) ;
#64 = CARTESIAN_POINT ( 'NONE',  ( 0.3750000000000001665, 4.000000000000000000, 4.592425496802572986E-17 ) ) ;
#65 = DIMENSIONAL_EXPONENTS ( 1.000000000000000000, 0.000000000000000000, 0.000000000000000000, 0.000000000000000000, 0.000000000000000000, 0.000000000000000000, 0.000000000000000000 ) ;
#66 = DIRECTION ( 'NONE',  ( -0.000000000000000000, -1.000000000000000000, -0.000000000000000000 ) ) ;
#67 = DIRECTION ( 'NONE',  ( -0.000000000000000000, -1.000000000000000000, -0.000000000000000000 ) ) ;
#68 = MECHANICAL_DESIGN_GEOMETRIC_PRESENTATION_REPRESENTATION (  '', ( #10 ), #298 ) ;
#69 = APPLICATION_PROTOCOL_DEFINITION ( 'draft international standard', 'automotive_design', 1998, #171 ) ;
#70 = FILL_AREA_STYLE ('',( #194 ) ) ;
#71 = PLANE ( 'NONE',  #250 ) ;
#72 = ADVANCED_FACE ( 'NONE', ( #308 ), #84, .T. ) ;
#73 = VERTEX_POINT ( 'NONE', #184 ) ;
#74 = AXIS2_PLACEMENT_3D ( 'NONE', #157, #304, #206 ) ;
#75 = CARTESIAN_POINT ( 'NONE',  ( 0.000000000000000000, 0.000000000000000000, 0.000000000000000000 ) ) ;
#76 = UNCERTAINTY_MEASURE_WITH_UNIT (LENGTH_MEASURE( 1.000000000000000082E-05 ), #243, 'distance_accuracy_value', 'NONE');
#77 = DIRECTION ( 'NONE',  ( -1.000000000000000000, 0.000000000000000000, 0.000000000000000000 ) ) ;
#78 = FILL_AREA_STYLE_COLOUR ( '', #260 ) ;
#79 = AXIS2_PLACEMENT_3D ( 'NONE', #122, #268, #7 ) ;
#80 = DIRECTION ( 'NONE',  ( 8.164311994315692567E-17, 1.000000000000000000, -0.000000000000000000 ) ) ;
#81 =( LENGTH_UNIT ( ) NAMED_UNIT ( * ) SI_UNIT ( $, .METRE. ) );
#82 = UNCERTAINTY_MEASURE_WITH_UNIT (LENGTH_MEASURE( 1.000000000000000082E-05 ), #179, 'distance_accuracy_value', 'NONE');
#83 = PLANE ( 'NONE',  #114 ) ;
#84 = CYLINDRICAL_SURFACE ( 'NONE', #209, 0.3749999999999998890 ) ;
#85 = PRESENTATION_STYLE_ASSIGNMENT (( #253 ) ) ;
#86 = DIRECTION ( 'NONE',  ( 8.164311994315692567E-17, 1.000000000000000000, -0.000000000000000000 ) ) ;
#87 = DIRECTION ( 'NONE',  ( -0.000000000000000000, -1.000000000000000000, -0.000000000000000000 ) ) ;
#88 = DIMENSIONAL_EXPONENTS ( 1.000000000000000000, 0.000000000000000000, 0.000000000000000000, 0.000000000000000000, 0.000000000000000000, 0.000000000000000000, 0.000000000000000000 ) ;
#89 = COLOUR_RGB ( '',0.7921568627450980005, 0.8196078431372548767, 0.9333333333333333481 ) ;
#90 = EDGE_CURVE ( 'NONE', #73, #296, #222, .T. ) ;
#91 = CYLINDRICAL_SURFACE ( 'NONE', #183, 0.3750000000000000555 ) ;
#92 = MANIFOLD_SOLID_BREP ( 'Revolve - Cutting Edge', #167 ) ;
#93 = ORIENTED_EDGE ( 'NONE', *, *, #178, .F. ) ;
#94 = MECHANICAL_DESIGN_GEOMETRIC_PRESENTATION_REPRESENTATION (  '', ( #283 ), #192 ) ;
#95 = AXIS2_PLACEMENT_3D ( 'NONE', #28, #107, #150 ) ;
#96 = ORIENTED_EDGE ( 'NONE', *, *, #274, .T. ) ;
#97 = DIMENSIONAL_EXPONENTS ( 1.000000000000000000, 0.000000000000000000, 0.000000000000000000, 0.000000000000000000, 0.000000000000000000, 0.000000000000000000, 0.000000000000000000 ) ;
#98 = CARTESIAN_POINT ( 'NONE',  ( 4.592425496802575451E-17, 0.000000000000000000, 0.3750000000000000555 ) ) ;
#99 = PRESENTATION_STYLE_ASSIGNMENT (( #168 ) ) ;
#100 = DIRECTION ( 'NONE',  ( -0.000000000000000000, -1.000000000000000000, -0.000000000000000000 ) ) ;
#101 = UNCERTAINTY_MEASURE_WITH_UNIT (LENGTH_MEASURE( 1.000000000000000082E-05 ), #118, 'distance_accuracy_value', 'NONE');
#102 = CARTESIAN_POINT ( 'NONE',  ( 0.3750000000000000555, 4.000000000000000000, 4.592425496802573602E-17 ) ) ;
#103 = COLOUR_RGB ( '',1.000000000000000000, 0.000000000000000000, 0.000000000000000000 ) ;
#104 = EDGE_LOOP ( 'NONE', ( #291, #96, #129, #247 ) ) ;
#105 = CIRCLE ( 'NONE', #95, 0.3750000000000000555 ) ;
#106 = SURFACE_STYLE_USAGE ( .BOTH. , #57 ) ;
#107 = DIRECTION ( 'NONE',  ( -0.000000000000000000, -1.000000000000000000, -0.000000000000000000 ) ) ;
#108 = AXIS2_PLACEMENT_3D ( 'NONE', #230, #80, #110 ) ;
#109 = AXIS2_PLACEMENT_3D ( 'NONE', #123, #66, #146 ) ;
#110 = DIRECTION ( 'NONE',  ( -1.000000000000000000, 8.164311994315692567E-17, 0.000000000000000000 ) ) ;
#111 = SURFACE_SIDE_STYLE ('',( #231 ) ) ;
#112 =( NAMED_UNIT ( * ) SI_UNIT ( $, .STERADIAN. ) SOLID_ANGLE_UNIT ( ) );
#113 = CARTESIAN_POINT ( 'NONE',  ( 0.000000000000000000, 1.000000000000000222, 0.000000000000000000 ) ) ;
#114 = AXIS2_PLACEMENT_3D ( 'NONE', #116, #189, #127 ) ;
#115 = EDGE_LOOP ( 'NONE', ( #36, #295 ) ) ;
#116 = CARTESIAN_POINT ( 'NONE',  ( 0.000000000000000000, 1.000000000000000222, 0.000000000000000000 ) ) ;
#117 = ADVANCED_BREP_SHAPE_REPRESENTATION ( '03647', ( #92, #294, #170 ), #289 ) ;
#118 =( CONVERSION_BASED_UNIT ( 'INCH', #37 ) LENGTH_UNIT ( ) NAMED_UNIT ( #97 ) );
#119 = LENGTH_MEASURE_WITH_UNIT ( LENGTH_MEASURE( 0.02539999999999999897 ), #309 );
#120 =( NAMED_UNIT ( * ) PLANE_ANGLE_UNIT ( ) SI_UNIT ( $, .RADIAN. ) );
#121 = COLOUR_RGB ( '',1.000000000000000000, 0.000000000000000000, 0.000000000000000000 ) ;
#122 = CARTESIAN_POINT ( 'NONE',  ( 2.449293598294707400E-16, 4.000000000000000000, 0.000000000000000000 ) ) ;
#123 = CARTESIAN_POINT ( 'NONE',  ( 0.000000000000000000, 1.000000000000000222, 0.000000000000000000 ) ) ;
#124 = STYLED_ITEM ( 'NONE', ( #99 ), #294 ) ;
#125 = ORIENTED_EDGE ( 'NONE', *, *, #238, .T. ) ;
#126 = EDGE_LOOP ( 'NONE', ( #52, #149, #151, #44 ) ) ;
#127 = DIRECTION ( 'NONE',  ( 0.000000000000000000, -0.000000000000000000, 1.000000000000000000 ) ) ;
#128 = DIRECTION ( 'NONE',  ( 8.164311994315692567E-17, 1.000000000000000000, -0.000000000000000000 ) ) ;
#129 = ORIENTED_EDGE ( 'NONE', *, *, #40, .T. ) ;
#130 =( NAMED_UNIT ( * ) PLANE_ANGLE_UNIT ( ) SI_UNIT ( $, .RADIAN. ) );
#131 = PRODUCT_DEFINITION ( 'UNKNOWN', '', #271, #290 ) ;
#132 = LENGTH_MEASURE_WITH_UNIT ( LENGTH_MEASURE( 0.02539999999999999897 ), #242 );
#133 = FILL_AREA_STYLE ('',( #34 ) ) ;
#134 = SURFACE_STYLE_FILL_AREA ( #185 ) ;
#135 = ADVANCED_FACE ( 'NONE', ( #42 ), #207, .F. ) ;
#136 = DIRECTION ( 'NONE',  ( -1.000000000000000000, 0.000000000000000000, 0.000000000000000000 ) ) ;
#137 = SURFACE_STYLE_USAGE ( .BOTH. , #39 ) ;
#138 = ORIENTED_EDGE ( 'NONE', *, *, #53, .T. ) ;
#139 = FILL_AREA_STYLE_COLOUR ( '', #121 ) ;
#140 = FACE_OUTER_BOUND ( 'NONE', #104, .T. ) ;
#141 = ORIENTED_EDGE ( 'NONE', *, *, #300, .F. ) ;
#142 = PRESENTATION_LAYER_ASSIGNMENT (  '', '', ( #10 ) ) ;
#143 = LENGTH_MEASURE_WITH_UNIT ( LENGTH_MEASURE( 0.02539999999999999897 ), #165 );
#144 = LINE ( 'NONE', #5, #163 ) ;
#145 = CARTESIAN_POINT ( 'NONE',  ( 0.000000000000000000, 0.000000000000000000, 0.000000000000000000 ) ) ;
#146 = DIRECTION ( 'NONE',  ( 0.000000000000000000, 0.000000000000000000, -1.000000000000000000 ) ) ;
#147 = PRESENTATION_LAYER_ASSIGNMENT (  '', '', ( #283 ) ) ;
#148 = PRESENTATION_LAYER_ASSIGNMENT (  '', '', ( #284 ) ) ;
#149 = ORIENTED_EDGE ( 'NONE', *, *, #178, .T. ) ;
#150 = DIRECTION ( 'NONE',  ( 0.000000000000000000, 0.000000000000000000, -1.000000000000000000 ) ) ;
#151 = ORIENTED_EDGE ( 'NONE', *, *, #303, .T. ) ;
#152 = LINE ( 'NONE', #249, #224 ) ;
#153 = AXIS2_PLACEMENT_3D ( 'NONE', #75, #54, #272 ) ;
#154 = FILL_AREA_STYLE_COLOUR ( '', #22 ) ;
#155 = SURFACE_STYLE_FILL_AREA ( #217 ) ;
#156 = APPLICATION_CONTEXT ( 'automotive_design' ) ;
#157 = CARTESIAN_POINT ( 'NONE',  ( 0.000000000000000000, 0.000000000000000000, 0.000000000000000000 ) ) ;
#158 = ADVANCED_FACE ( 'NONE', ( #301 ), #83, .T. ) ;
#159 = SURFACE_SIDE_STYLE ('',( #256 ) ) ;
#160 =( CONVERSION_BASED_UNIT ( 'INCH', #132 ) LENGTH_UNIT ( ) NAMED_UNIT ( #61 ) );
#161 = FILL_AREA_STYLE_COLOUR ( '', #103 ) ;
#162 = PRODUCT ( '03647', '03647', '', ( #193 ) ) ;
#163 = VECTOR ( 'NONE', #67, 39.37007874015748143 ) ;
#164 = CARTESIAN_POINT ( 'NONE',  ( 4.592425496802575451E-17, 0.000000000000000000, 0.3750000000000000555 ) ) ;
#165 =( LENGTH_UNIT ( ) NAMED_UNIT ( * ) SI_UNIT ( $, .METRE. ) );
#166 =( NAMED_UNIT ( * ) SI_UNIT ( $, .STERADIAN. ) SOLID_ANGLE_UNIT ( ) );
#167 = CLOSED_SHELL ( 'NONE', ( #244, #158, #241, #297 ) ) ;
#168 = SURFACE_STYLE_USAGE ( .BOTH. , #196 ) ;
#169 = DIRECTION ( 'NONE',  ( -0.000000000000000000, -1.000000000000000000, -0.000000000000000000 ) ) ;
#170 = AXIS2_PLACEMENT_3D ( 'NONE', #20, #198, #286 ) ;
#171 = APPLICATION_CONTEXT ( 'automotive_design' ) ;
#172 = DIRECTION ( 'NONE',  ( 8.164311994315692567E-17, 1.000000000000000000, -0.000000000000000000 ) ) ;
#173 = VERTEX_POINT ( 'NONE', #25 ) ;
#174 = SURFACE_STYLE_FILL_AREA ( #31 ) ;
#175 =( NAMED_UNIT ( * ) SI_UNIT ( $, .STERADIAN. ) SOLID_ANGLE_UNIT ( ) );
#176 = DIRECTION ( 'NONE',  ( 8.164311994315692567E-17, 1.000000000000000000, -0.000000000000000000 ) ) ;
#177 = DIRECTION ( 'NONE',  ( 1.000000000000000000, -8.164311994315692567E-17, 0.000000000000000000 ) ) ;
#178 = EDGE_CURVE ( 'NONE', #296, #73, #201, .T. ) ;
#179 =( CONVERSION_BASED_UNIT ( 'INCH', #234 ) LENGTH_UNIT ( ) NAMED_UNIT ( #214 ) );
#180 =( NAMED_UNIT ( * ) PLANE_ANGLE_UNIT ( ) SI_UNIT ( $, .RADIAN. ) );
#181 = ORIENTED_EDGE ( 'NONE', *, *, #40, .F. ) ;
#182 = MECHANICAL_DESIGN_GEOMETRIC_PRESENTATION_REPRESENTATION (  '', ( #273 ), #245 ) ;
#183 = AXIS2_PLACEMENT_3D ( 'NONE', #145, #100, #265 ) ;
#184 = CARTESIAN_POINT ( 'NONE',  ( -0.3750000000000000555, 1.000000000000000222, 0.000000000000000000 ) ) ;
#185 = FILL_AREA_STYLE ('',( #161 ) ) ;
#186 = FILL_AREA_STYLE ('',( #154 ) ) ;
#187 = PRESENTATION_STYLE_ASSIGNMENT (( #259 ) ) ;
#188 = ADVANCED_FACE ( 'NONE', ( #197 ), #71, .F. ) ;
#189 = DIRECTION ( 'NONE',  ( 0.000000000000000000, 1.000000000000000000, 0.000000000000000000 ) ) ;
#190 = DIRECTION ( 'NONE',  ( 0.000000000000000000, 0.000000000000000000, -1.000000000000000000 ) ) ;
#191 = ORIENTED_EDGE ( 'NONE', *, *, #267, .F. ) ;
#192 =( GEOMETRIC_REPRESENTATION_CONTEXT ( 3 ) GLOBAL_UNCERTAINTY_ASSIGNED_CONTEXT ( ( #82 ) ) GLOBAL_UNIT_ASSIGNED_CONTEXT ( ( #179, #276, #23 ) ) REPRESENTATION_CONTEXT ( 'NONE', 'WORKASPACE' ) );
#193 = PRODUCT_CONTEXT ( 'NONE', #156, 'mechanical' ) ;
#194 = FILL_AREA_STYLE_COLOUR ( '', #56 ) ;
#195 = DIMENSIONAL_EXPONENTS ( 1.000000000000000000, 0.000000000000000000, 0.000000000000000000, 0.000000000000000000, 0.000000000000000000, 0.000000000000000000, 0.000000000000000000 ) ;
#196 = SURFACE_SIDE_STYLE ('',( #263 ) ) ;
#197 = FACE_OUTER_BOUND ( 'NONE', #199, .T. ) ;
#198 = DIRECTION ( 'NONE',  ( 0.000000000000000000, 0.000000000000000000, 1.000000000000000000 ) ) ;
#199 = EDGE_LOOP ( 'NONE', ( #279, #26 ) ) ;
#200 = ORIENTED_EDGE ( 'NONE', *, *, #300, .T. ) ;
#201 = CIRCLE ( 'NONE', #55, 0.3750000000000000555 ) ;
#202 = ORIENTED_EDGE ( 'NONE', *, *, #303, .F. ) ;
#203 =( LENGTH_UNIT ( ) NAMED_UNIT ( * ) SI_UNIT ( $, .METRE. ) );
#204 = VECTOR ( 'NONE', #33, 39.37007874015748143 ) ;
#205 = SURFACE_STYLE_USAGE ( .BOTH. , #111 ) ;
#206 = DIRECTION ( 'NONE',  ( 0.000000000000000000, 0.000000000000000000, -1.000000000000000000 ) ) ;
#207 = PLANE ( 'NONE',  #108 ) ;
#208 =( NAMED_UNIT ( * ) SI_UNIT ( $, .STERADIAN. ) SOLID_ANGLE_UNIT ( ) );
#209 = AXIS2_PLACEMENT_3D ( 'NONE', #305, #277, #136 ) ;
#210 =( GEOMETRIC_REPRESENTATION_CONTEXT ( 3 ) GLOBAL_UNCERTAINTY_ASSIGNED_CONTEXT ( ( #76 ) ) GLOBAL_UNIT_ASSIGNED_CONTEXT ( ( #243, #270, #13 ) ) REPRESENTATION_CONTEXT ( 'NONE', 'WORKASPACE' ) );
#211 =( LENGTH_UNIT ( ) NAMED_UNIT ( * ) SI_UNIT ( $, .METRE. ) );
#212 = CARTESIAN_POINT ( 'NONE',  ( 2.449293598294707400E-16, 4.000000000000000000, 0.000000000000000000 ) ) ;
#213 = EDGE_LOOP ( 'NONE', ( #3, #125, #141, #181 ) ) ;
#214 = DIMENSIONAL_EXPONENTS ( 1.000000000000000000, 0.000000000000000000, 0.000000000000000000, 0.000000000000000000, 0.000000000000000000, 0.000000000000000000, 0.000000000000000000 ) ;
#215 = DIRECTION ( 'NONE',  ( 0.000000000000000000, 0.000000000000000000, -1.000000000000000000 ) ) ;
#216 =( CONVERSION_BASED_UNIT ( 'INCH', #119 ) LENGTH_UNIT ( ) NAMED_UNIT ( #195 ) );
#217 = FILL_AREA_STYLE ('',( #139 ) ) ;
#218 = VERTEX_POINT ( 'NONE', #240 ) ;
#219 = APPLICATION_PROTOCOL_DEFINITION ( 'draft international standard', 'automotive_design', 1998, #156 ) ;
#220 = CARTESIAN_POINT ( 'NONE',  ( 2.449293598294707400E-16, 4.000000000000000000, 0.000000000000000000 ) ) ;
#221 = CARTESIAN_POINT ( 'NONE',  ( 0.000000000000000000, 1.000000000000000222, 0.000000000000000000 ) ) ;
#222 = CIRCLE ( 'NONE', #17, 0.3750000000000000555 ) ;
#223 = PLANE ( 'NONE',  #153 ) ;
#224 = VECTOR ( 'NONE', #128, 39.37007874015748143 ) ;
#225 = UNCERTAINTY_MEASURE_WITH_UNIT (LENGTH_MEASURE( 1.000000000000000082E-05 ), #160, 'distance_accuracy_value', 'NONE');
#226 = EDGE_CURVE ( 'NONE', #218, #173, #51, .T. ) ;
#227 = EDGE_LOOP ( 'NONE', ( #200, #138 ) ) ;
#228 = CARTESIAN_POINT ( 'NONE',  ( 0.3750000000000000555, 1.000000000000000222, 4.592425496802573602E-17 ) ) ;
#229 =( GEOMETRIC_REPRESENTATION_CONTEXT ( 3 ) GLOBAL_UNCERTAINTY_ASSIGNED_CONTEXT ( ( #29 ) ) GLOBAL_UNIT_ASSIGNED_CONTEXT ( ( #216, #180, #208 ) ) REPRESENTATION_CONTEXT ( 'NONE', 'WORKASPACE' ) );
#230 = CARTESIAN_POINT ( 'NONE',  ( 1.249799818884882708E-33, 1.000000000000000222, 0.000000000000000000 ) ) ;
#231 = SURFACE_STYLE_FILL_AREA ( #133 ) ;
#232 = LENGTH_MEASURE_WITH_UNIT ( LENGTH_MEASURE( 0.02539999999999999897 ), #43 );
#233 = DIMENSIONAL_EXPONENTS ( 1.000000000000000000, 0.000000000000000000, 0.000000000000000000, 0.000000000000000000, 0.000000000000000000, 0.000000000000000000, 0.000000000000000000 ) ;
#234 = LENGTH_MEASURE_WITH_UNIT ( LENGTH_MEASURE( 0.02539999999999999897 ), #211 );
#235 = EDGE_LOOP ( 'NONE', ( #307, #58, #191, #202 ) ) ;
#236 = MECHANICAL_DESIGN_GEOMETRIC_PRESENTATION_REPRESENTATION (  '', ( #288 ), #229 ) ;
#237 = MECHANICAL_DESIGN_GEOMETRIC_PRESENTATION_REPRESENTATION (  '', ( #124 ), #210 ) ;
#238 = EDGE_CURVE ( 'NONE', #173, #293, #275, .T. ) ;
#239 = EDGE_LOOP ( 'NONE', ( #18, #93 ) ) ;
#240 = CARTESIAN_POINT ( 'NONE',  ( 0.000000000000000000, 1.000000000000000222, -0.3750000000000000555 ) ) ;
#241 = ADVANCED_FACE ( 'NONE', ( #140 ), #19, .T. ) ;
#242 =( LENGTH_UNIT ( ) NAMED_UNIT ( * ) SI_UNIT ( $, .METRE. ) );
#243 =( CONVERSION_BASED_UNIT ( 'INCH', #143 ) LENGTH_UNIT ( ) NAMED_UNIT ( #65 ) );
#244 = ADVANCED_FACE ( 'NONE', ( #35 ), #91, .T. ) ;
#245 =( GEOMETRIC_REPRESENTATION_CONTEXT ( 3 ) GLOBAL_UNCERTAINTY_ASSIGNED_CONTEXT ( ( #254 ) ) GLOBAL_UNIT_ASSIGNED_CONTEXT ( ( #306, #120, #46 ) ) REPRESENTATION_CONTEXT ( 'NONE', 'WORKASPACE' ) );
#246 = UNCERTAINTY_MEASURE_WITH_UNIT (LENGTH_MEASURE( 1.000000000000000082E-05 ), #292, 'distance_accuracy_value', 'NONE');
#247 = ORIENTED_EDGE ( 'NONE', *, *, #53, .F. ) ;
#248 = FACE_OUTER_BOUND ( 'NONE', #227, .T. ) ;
#249 = CARTESIAN_POINT ( 'NONE',  ( -0.3749999999999996114, 4.000000000000000000, 0.000000000000000000 ) ) ;
#250 = AXIS2_PLACEMENT_3D ( 'NONE', #48, #269, #177 ) ;
#251 = CIRCLE ( 'NONE', #79, 0.3749999999999997780 ) ;
#252 = LENGTH_MEASURE_WITH_UNIT ( LENGTH_MEASURE( 0.02539999999999999897 ), #203 );
#253 = SURFACE_STYLE_USAGE ( .BOTH. , #159 ) ;
#254 = UNCERTAINTY_MEASURE_WITH_UNIT (LENGTH_MEASURE( 1.000000000000000082E-05 ), #306, 'distance_accuracy_value', 'NONE');
#255 = CIRCLE ( 'NONE', #27, 0.3750000000000000555 ) ;
#256 = SURFACE_STYLE_FILL_AREA ( #186 ) ;
#257 = PRESENTATION_STYLE_ASSIGNMENT (( #137 ) ) ;
#258 = CARTESIAN_POINT ( 'NONE',  ( 0.000000000000000000, 1.000000000000000222, 0.000000000000000000 ) ) ;
#259 = SURFACE_STYLE_USAGE ( .BOTH. , #62 ) ;
#260 = COLOUR_RGB ( '',1.000000000000000000, 0.000000000000000000, 0.000000000000000000 ) ;
#261 = CIRCLE ( 'NONE', #63, 0.3749999999999997780 ) ;
#262 = PRESENTATION_LAYER_ASSIGNMENT (  '', '', ( #124 ) ) ;
#263 = SURFACE_STYLE_FILL_AREA ( #70 ) ;
#264 = CIRCLE ( 'NONE', #109, 0.3750000000000000555 ) ;
#265 = DIRECTION ( 'NONE',  ( 0.000000000000000000, 0.000000000000000000, -1.000000000000000000 ) ) ;
#266 = FACE_OUTER_BOUND ( 'NONE', #126, .T. ) ;
#267 = EDGE_CURVE ( 'NONE', #30, #50, #251, .T. ) ;
#268 = DIRECTION ( 'NONE',  ( 8.164311994315692567E-17, 1.000000000000000000, -0.000000000000000000 ) ) ;
#269 = DIRECTION ( 'NONE',  ( -8.164311994315692567E-17, -1.000000000000000000, 0.000000000000000000 ) ) ;
#270 =( NAMED_UNIT ( * ) PLANE_ANGLE_UNIT ( ) SI_UNIT ( $, .RADIAN. ) );
#271 = PRODUCT_DEFINITION_FORMATION_WITH_SPECIFIED_SOURCE ( 'ANY', '', #162, .NOT_KNOWN. ) ;
#272 = DIRECTION ( 'NONE',  ( 0.000000000000000000, 0.000000000000000000, -1.000000000000000000 ) ) ;
#273 = STYLED_ITEM ( 'NONE', ( #187 ), #244 ) ;
#274 = EDGE_CURVE ( 'NONE', #173, #218, #264, .T. ) ;
#275 = LINE ( 'NONE', #164, #12 ) ;
#276 =( NAMED_UNIT ( * ) PLANE_ANGLE_UNIT ( ) SI_UNIT ( $, .RADIAN. ) );
#277 = DIRECTION ( 'NONE',  ( 8.164311994315692567E-17, 1.000000000000000000, -0.000000000000000000 ) ) ;
#278 = AXIS2_PLACEMENT_3D ( 'NONE', #220, #8, #77 ) ;
#279 = ORIENTED_EDGE ( 'NONE', *, *, #267, .T. ) ;
#280 = PRESENTATION_STYLE_ASSIGNMENT (( #205 ) ) ;
#281 = PRODUCT_DEFINITION_SHAPE ( 'NONE', 'NONE',  #131 ) ;
#282 = LINE ( 'NONE', #64, #204 ) ;
#283 = STYLED_ITEM ( 'NONE', ( #85 ), #158 ) ;
#284 = STYLED_ITEM ( 'NONE', ( #11 ), #297 ) ;
#285 = SHAPE_DEFINITION_REPRESENTATION ( #281, #117 ) ;
#286 = DIRECTION ( 'NONE',  ( 1.000000000000000000, 0.000000000000000000, 0.000000000000000000 ) ) ;
#287 = CARTESIAN_POINT ( 'NONE',  ( 0.000000000000000000, 0.000000000000000000, -0.3750000000000000555 ) ) ;
#288 = STYLED_ITEM ( 'NONE', ( #257 ), #241 ) ;
#289 =( GEOMETRIC_REPRESENTATION_CONTEXT ( 3 ) GLOBAL_UNCERTAINTY_ASSIGNED_CONTEXT ( ( #101 ) ) GLOBAL_UNIT_ASSIGNED_CONTEXT ( ( #118, #45, #166 ) ) REPRESENTATION_CONTEXT ( 'NONE', 'WORKASPACE' ) );
#290 = PRODUCT_DEFINITION_CONTEXT ( 'detailed design', #171, 'design' ) ;
#291 = ORIENTED_EDGE ( 'NONE', *, *, #238, .F. ) ;
#292 =( CONVERSION_BASED_UNIT ( 'INCH', #252 ) LENGTH_UNIT ( ) NAMED_UNIT ( #233 ) );
#293 = VERTEX_POINT ( 'NONE', #98 ) ;
#294 = MANIFOLD_SOLID_BREP ( 'Revolve - Tool Body (Straight Shanked)', #21 ) ;
#295 = ORIENTED_EDGE ( 'NONE', *, *, #274, .F. ) ;
#296 = VERTEX_POINT ( 'NONE', #228 ) ;
#297 = ADVANCED_FACE ( 'NONE', ( #248 ), #223, .T. ) ;
#298 =( GEOMETRIC_REPRESENTATION_CONTEXT ( 3 ) GLOBAL_UNCERTAINTY_ASSIGNED_CONTEXT ( ( #225 ) ) GLOBAL_UNIT_ASSIGNED_CONTEXT ( ( #160, #302, #112 ) ) REPRESENTATION_CONTEXT ( 'NONE', 'WORKASPACE' ) );
#299 = MECHANICAL_DESIGN_GEOMETRIC_PRESENTATION_REPRESENTATION (  '', ( #284 ), #41 ) ;
#300 = EDGE_CURVE ( 'NONE', #15, #293, #105, .T. ) ;
#301 = FACE_OUTER_BOUND ( 'NONE', #115, .T. ) ;
#302 =( NAMED_UNIT ( * ) PLANE_ANGLE_UNIT ( ) SI_UNIT ( $, .RADIAN. ) );
#303 = EDGE_CURVE ( 'NONE', #73, #30, #152, .T. ) ;
#304 = DIRECTION ( 'NONE',  ( -0.000000000000000000, -1.000000000000000000, -0.000000000000000000 ) ) ;
#305 = CARTESIAN_POINT ( 'NONE',  ( 2.449293598294707400E-16, 4.000000000000000000, 0.000000000000000000 ) ) ;
#306 =( CONVERSION_BASED_UNIT ( 'INCH', #232 ) LENGTH_UNIT ( ) NAMED_UNIT ( #88 ) );
#307 = ORIENTED_EDGE ( 'NONE', *, *, #90, .T. ) ;
#308 = FACE_OUTER_BOUND ( 'NONE', #235, .T. ) ;
#309 =( LENGTH_UNIT ( ) NAMED_UNIT ( * ) SI_UNIT ( $, .METRE. ) );
ENDSEC;
END-ISO-10303-21;
