ISO-10303-21;
HEADER;
FILE_DESCRIPTION (( 'STEP AP214' ),
    '1' );
FILE_NAME ('83846.STEP',
    '2023-07-05T16:18:13',
    ( '' ),
    ( '' ),
    'SwSTEP 2.0',
    'SolidWorks 2023',
    '' );
FILE_SCHEMA (( 'AUTOMOTIVE_DESIGN' ));
ENDSEC;

DATA;
#1 = DIMENSIONAL_EXPONENTS ( 1.000000000000000000, 0.000000000000000000, 0.000000000000000000, 0.000000000000000000, 0.000000000000000000, 0.000000000000000000, 0.000000000000000000 ) ;
#2 = EDGE_CURVE ( 'NONE', #86, #191, #175, .T. ) ;
#3 = ORIENTED_EDGE ( 'NONE', *, *, #35, .T. ) ;
#4 = LINE ( 'NONE', #166, #254 ) ;
#5 = SURFACE_SIDE_STYLE ('',( #82 ) ) ;
#6 =( CONVERSION_BASED_UNIT ( 'INCH', #230 ) LENGTH_UNIT ( ) NAMED_UNIT ( #114 ) );
#7 = SURFACE_SIDE_STYLE ('',( #53 ) ) ;
#8 = ORIENTED_EDGE ( 'NONE', *, *, #134, .F. ) ;
#9 = PRODUCT_RELATED_PRODUCT_CATEGORY ( 'part', '', ( #155 ) ) ;
#10 =( GEOMETRIC_REPRESENTATION_CONTEXT ( 3 ) GLOBAL_UNCERTAINTY_ASSIGNED_CONTEXT ( ( #109 ) ) GLOBAL_UNIT_ASSIGNED_CONTEXT ( ( #202, #160, #239 ) ) REPRESENTATION_CONTEXT ( 'NONE', 'WORKASPACE' ) );
#11 = DIRECTION ( 'NONE',  ( 1.797039377518924796E-16, -1.000000000000000000, -0.000000000000000000 ) ) ;
#12 = ORIENTED_EDGE ( 'NONE', *, *, #245, .F. ) ;
#13 =( NAMED_UNIT ( * ) PLANE_ANGLE_UNIT ( ) SI_UNIT ( $, .RADIAN. ) );
#14 = DIRECTION ( 'NONE',  ( 1.000000000000000000, 0.000000000000000000, 0.000000000000000000 ) ) ;
#15 = ADVANCED_FACE ( 'NONE', ( #37 ), #176, .F. ) ;
#16 =( NAMED_UNIT ( * ) PLANE_ANGLE_UNIT ( ) SI_UNIT ( $, .RADIAN. ) );
#17 = DIRECTION ( 'NONE',  ( 1.797039377518924796E-16, -1.000000000000000000, -0.000000000000000000 ) ) ;
#18 = SURFACE_STYLE_USAGE ( .BOTH. , #42 ) ;
#19 = PRESENTATION_LAYER_ASSIGNMENT (  '', '', ( #196 ) ) ;
#20 =( GEOMETRIC_REPRESENTATION_CONTEXT ( 3 ) GLOBAL_UNCERTAINTY_ASSIGNED_CONTEXT ( ( #179 ) ) GLOBAL_UNIT_ASSIGNED_CONTEXT ( ( #184, #68, #124 ) ) REPRESENTATION_CONTEXT ( 'NONE', 'WORKASPACE' ) );
#21 = PRODUCT_DEFINITION_CONTEXT ( 'detailed design', #243, 'design' ) ;
#22 = FACE_OUTER_BOUND ( 'NONE', #127, .T. ) ;
#23 = DIRECTION ( 'NONE',  ( -1.246097681992569904E-16, 1.000000000000000000, 0.000000000000000000 ) ) ;
#24 = DIRECTION ( 'NONE',  ( -1.000000000000000000, 0.000000000000000000, 0.000000000000000000 ) ) ;
#25 = VECTOR ( 'NONE', #167, 39.37007874015748143 ) ;
#26 = CARTESIAN_POINT ( 'NONE',  ( -1.123149610949324453E-17, 0.06249999999999980571, 0.000000000000000000 ) ) ;
#27 = ORIENTED_EDGE ( 'NONE', *, *, #75, .F. ) ;
#28 = DIRECTION ( 'NONE',  ( -1.000000000000000000, 0.000000000000000000, 0.000000000000000000 ) ) ;
#29 = CARTESIAN_POINT ( 'NONE',  ( -7.074958179208365877E-15, 39.37007874015748143, 0.000000000000000000 ) ) ;
#30 = EDGE_LOOP ( 'NONE', ( #224, #3, #49 ) ) ;
#31 = CYLINDRICAL_SURFACE ( 'NONE', #248, 0.06249999999999967387 ) ;
#32 = AXIS2_PLACEMENT_3D ( 'NONE', #29, #102, #81 ) ;
#33 =( CONVERSION_BASED_UNIT ( 'INCH', #131 ) LENGTH_UNIT ( ) NAMED_UNIT ( #212 ) );
#34 = SHAPE_DEFINITION_REPRESENTATION ( #115, #41 ) ;
#35 = EDGE_CURVE ( 'NONE', #105, #247, #163, .T. ) ;
#36 =( GEOMETRIC_REPRESENTATION_CONTEXT ( 3 ) GLOBAL_UNCERTAINTY_ASSIGNED_CONTEXT ( ( #46 ) ) GLOBAL_UNIT_ASSIGNED_CONTEXT ( ( #6, #110, #208 ) ) REPRESENTATION_CONTEXT ( 'NONE', 'WORKASPACE' ) );
#37 = FACE_OUTER_BOUND ( 'NONE', #92, .T. ) ;
#38 = COLOUR_RGB ( '',1.000000000000000000, 0.000000000000000000, 0.000000000000000000 ) ;
#39 = DIRECTION ( 'NONE',  ( 1.000000000000000000, 1.365923996832132595E-16, 0.000000000000000000 ) ) ;
#40 = SURFACE_STYLE_FILL_AREA ( #78 ) ;
#41 = ADVANCED_BREP_SHAPE_REPRESENTATION ( '83846', ( #62, #232, #45 ), #60 ) ;
#42 = SURFACE_SIDE_STYLE ('',( #201 ) ) ;
#43 = CARTESIAN_POINT ( 'NONE',  ( 1.836970198721030181E-16, 1.500000000000000222, 0.000000000000000000 ) ) ;
#44 = COLOUR_RGB ( '',1.000000000000000000, 0.000000000000000000, 0.000000000000000000 ) ;
#45 = AXIS2_PLACEMENT_3D ( 'NONE', #257, #59, #14 ) ;
#46 = UNCERTAINTY_MEASURE_WITH_UNIT (LENGTH_MEASURE( 1.000000000000000082E-05 ), #6, 'distance_accuracy_value', 'NONE');
#47 = DIRECTION ( 'NONE',  ( -1.246097681992569904E-16, 1.000000000000000000, -0.000000000000000000 ) ) ;
#48 = CLOSED_SHELL ( 'NONE', ( #116, #225, #231, #15 ) ) ;
#49 = ORIENTED_EDGE ( 'NONE', *, *, #245, .T. ) ;
#50 = DIMENSIONAL_EXPONENTS ( 1.000000000000000000, 0.000000000000000000, 0.000000000000000000, 0.000000000000000000, 0.000000000000000000, 0.000000000000000000, 0.000000000000000000 ) ;
#51 = DIRECTION ( 'NONE',  ( -1.246097681992569904E-16, 1.000000000000000000, -0.000000000000000000 ) ) ;
#52 = CARTESIAN_POINT ( 'NONE',  ( 3.628235616585349371E-16, 0.06249999999999995143, 0.000000000000000000 ) ) ;
#53 = SURFACE_STYLE_FILL_AREA ( #190 ) ;
#54 = ORIENTED_EDGE ( 'NONE', *, *, #262, .T. ) ;
#55 = CARTESIAN_POINT ( 'NONE',  ( 0.000000000000000000, 0.000000000000000000, 0.000000000000000000 ) ) ;
#56 = CIRCLE ( 'NONE', #117, 0.06249999999999995837 ) ;
#57 = LENGTH_MEASURE_WITH_UNIT ( LENGTH_MEASURE( 0.02539999999999999897 ), #228 );
#58 = EDGE_CURVE ( 'NONE', #86, #147, #235, .T. ) ;
#59 = DIRECTION ( 'NONE',  ( 0.000000000000000000, 0.000000000000000000, 1.000000000000000000 ) ) ;
#60 =( GEOMETRIC_REPRESENTATION_CONTEXT ( 3 ) GLOBAL_UNCERTAINTY_ASSIGNED_CONTEXT ( ( #203 ) ) GLOBAL_UNIT_ASSIGNED_CONTEXT ( ( #95, #154, #256 ) ) REPRESENTATION_CONTEXT ( 'NONE', 'WORKASPACE' ) );
#61 = EDGE_CURVE ( 'NONE', #195, #191, #96, .T. ) ;
#62 = MANIFOLD_SOLID_BREP ( 'Revolve - Cutting Edge', #143 ) ;
#63 = PLANE ( 'NONE',  #181 ) ;
#64 = DIRECTION ( 'NONE',  ( -1.797039377518924796E-16, 1.000000000000000000, 0.000000000000000000 ) ) ;
#65 = CARTESIAN_POINT ( 'NONE',  ( 1.836970198721030181E-16, 1.500000000000000222, 0.000000000000000000 ) ) ;
#66 = AXIS2_PLACEMENT_3D ( 'NONE', #65, #47, #182 ) ;
#67 = CARTESIAN_POINT ( 'NONE',  ( 0.06249999999999995143, 1.500000000000000222, 7.654042494670922108E-18 ) ) ;
#68 =( NAMED_UNIT ( * ) PLANE_ANGLE_UNIT ( ) SI_UNIT ( $, .RADIAN. ) );
#69 = DIRECTION ( 'NONE',  ( 0.7071067811865482389, 0.7071067811865467956, 8.659560562354942719E-17 ) ) ;
#70 = ORIENTED_EDGE ( 'NONE', *, *, #2, .T. ) ;
#71 = CARTESIAN_POINT ( 'NONE',  ( 3.628235616585349371E-16, 0.06249999999999995143, 0.000000000000000000 ) ) ;
#72 = EDGE_LOOP ( 'NONE', ( #73, #205 ) ) ;
#73 = ORIENTED_EDGE ( 'NONE', *, *, #58, .F. ) ;
#74 = APPLICATION_PROTOCOL_DEFINITION ( 'draft international standard', 'automotive_design', 1998, #243 ) ;
#75 = EDGE_CURVE ( 'NONE', #147, #195, #164, .T. ) ;
#76 = VECTOR ( 'NONE', #69, 39.37007874015748143 ) ;
#77 = LENGTH_MEASURE_WITH_UNIT ( LENGTH_MEASURE( 0.02539999999999999897 ), #120 );
#78 = FILL_AREA_STYLE ('',( #240 ) ) ;
#79 =( GEOMETRIC_REPRESENTATION_CONTEXT ( 3 ) GLOBAL_UNCERTAINTY_ASSIGNED_CONTEXT ( ( #217 ) ) GLOBAL_UNIT_ASSIGNED_CONTEXT ( ( #250, #16, #255 ) ) REPRESENTATION_CONTEXT ( 'NONE', 'WORKASPACE' ) );
#80 =( LENGTH_UNIT ( ) NAMED_UNIT ( * ) SI_UNIT ( $, .METRE. ) );
#81 = DIRECTION ( 'NONE',  ( -1.000000000000000000, -2.220446049250307411E-16, 0.000000000000000000 ) ) ;
#82 = SURFACE_STYLE_FILL_AREA ( #149 ) ;
#83 = SURFACE_SIDE_STYLE ('',( #244 ) ) ;
#84 = DIRECTION ( 'NONE',  ( -1.000000000000000000, -1.365923996832140977E-16, 0.000000000000000000 ) ) ;
#85 = ADVANCED_FACE ( 'NONE', ( #206 ), #173, .T. ) ;
#86 = VERTEX_POINT ( 'NONE', #219 ) ;
#87 = UNCERTAINTY_MEASURE_WITH_UNIT (LENGTH_MEASURE( 1.000000000000000082E-05 ), #33, 'distance_accuracy_value', 'NONE');
#88 = SURFACE_STYLE_USAGE ( .BOTH. , #7 ) ;
#89 = CONICAL_SURFACE ( 'NONE', #204, 39.37007874015758091, 0.7853981633974495002 ) ;
#90 = ORIENTED_EDGE ( 'NONE', *, *, #134, .T. ) ;
#91 = CARTESIAN_POINT ( 'NONE',  ( 0.06249999999999986122, 1.500000000000000222, 7.654042494670917485E-18 ) ) ;
#92 = EDGE_LOOP ( 'NONE', ( #207, #165 ) ) ;
#93 = PRESENTATION_STYLE_ASSIGNMENT (( #88 ) ) ;
#94 = STYLED_ITEM ( 'NONE', ( #101 ), #180 ) ;
#95 =( CONVERSION_BASED_UNIT ( 'INCH', #57 ) LENGTH_UNIT ( ) NAMED_UNIT ( #253 ) );
#96 = CIRCLE ( 'NONE', #136, 0.06249999999999975714 ) ;
#97 = AXIS2_PLACEMENT_3D ( 'NONE', #71, #51, #148 ) ;
#98 = PRODUCT_DEFINITION ( 'UNKNOWN', '', #214, #21 ) ;
#99 = CARTESIAN_POINT ( 'NONE',  ( 0.06249999999999995143, 0.06249999999999995837, 7.654042494670922108E-18 ) ) ;
#100 = COLOUR_RGB ( '',0.7921568627450980005, 0.8196078431372548767, 0.9333333333333333481 ) ;
#101 = PRESENTATION_STYLE_ASSIGNMENT (( #18 ) ) ;
#102 = DIRECTION ( 'NONE',  ( -1.797039377518924796E-16, 1.000000000000000000, 0.000000000000000000 ) ) ;
#103 = PRESENTATION_STYLE_ASSIGNMENT (( #170 ) ) ;
#104 = CARTESIAN_POINT ( 'NONE',  ( 3.628235616585349371E-16, 0.06249999999999981265, 0.000000000000000000 ) ) ;
#105 = VERTEX_POINT ( 'NONE', #260 ) ;
#106 = DIRECTION ( 'NONE',  ( 1.000000000000000000, 1.365923996832132595E-16, 0.000000000000000000 ) ) ;
#107 = FILL_AREA_STYLE_COLOUR ( '', #38 ) ;
#108 = ORIENTED_EDGE ( 'NONE', *, *, #2, .F. ) ;
#109 = UNCERTAINTY_MEASURE_WITH_UNIT (LENGTH_MEASURE( 1.000000000000000082E-05 ), #202, 'distance_accuracy_value', 'NONE');
#110 =( NAMED_UNIT ( * ) PLANE_ANGLE_UNIT ( ) SI_UNIT ( $, .RADIAN. ) );
#111 = COLOUR_RGB ( '',0.7921568627450980005, 0.8196078431372548767, 0.9333333333333333481 ) ;
#112 = DIRECTION ( 'NONE',  ( -1.246097681992569904E-16, 1.000000000000000000, -0.000000000000000000 ) ) ;
#113 = EDGE_LOOP ( 'NONE', ( #27, #54, #70, #251 ) ) ;
#114 = DIMENSIONAL_EXPONENTS ( 1.000000000000000000, 0.000000000000000000, 0.000000000000000000, 0.000000000000000000, 0.000000000000000000, 0.000000000000000000, 0.000000000000000000 ) ;
#115 = PRODUCT_DEFINITION_SHAPE ( 'NONE', 'NONE',  #98 ) ;
#116 = ADVANCED_FACE ( 'NONE', ( #22 ), #139, .T. ) ;
#117 = AXIS2_PLACEMENT_3D ( 'NONE', #215, #17, #39 ) ;
#118 = SURFACE_SIDE_STYLE ('',( #40 ) ) ;
#119 = COLOUR_RGB ( '',1.000000000000000000, 0.000000000000000000, 0.000000000000000000 ) ;
#120 =( LENGTH_UNIT ( ) NAMED_UNIT ( * ) SI_UNIT ( $, .METRE. ) );
#121 = DIRECTION ( 'NONE',  ( 1.000000000000000000, 1.246097681992569904E-16, 0.000000000000000000 ) ) ;
#122 = FILL_AREA_STYLE ('',( #222 ) ) ;
#123 = ADVANCED_FACE ( 'NONE', ( #159 ), #89, .T. ) ;
#124 =( NAMED_UNIT ( * ) SI_UNIT ( $, .STERADIAN. ) SOLID_ANGLE_UNIT ( ) );
#125 = EDGE_LOOP ( 'NONE', ( #8, #12 ) ) ;
#126 =( LENGTH_UNIT ( ) NAMED_UNIT ( * ) SI_UNIT ( $, .METRE. ) );
#127 = EDGE_LOOP ( 'NONE', ( #129, #229, #151, #108 ) ) ;
#128 = CARTESIAN_POINT ( 'NONE',  ( -1.123149610949324299E-17, 0.06249999999999980571, 0.000000000000000000 ) ) ;
#129 = ORIENTED_EDGE ( 'NONE', *, *, #58, .T. ) ;
#130 = FACE_OUTER_BOUND ( 'NONE', #72, .T. ) ;
#131 = LENGTH_MEASURE_WITH_UNIT ( LENGTH_MEASURE( 0.02539999999999999897 ), #126 );
#132 = MECHANICAL_DESIGN_GEOMETRIC_PRESENTATION_REPRESENTATION (  '', ( #216 ), #209 ) ;
#133 = AXIS2_PLACEMENT_3D ( 'NONE', #26, #11, #106 ) ;
#134 = EDGE_CURVE ( 'NONE', #252, #247, #56, .T. ) ;
#135 = STYLED_ITEM ( 'NONE', ( #103 ), #232 ) ;
#136 = AXIS2_PLACEMENT_3D ( 'NONE', #146, #112, #24 ) ;
#137 = CIRCLE ( 'NONE', #133, 0.06249999999999995837 ) ;
#138 = DIRECTION ( 'NONE',  ( -1.000000000000000000, 0.000000000000000000, 0.000000000000000000 ) ) ;
#139 = CYLINDRICAL_SURFACE ( 'NONE', #66, 0.06249999999999967387 ) ;
#140 = CARTESIAN_POINT ( 'NONE',  ( 0.06249999999999995143, 1.500000000000000222, 0.000000000000000000 ) ) ;
#141 = LENGTH_MEASURE_WITH_UNIT ( LENGTH_MEASURE( 0.02539999999999999897 ), #264 );
#142 = SURFACE_STYLE_USAGE ( .BOTH. , #5 ) ;
#143 = CLOSED_SHELL ( 'NONE', ( #85, #180, #123 ) ) ;
#144 = DIRECTION ( 'NONE',  ( -1.000000000000000000, -1.246097681992569904E-16, 0.000000000000000000 ) ) ;
#145 = MECHANICAL_DESIGN_GEOMETRIC_PRESENTATION_REPRESENTATION (  '', ( #196 ), #79 ) ;
#146 = CARTESIAN_POINT ( 'NONE',  ( 1.836970198721030181E-16, 1.500000000000000222, 0.000000000000000000 ) ) ;
#147 = VERTEX_POINT ( 'NONE', #99 ) ;
#148 = DIRECTION ( 'NONE',  ( -1.000000000000000000, -1.365923996832140977E-16, 0.000000000000000000 ) ) ;
#149 = FILL_AREA_STYLE ('',( #227 ) ) ;
#150 = CARTESIAN_POINT ( 'NONE',  ( -0.06249999999999956979, 1.500000000000000222, 0.000000000000000000 ) ) ;
#151 = ORIENTED_EDGE ( 'NONE', *, *, #169, .F. ) ;
#152 = APPLICATION_CONTEXT ( 'automotive_design' ) ;
#153 = AXIS2_PLACEMENT_3D ( 'NONE', #43, #157, #138 ) ;
#154 =( NAMED_UNIT ( * ) PLANE_ANGLE_UNIT ( ) SI_UNIT ( $, .RADIAN. ) );
#155 = PRODUCT ( '83846', '83846', '', ( #174 ) ) ;
#156 = CARTESIAN_POINT ( 'NONE',  ( -7.074958179208365877E-15, 39.37007874015748143, 0.000000000000000000 ) ) ;
#157 = DIRECTION ( 'NONE',  ( -1.246097681992569904E-16, 1.000000000000000000, -0.000000000000000000 ) ) ;
#158 = STYLED_ITEM ( 'NONE', ( #161 ), #123 ) ;
#159 = FACE_OUTER_BOUND ( 'NONE', #188, .T. ) ;
#160 =( NAMED_UNIT ( * ) PLANE_ANGLE_UNIT ( ) SI_UNIT ( $, .RADIAN. ) );
#161 = PRESENTATION_STYLE_ASSIGNMENT (( #263 ) ) ;
#162 = DIRECTION ( 'NONE',  ( -1.246097681992569904E-16, 1.000000000000000000, -0.000000000000000000 ) ) ;
#163 = LINE ( 'NONE', #55, #76 ) ;
#164 = LINE ( 'NONE', #91, #25 ) ;
#165 = ORIENTED_EDGE ( 'NONE', *, *, #61, .T. ) ;
#166 = CARTESIAN_POINT ( 'NONE',  ( 0.000000000000000000, 0.000000000000000000, 0.000000000000000000 ) ) ;
#167 = DIRECTION ( 'NONE',  ( -1.246097681992569904E-16, 1.000000000000000000, -0.000000000000000000 ) ) ;
#168 = ORIENTED_EDGE ( 'NONE', *, *, #259, .T. ) ;
#169 = EDGE_CURVE ( 'NONE', #191, #195, #177, .T. ) ;
#170 = SURFACE_STYLE_USAGE ( .BOTH. , #83 ) ;
#171 = DIRECTION ( 'NONE',  ( -1.797039377518924796E-16, 1.000000000000000000, 0.000000000000000000 ) ) ;
#172 = LENGTH_MEASURE_WITH_UNIT ( LENGTH_MEASURE( 0.02539999999999999897 ), #249 );
#173 = CONICAL_SURFACE ( 'NONE', #32, 39.37007874015758091, 0.7853981633974495002 ) ;
#174 = PRODUCT_CONTEXT ( 'NONE', #152, 'mechanical' ) ;
#175 = LINE ( 'NONE', #236, #261 ) ;
#176 = PLANE ( 'NONE',  #221 ) ;
#177 = CIRCLE ( 'NONE', #153, 0.06249999999999975714 ) ;
#178 = DIRECTION ( 'NONE',  ( -1.000000000000000000, -2.220446049250307411E-16, 0.000000000000000000 ) ) ;
#179 = UNCERTAINTY_MEASURE_WITH_UNIT (LENGTH_MEASURE( 1.000000000000000082E-05 ), #184, 'distance_accuracy_value', 'NONE');
#180 = ADVANCED_FACE ( 'NONE', ( #237 ), #63, .T. ) ;
#181 = AXIS2_PLACEMENT_3D ( 'NONE', #128, #171, #223 ) ;
#182 = DIRECTION ( 'NONE',  ( -1.000000000000000000, 0.000000000000000000, 0.000000000000000000 ) ) ;
#183 = DIRECTION ( 'NONE',  ( 1.246097681992569904E-16, -1.000000000000000000, 0.000000000000000000 ) ) ;
#184 =( CONVERSION_BASED_UNIT ( 'INCH', #141 ) LENGTH_UNIT ( ) NAMED_UNIT ( #233 ) );
#185 = ORIENTED_EDGE ( 'NONE', *, *, #35, .F. ) ;
#186 = CARTESIAN_POINT ( 'NONE',  ( -0.06249999999999996531, 0.06249999999999979183, 0.000000000000000000 ) ) ;
#187 =( NAMED_UNIT ( * ) SI_UNIT ( $, .STERADIAN. ) SOLID_ANGLE_UNIT ( ) );
#188 = EDGE_LOOP ( 'NONE', ( #185, #168, #90 ) ) ;
#189 = CARTESIAN_POINT ( 'NONE',  ( 1.836970198721030181E-16, 1.500000000000000222, 0.000000000000000000 ) ) ;
#190 = FILL_AREA_STYLE ('',( #107 ) ) ;
#191 = VERTEX_POINT ( 'NONE', #150 ) ;
#192 = AXIS2_PLACEMENT_3D ( 'NONE', #104, #23, #144 ) ;
#193 = PLANE ( 'NONE',  #192 ) ;
#194 = PRESENTATION_STYLE_ASSIGNMENT (( #142 ) ) ;
#195 = VERTEX_POINT ( 'NONE', #67 ) ;
#196 = STYLED_ITEM ( 'NONE', ( #93 ), #85 ) ;
#197 = CIRCLE ( 'NONE', #97, 0.06249999999999956979 ) ;
#198 = DIRECTION ( 'NONE',  ( -1.246097681992569904E-16, 1.000000000000000000, -0.000000000000000000 ) ) ;
#199 = MECHANICAL_DESIGN_GEOMETRIC_PRESENTATION_REPRESENTATION (  '', ( #158 ), #10 ) ;
#200 = MECHANICAL_DESIGN_GEOMETRIC_PRESENTATION_REPRESENTATION (  '', ( #135 ), #20 ) ;
#201 = SURFACE_STYLE_FILL_AREA ( #218 ) ;
#202 =( CONVERSION_BASED_UNIT ( 'INCH', #77 ) LENGTH_UNIT ( ) NAMED_UNIT ( #50 ) );
#203 = UNCERTAINTY_MEASURE_WITH_UNIT (LENGTH_MEASURE( 1.000000000000000082E-05 ), #95, 'distance_accuracy_value', 'NONE');
#204 = AXIS2_PLACEMENT_3D ( 'NONE', #156, #64, #178 ) ;
#205 = ORIENTED_EDGE ( 'NONE', *, *, #262, .F. ) ;
#206 = FACE_OUTER_BOUND ( 'NONE', #30, .T. ) ;
#207 = ORIENTED_EDGE ( 'NONE', *, *, #169, .T. ) ;
#208 =( NAMED_UNIT ( * ) SI_UNIT ( $, .STERADIAN. ) SOLID_ANGLE_UNIT ( ) );
#209 =( GEOMETRIC_REPRESENTATION_CONTEXT ( 3 ) GLOBAL_UNCERTAINTY_ASSIGNED_CONTEXT ( ( #87 ) ) GLOBAL_UNIT_ASSIGNED_CONTEXT ( ( #33, #13, #187 ) ) REPRESENTATION_CONTEXT ( 'NONE', 'WORKASPACE' ) );
#210 = FACE_OUTER_BOUND ( 'NONE', #113, .T. ) ;
#211 = DIRECTION ( 'NONE',  ( -1.246097681992569904E-16, 1.000000000000000000, -0.000000000000000000 ) ) ;
#212 = DIMENSIONAL_EXPONENTS ( 1.000000000000000000, 0.000000000000000000, 0.000000000000000000, 0.000000000000000000, 0.000000000000000000, 0.000000000000000000, 0.000000000000000000 ) ;
#213 = PRESENTATION_LAYER_ASSIGNMENT (  '', '', ( #94 ) ) ;
#214 = PRODUCT_DEFINITION_FORMATION_WITH_SPECIFIED_SOURCE ( 'ANY', '', #155, .NOT_KNOWN. ) ;
#215 = CARTESIAN_POINT ( 'NONE',  ( -1.123149610949324453E-17, 0.06249999999999980571, 0.000000000000000000 ) ) ;
#216 = STYLED_ITEM ( 'NONE', ( #194 ), #62 ) ;
#217 = UNCERTAINTY_MEASURE_WITH_UNIT (LENGTH_MEASURE( 1.000000000000000082E-05 ), #250, 'distance_accuracy_value', 'NONE');
#218 = FILL_AREA_STYLE ('',( #220 ) ) ;
#219 = CARTESIAN_POINT ( 'NONE',  ( -0.06249999999999921590, 0.06249999999999993755, 0.000000000000000000 ) ) ;
#220 = FILL_AREA_STYLE_COLOUR ( '', #44 ) ;
#221 = AXIS2_PLACEMENT_3D ( 'NONE', #140, #183, #121 ) ;
#222 = FILL_AREA_STYLE_COLOUR ( '', #100 ) ;
#223 = DIRECTION ( 'NONE',  ( -1.000000000000000000, -1.797039377518924796E-16, 0.000000000000000000 ) ) ;
#224 = ORIENTED_EDGE ( 'NONE', *, *, #259, .F. ) ;
#225 = ADVANCED_FACE ( 'NONE', ( #130 ), #193, .F. ) ;
#226 = CARTESIAN_POINT ( 'NONE',  ( 0.06249999999999995143, 0.06249999999999981959, 7.654042494670951382E-18 ) ) ;
#227 = FILL_AREA_STYLE_COLOUR ( '', #111 ) ;
#228 =( LENGTH_UNIT ( ) NAMED_UNIT ( * ) SI_UNIT ( $, .METRE. ) );
#229 = ORIENTED_EDGE ( 'NONE', *, *, #75, .T. ) ;
#230 = LENGTH_MEASURE_WITH_UNIT ( LENGTH_MEASURE( 0.02539999999999999897 ), #80 );
#231 = ADVANCED_FACE ( 'NONE', ( #210 ), #31, .T. ) ;
#232 = MANIFOLD_SOLID_BREP ( 'Revolve - Tool Body (Pointed)', #48 ) ;
#233 = DIMENSIONAL_EXPONENTS ( 1.000000000000000000, 0.000000000000000000, 0.000000000000000000, 0.000000000000000000, 0.000000000000000000, 0.000000000000000000, 0.000000000000000000 ) ;
#234 = APPLICATION_PROTOCOL_DEFINITION ( 'draft international standard', 'automotive_design', 1998, #152 ) ;
#235 = CIRCLE ( 'NONE', #258, 0.06249999999999956979 ) ;
#236 = CARTESIAN_POINT ( 'NONE',  ( -0.06249999999999948652, 1.500000000000000222, 0.000000000000000000 ) ) ;
#237 = FACE_OUTER_BOUND ( 'NONE', #125, .T. ) ;
#238 = MECHANICAL_DESIGN_GEOMETRIC_PRESENTATION_REPRESENTATION (  '', ( #94 ), #36 ) ;
#239 =( NAMED_UNIT ( * ) SI_UNIT ( $, .STERADIAN. ) SOLID_ANGLE_UNIT ( ) );
#240 = FILL_AREA_STYLE_COLOUR ( '', #119 ) ;
#241 = PRESENTATION_LAYER_ASSIGNMENT (  '', '', ( #216 ) ) ;
#242 = PRESENTATION_LAYER_ASSIGNMENT (  '', '', ( #135 ) ) ;
#243 = APPLICATION_CONTEXT ( 'automotive_design' ) ;
#244 = SURFACE_STYLE_FILL_AREA ( #122 ) ;
#245 = EDGE_CURVE ( 'NONE', #247, #252, #137, .T. ) ;
#246 = DIRECTION ( 'NONE',  ( -0.7071067811865484609, 0.7071067811865465735, 0.000000000000000000 ) ) ;
#247 = VERTEX_POINT ( 'NONE', #226 ) ;
#248 = AXIS2_PLACEMENT_3D ( 'NONE', #189, #162, #28 ) ;
#249 =( LENGTH_UNIT ( ) NAMED_UNIT ( * ) SI_UNIT ( $, .METRE. ) );
#250 =( CONVERSION_BASED_UNIT ( 'INCH', #172 ) LENGTH_UNIT ( ) NAMED_UNIT ( #1 ) );
#251 = ORIENTED_EDGE ( 'NONE', *, *, #61, .F. ) ;
#252 = VERTEX_POINT ( 'NONE', #186 ) ;
#253 = DIMENSIONAL_EXPONENTS ( 1.000000000000000000, 0.000000000000000000, 0.000000000000000000, 0.000000000000000000, 0.000000000000000000, 0.000000000000000000, 0.000000000000000000 ) ;
#254 = VECTOR ( 'NONE', #246, 39.37007874015748143 ) ;
#255 =( NAMED_UNIT ( * ) SI_UNIT ( $, .STERADIAN. ) SOLID_ANGLE_UNIT ( ) );
#256 =( NAMED_UNIT ( * ) SI_UNIT ( $, .STERADIAN. ) SOLID_ANGLE_UNIT ( ) );
#257 = CARTESIAN_POINT ( 'NONE',  ( 0.000000000000000000, 0.000000000000000000, 0.000000000000000000 ) ) ;
#258 = AXIS2_PLACEMENT_3D ( 'NONE', #52, #211, #84 ) ;
#259 = EDGE_CURVE ( 'NONE', #105, #252, #4, .T. ) ;
#260 = CARTESIAN_POINT ( 'NONE',  ( 0.000000000000000000, 0.000000000000000000, 0.000000000000000000 ) ) ;
#261 = VECTOR ( 'NONE', #198, 39.37007874015748143 ) ;
#262 = EDGE_CURVE ( 'NONE', #147, #86, #197, .T. ) ;
#263 = SURFACE_STYLE_USAGE ( .BOTH. , #118 ) ;
#264 =( LENGTH_UNIT ( ) NAMED_UNIT ( * ) SI_UNIT ( $, .METRE. ) );
#265 = PRESENTATION_LAYER_ASSIGNMENT (  '', '', ( #158 ) ) ;
ENDSEC;
END-ISO-10303-21;
