ISO-10303-21;
HEADER;
FILE_DESCRIPTION (( 'STEP AP214' ),
    '1' );
FILE_NAME ('05182.STEP',
    '2023-06-22T15:56:16',
    ( '' ),
    ( '' ),
    'SwSTEP 2.0',
    'SolidWorks 2023',
    '' );
FILE_SCHEMA (( 'AUTOMOTIVE_DESIGN' ));
ENDSEC;

DATA;
#1 = PRESENTATION_STYLE_ASSIGNMENT (( #267 ) ) ;
#2 = ORIENTED_EDGE ( 'NONE', *, *, #15, .F. ) ;
#3 = LINE ( 'NONE', #280, #9 ) ;
#4 = MECHANICAL_DESIGN_GEOMETRIC_PRESENTATION_REPRESENTATION (  '', ( #237 ), #126 ) ;
#5 = CARTESIAN_POINT ( 'NONE',  ( -1.224646799147352714E-16, 4.000000000000000000, 0.000000000000000000 ) ) ;
#6 =( NAMED_UNIT ( * ) PLANE_ANGLE_UNIT ( ) SI_UNIT ( $, .RADIAN. ) );
#7 = CARTESIAN_POINT ( 'NONE',  ( 0.000000000000000000, 1.750000000000000000, -0.1249999999999999861 ) ) ;
#8 = AXIS2_PLACEMENT_3D ( 'NONE', #224, #247, #86 ) ;
#9 = VECTOR ( 'NONE', #56, 39.37007874015748143 ) ;
#10 = AXIS2_PLACEMENT_3D ( 'NONE', #104, #16, #283 ) ;
#11 =( NAMED_UNIT ( * ) SI_UNIT ( $, .STERADIAN. ) SOLID_ANGLE_UNIT ( ) );
#12 = PRESENTATION_STYLE_ASSIGNMENT (( #261 ) ) ;
#13 = ORIENTED_EDGE ( 'NONE', *, *, #181, .T. ) ;
#14 = PRESENTATION_LAYER_ASSIGNMENT (  '', '', ( #83 ) ) ;
#15 = EDGE_CURVE ( 'NONE', #111, #156, #61, .T. ) ;
#16 = DIRECTION ( 'NONE',  ( -5.442874662877122626E-17, 1.000000000000000000, -0.000000000000000000 ) ) ;
#17 = AXIS2_PLACEMENT_3D ( 'NONE', #192, #19, #168 ) ;
#18 = COLOUR_RGB ( '',1.000000000000000000, 0.000000000000000000, 0.000000000000000000 ) ;
#19 = DIRECTION ( 'NONE',  ( -0.000000000000000000, -1.000000000000000000, -0.000000000000000000 ) ) ;
#20 = CYLINDRICAL_SURFACE ( 'NONE', #8, 0.1250000000000000278 ) ;
#21 =( CONVERSION_BASED_UNIT ( 'INCH', #87 ) LENGTH_UNIT ( ) NAMED_UNIT ( #249 ) );
#22 = VERTEX_POINT ( 'NONE', #71 ) ;
#23 = DIRECTION ( 'NONE',  ( 0.000000000000000000, 1.000000000000000000, 0.000000000000000000 ) ) ;
#24 = CIRCLE ( 'NONE', #58, 0.1250000000000000000 ) ;
#25 = SURFACE_SIDE_STYLE ('',( #166 ) ) ;
#26 = EDGE_CURVE ( 'NONE', #269, #22, #152, .T. ) ;
#27 = EDGE_LOOP ( 'NONE', ( #88, #48, #198, #306 ) ) ;
#28 = SHAPE_DEFINITION_REPRESENTATION ( #142, #165 ) ;
#29 = APPLICATION_CONTEXT ( 'automotive_design' ) ;
#30 = DIRECTION ( 'NONE',  ( -0.000000000000000000, -1.000000000000000000, -0.000000000000000000 ) ) ;
#31 = DIRECTION ( 'NONE',  ( -5.442874662877122010E-17, 1.000000000000000000, 0.000000000000000000 ) ) ;
#32 = CARTESIAN_POINT ( 'NONE',  ( 1.530808498934191201E-17, 1.750000000000000000, 0.1249999999999999861 ) ) ;
#33 = CIRCLE ( 'NONE', #10, 0.1250000000000001110 ) ;
#34 = CARTESIAN_POINT ( 'NONE',  ( 1.851555287236859217E-34, 1.750000000000000000, 0.000000000000000000 ) ) ;
#35 = DIRECTION ( 'NONE',  ( -5.442874662877122626E-17, 1.000000000000000000, -0.000000000000000000 ) ) ;
#36 =( NAMED_UNIT ( * ) PLANE_ANGLE_UNIT ( ) SI_UNIT ( $, .RADIAN. ) );
#37 = CIRCLE ( 'NONE', #113, 0.1250000000000001110 ) ;
#38 = FACE_OUTER_BOUND ( 'NONE', #54, .T. ) ;
#39 = CARTESIAN_POINT ( 'NONE',  ( 0.000000000000000000, 0.000000000000000000, 0.000000000000000000 ) ) ;
#40 = COLOUR_RGB ( '',0.7921568627450980005, 0.8196078431372548767, 0.9333333333333333481 ) ;
#41 =( LENGTH_UNIT ( ) NAMED_UNIT ( * ) SI_UNIT ( $, .METRE. ) );
#42 = UNCERTAINTY_MEASURE_WITH_UNIT (LENGTH_MEASURE( 1.000000000000000082E-05 ), #279, 'distance_accuracy_value', 'NONE');
#43 = CLOSED_SHELL ( 'NONE', ( #49, #264, #117, #102 ) ) ;
#44 = SURFACE_STYLE_USAGE ( .BOTH. , #223 ) ;
#45 = EDGE_LOOP ( 'NONE', ( #258, #287, #169, #99 ) ) ;
#46 = FILL_AREA_STYLE ('',( #69 ) ) ;
#47 = PLANE ( 'NONE',  #164 ) ;
#48 = ORIENTED_EDGE ( 'NONE', *, *, #74, .T. ) ;
#49 = ADVANCED_FACE ( 'NONE', ( #200 ), #20, .T. ) ;
#50 = DIMENSIONAL_EXPONENTS ( 1.000000000000000000, 0.000000000000000000, 0.000000000000000000, 0.000000000000000000, 0.000000000000000000, 0.000000000000000000, 0.000000000000000000 ) ;
#51 = VECTOR ( 'NONE', #134, 39.37007874015748143 ) ;
#52 = ORIENTED_EDGE ( 'NONE', *, *, #128, .T. ) ;
#53 =( LENGTH_UNIT ( ) NAMED_UNIT ( * ) SI_UNIT ( $, .METRE. ) );
#54 = EDGE_LOOP ( 'NONE', ( #221, #109 ) ) ;
#55 = VECTOR ( 'NONE', #176, 39.37007874015748143 ) ;
#56 = DIRECTION ( 'NONE',  ( -5.442874662877122010E-17, 1.000000000000000000, -0.000000000000000000 ) ) ;
#57 =( NAMED_UNIT ( * ) SI_UNIT ( $, .STERADIAN. ) SOLID_ANGLE_UNIT ( ) );
#58 = AXIS2_PLACEMENT_3D ( 'NONE', #251, #30, #73 ) ;
#59 = PLANE ( 'NONE',  #143 ) ;
#60 = FILL_AREA_STYLE_COLOUR ( '', #18 ) ;
#61 = CIRCLE ( 'NONE', #268, 0.1249999999999999861 ) ;
#62 = DIRECTION ( 'NONE',  ( 0.000000000000000000, 0.000000000000000000, -1.000000000000000000 ) ) ;
#63 = CARTESIAN_POINT ( 'NONE',  ( 0.000000000000000000, 1.750000000000000000, 0.000000000000000000 ) ) ;
#64 = ADVANCED_FACE ( 'NONE', ( #116 ), #289, .T. ) ;
#65 = VERTEX_POINT ( 'NONE', #7 ) ;
#66 = PRESENTATION_LAYER_ASSIGNMENT (  '', '', ( #187 ) ) ;
#67 = COLOUR_RGB ( '',1.000000000000000000, 0.000000000000000000, 0.000000000000000000 ) ;
#68 = PRESENTATION_STYLE_ASSIGNMENT (( #44 ) ) ;
#69 = FILL_AREA_STYLE_COLOUR ( '', #125 ) ;
#70 =( NAMED_UNIT ( * ) SI_UNIT ( $, .STERADIAN. ) SOLID_ANGLE_UNIT ( ) );
#71 = CARTESIAN_POINT ( 'NONE',  ( 1.530808498934191509E-17, 0.000000000000000000, 0.1250000000000000000 ) ) ;
#72 = ORIENTED_EDGE ( 'NONE', *, *, #150, .F. ) ;
#73 = DIRECTION ( 'NONE',  ( 0.000000000000000000, 0.000000000000000000, -1.000000000000000000 ) ) ;
#74 = EDGE_CURVE ( 'NONE', #135, #22, #122, .T. ) ;
#75 = FILL_AREA_STYLE ('',( #297 ) ) ;
#76 = CARTESIAN_POINT ( 'NONE',  ( -0.1249999999999999861, 1.750000000000000000, 0.000000000000000000 ) ) ;
#77 = AXIS2_PLACEMENT_3D ( 'NONE', #97, #230, #127 ) ;
#78 = CYLINDRICAL_SURFACE ( 'NONE', #153, 0.1250000000000000278 ) ;
#79 =( NAMED_UNIT ( * ) SI_UNIT ( $, .STERADIAN. ) SOLID_ANGLE_UNIT ( ) );
#80 = COLOUR_RGB ( '',1.000000000000000000, 0.000000000000000000, 0.000000000000000000 ) ;
#81 = DIRECTION ( 'NONE',  ( 0.000000000000000000, -1.000000000000000000, -0.000000000000000000 ) ) ;
#82 = LINE ( 'NONE', #216, #51 ) ;
#83 = STYLED_ITEM ( 'NONE', ( #1 ), #236 ) ;
#84 =( NAMED_UNIT ( * ) PLANE_ANGLE_UNIT ( ) SI_UNIT ( $, .RADIAN. ) );
#85 = VERTEX_POINT ( 'NONE', #254 ) ;
#86 = DIRECTION ( 'NONE',  ( -1.000000000000000000, 0.000000000000000000, 0.000000000000000000 ) ) ;
#87 = LENGTH_MEASURE_WITH_UNIT ( LENGTH_MEASURE( 0.02539999999999999897 ), #262 );
#88 = ORIENTED_EDGE ( 'NONE', *, *, #138, .T. ) ;
#89 = ORIENTED_EDGE ( 'NONE', *, *, #214, .T. ) ;
#90 = ORIENTED_EDGE ( 'NONE', *, *, #15, .T. ) ;
#91 =( GEOMETRIC_REPRESENTATION_CONTEXT ( 3 ) GLOBAL_UNCERTAINTY_ASSIGNED_CONTEXT ( ( #242 ) ) GLOBAL_UNIT_ASSIGNED_CONTEXT ( ( #210, #133, #57 ) ) REPRESENTATION_CONTEXT ( 'NONE', 'WORKASPACE' ) );
#92 = DIRECTION ( 'NONE',  ( -5.442874662877122626E-17, 1.000000000000000000, -0.000000000000000000 ) ) ;
#93 = FACE_OUTER_BOUND ( 'NONE', #295, .T. ) ;
#94 = PRODUCT_DEFINITION ( 'UNKNOWN', '', #132, #182 ) ;
#95 = SURFACE_SIDE_STYLE ('',( #275 ) ) ;
#96 = MECHANICAL_DESIGN_GEOMETRIC_PRESENTATION_REPRESENTATION (  '', ( #131 ), #149 ) ;
#97 = CARTESIAN_POINT ( 'NONE',  ( 0.000000000000000000, 1.750000000000000000, 0.000000000000000000 ) ) ;
#98 = LENGTH_MEASURE_WITH_UNIT ( LENGTH_MEASURE( 0.02539999999999999897 ), #41 );
#99 = ORIENTED_EDGE ( 'NONE', *, *, #154, .F. ) ;
#100 = LINE ( 'NONE', #188, #227 ) ;
#101 = AXIS2_PLACEMENT_3D ( 'NONE', #205, #123, #147 ) ;
#102 = ADVANCED_FACE ( 'NONE', ( #299 ), #256, .F. ) ;
#103 = STYLED_ITEM ( 'NONE', ( #68 ), #255 ) ;
#104 = CARTESIAN_POINT ( 'NONE',  ( -1.224646799147352714E-16, 4.000000000000000000, 0.000000000000000000 ) ) ;
#105 = DIRECTION ( 'NONE',  ( 0.000000000000000000, 0.000000000000000000, -1.000000000000000000 ) ) ;
#106 = SURFACE_SIDE_STYLE ('',( #259 ) ) ;
#107 = AXIS2_PLACEMENT_3D ( 'NONE', #180, #35, #282 ) ;
#108 = LENGTH_MEASURE_WITH_UNIT ( LENGTH_MEASURE( 0.02539999999999999897 ), #161 );
#109 = ORIENTED_EDGE ( 'NONE', *, *, #154, .T. ) ;
#110 =( NAMED_UNIT ( * ) PLANE_ANGLE_UNIT ( ) SI_UNIT ( $, .RADIAN. ) );
#111 = VERTEX_POINT ( 'NONE', #76 ) ;
#112 = ORIENTED_EDGE ( 'NONE', *, *, #181, .F. ) ;
#113 = AXIS2_PLACEMENT_3D ( 'NONE', #5, #92, #120 ) ;
#114 = FILL_AREA_STYLE_COLOUR ( '', #270 ) ;
#115 = VERTEX_POINT ( 'NONE', #226 ) ;
#116 = FACE_OUTER_BOUND ( 'NONE', #27, .T. ) ;
#117 = ADVANCED_FACE ( 'NONE', ( #93 ), #78, .T. ) ;
#118 =( CONVERSION_BASED_UNIT ( 'INCH', #235 ) LENGTH_UNIT ( ) NAMED_UNIT ( #174 ) );
#119 = AXIS2_PLACEMENT_3D ( 'NONE', #121, #252, #173 ) ;
#120 = DIRECTION ( 'NONE',  ( -1.000000000000000000, 0.000000000000000000, 0.000000000000000000 ) ) ;
#121 = CARTESIAN_POINT ( 'NONE',  ( 0.1249999999999999861, 4.000000000000000000, 0.000000000000000000 ) ) ;
#122 = LINE ( 'NONE', #179, #55 ) ;
#123 = DIRECTION ( 'NONE',  ( -0.000000000000000000, -1.000000000000000000, -0.000000000000000000 ) ) ;
#124 = PRODUCT_CONTEXT ( 'NONE', #29, 'mechanical' ) ;
#125 = COLOUR_RGB ( '',1.000000000000000000, 0.000000000000000000, 0.000000000000000000 ) ;
#126 =( GEOMETRIC_REPRESENTATION_CONTEXT ( 3 ) GLOBAL_UNCERTAINTY_ASSIGNED_CONTEXT ( ( #233 ) ) GLOBAL_UNIT_ASSIGNED_CONTEXT ( ( #118, #36, #11 ) ) REPRESENTATION_CONTEXT ( 'NONE', 'WORKASPACE' ) );
#127 = DIRECTION ( 'NONE',  ( 0.000000000000000000, 0.000000000000000000, -1.000000000000000000 ) ) ;
#128 = EDGE_CURVE ( 'NONE', #111, #115, #3, .T. ) ;
#129 = SURFACE_STYLE_FILL_AREA ( #300 ) ;
#130 = FILL_AREA_STYLE ('',( #155 ) ) ;
#131 = STYLED_ITEM ( 'NONE', ( #12 ), #208 ) ;
#132 = PRODUCT_DEFINITION_FORMATION_WITH_SPECIFIED_SOURCE ( 'ANY', '', #201, .NOT_KNOWN. ) ;
#133 =( NAMED_UNIT ( * ) PLANE_ANGLE_UNIT ( ) SI_UNIT ( $, .RADIAN. ) );
#134 = DIRECTION ( 'NONE',  ( -5.442874662877122010E-17, 1.000000000000000000, -0.000000000000000000 ) ) ;
#135 = VERTEX_POINT ( 'NONE', #32 ) ;
#136 = STYLED_ITEM ( 'NONE', ( #183 ), #218 ) ;
#137 = ORIENTED_EDGE ( 'NONE', *, *, #128, .F. ) ;
#138 = EDGE_CURVE ( 'NONE', #65, #135, #144, .T. ) ;
#139 =( CONVERSION_BASED_UNIT ( 'INCH', #219 ) LENGTH_UNIT ( ) NAMED_UNIT ( #50 ) );
#140 = DIRECTION ( 'NONE',  ( 0.000000000000000000, -0.000000000000000000, 1.000000000000000000 ) ) ;
#141 = ORIENTED_EDGE ( 'NONE', *, *, #138, .F. ) ;
#142 = PRODUCT_DEFINITION_SHAPE ( 'NONE', 'NONE',  #94 ) ;
#143 = AXIS2_PLACEMENT_3D ( 'NONE', #285, #81, #62 ) ;
#144 = CIRCLE ( 'NONE', #77, 0.1249999999999999861 ) ;
#145 = ORIENTED_EDGE ( 'NONE', *, *, #272, .T. ) ;
#146 = MANIFOLD_SOLID_BREP ( 'Revolve - Tool Body (Straight Shanked)', #43 ) ;
#147 = DIRECTION ( 'NONE',  ( 0.000000000000000000, 0.000000000000000000, -1.000000000000000000 ) ) ;
#148 = CARTESIAN_POINT ( 'NONE',  ( 0.1249999999999999861, 1.750000000000000000, 1.530808498934192125E-17 ) ) ;
#149 =( GEOMETRIC_REPRESENTATION_CONTEXT ( 3 ) GLOBAL_UNCERTAINTY_ASSIGNED_CONTEXT ( ( #278 ) ) GLOBAL_UNIT_ASSIGNED_CONTEXT ( ( #303, #84, #79 ) ) REPRESENTATION_CONTEXT ( 'NONE', 'WORKASPACE' ) );
#150 = EDGE_CURVE ( 'NONE', #156, #111, #308, .T. ) ;
#151 =( LENGTH_UNIT ( ) NAMED_UNIT ( * ) SI_UNIT ( $, .METRE. ) );
#152 = CIRCLE ( 'NONE', #17, 0.1250000000000000000 ) ;
#153 = AXIS2_PLACEMENT_3D ( 'NONE', #281, #232, #178 ) ;
#154 = EDGE_CURVE ( 'NONE', #22, #269, #24, .T. ) ;
#155 = FILL_AREA_STYLE_COLOUR ( '', #67 ) ;
#156 = VERTEX_POINT ( 'NONE', #148 ) ;
#157 = SURFACE_SIDE_STYLE ('',( #129 ) ) ;
#158 =( GEOMETRIC_REPRESENTATION_CONTEXT ( 3 ) GLOBAL_UNCERTAINTY_ASSIGNED_CONTEXT ( ( #159 ) ) GLOBAL_UNIT_ASSIGNED_CONTEXT ( ( #217, #110, #305 ) ) REPRESENTATION_CONTEXT ( 'NONE', 'WORKASPACE' ) );
#159 = UNCERTAINTY_MEASURE_WITH_UNIT (LENGTH_MEASURE( 1.000000000000000082E-05 ), #217, 'distance_accuracy_value', 'NONE');
#160 =( LENGTH_UNIT ( ) NAMED_UNIT ( * ) SI_UNIT ( $, .METRE. ) );
#161 =( LENGTH_UNIT ( ) NAMED_UNIT ( * ) SI_UNIT ( $, .METRE. ) );
#162 = DIRECTION ( 'NONE',  ( 0.000000000000000000, 0.000000000000000000, -1.000000000000000000 ) ) ;
#163 = CARTESIAN_POINT ( 'NONE',  ( 0.000000000000000000, 1.750000000000000000, 0.000000000000000000 ) ) ;
#164 = AXIS2_PLACEMENT_3D ( 'NONE', #63, #23, #140 ) ;
#165 = ADVANCED_BREP_SHAPE_REPRESENTATION ( '05182', ( #255, #146, #257 ), #228 ) ;
#166 = SURFACE_STYLE_FILL_AREA ( #46 ) ;
#167 = SURFACE_SIDE_STYLE ('',( #292 ) ) ;
#168 = DIRECTION ( 'NONE',  ( 0.000000000000000000, 0.000000000000000000, -1.000000000000000000 ) ) ;
#169 = ORIENTED_EDGE ( 'NONE', *, *, #191, .T. ) ;
#170 = MECHANICAL_DESIGN_GEOMETRIC_PRESENTATION_REPRESENTATION (  '', ( #187 ), #253 ) ;
#171 =( LENGTH_UNIT ( ) NAMED_UNIT ( * ) SI_UNIT ( $, .METRE. ) );
#172 = CARTESIAN_POINT ( 'NONE',  ( 0.000000000000000000, 0.000000000000000000, -0.1250000000000000000 ) ) ;
#173 = DIRECTION ( 'NONE',  ( 1.000000000000000000, 5.442874662877122010E-17, 0.000000000000000000 ) ) ;
#174 = DIMENSIONAL_EXPONENTS ( 1.000000000000000000, 0.000000000000000000, 0.000000000000000000, 0.000000000000000000, 0.000000000000000000, 0.000000000000000000, 0.000000000000000000 ) ;
#175 = CARTESIAN_POINT ( 'NONE',  ( 0.000000000000000000, 0.000000000000000000, 0.000000000000000000 ) ) ;
#176 = DIRECTION ( 'NONE',  ( -0.000000000000000000, -1.000000000000000000, -0.000000000000000000 ) ) ;
#177 = AXIS2_PLACEMENT_3D ( 'NONE', #39, #245, #162 ) ;
#178 = DIRECTION ( 'NONE',  ( -1.000000000000000000, 0.000000000000000000, 0.000000000000000000 ) ) ;
#179 = CARTESIAN_POINT ( 'NONE',  ( 1.530808498934191509E-17, 0.000000000000000000, 0.1250000000000000000 ) ) ;
#180 = CARTESIAN_POINT ( 'NONE',  ( 0.000000000000000000, 1.750000000000000000, 0.000000000000000000 ) ) ;
#181 = EDGE_CURVE ( 'NONE', #85, #115, #33, .T. ) ;
#182 = PRODUCT_DEFINITION_CONTEXT ( 'detailed design', #241, 'design' ) ;
#183 = PRESENTATION_STYLE_ASSIGNMENT (( #184 ) ) ;
#184 = SURFACE_STYLE_USAGE ( .BOTH. , #106 ) ;
#185 = PRODUCT_RELATED_PRODUCT_CATEGORY ( 'part', '', ( #201 ) ) ;
#186 = CYLINDRICAL_SURFACE ( 'NONE', #177, 0.1250000000000000000 ) ;
#187 = STYLED_ITEM ( 'NONE', ( #265 ), #64 ) ;
#188 = CARTESIAN_POINT ( 'NONE',  ( 0.000000000000000000, 0.000000000000000000, -0.1250000000000000000 ) ) ;
#189 = FILL_AREA_STYLE ('',( #114 ) ) ;
#190 = ORIENTED_EDGE ( 'NONE', *, *, #272, .F. ) ;
#191 = EDGE_CURVE ( 'NONE', #65, #269, #100, .T. ) ;
#192 = CARTESIAN_POINT ( 'NONE',  ( 0.000000000000000000, 0.000000000000000000, 0.000000000000000000 ) ) ;
#193 = MECHANICAL_DESIGN_GEOMETRIC_PRESENTATION_REPRESENTATION (  '', ( #103 ), #158 ) ;
#194 =( NAMED_UNIT ( * ) PLANE_ANGLE_UNIT ( ) SI_UNIT ( $, .RADIAN. ) );
#195 = ORIENTED_EDGE ( 'NONE', *, *, #214, .F. ) ;
#196 = EDGE_CURVE ( 'NONE', #135, #65, #212, .T. ) ;
#197 = FILL_AREA_STYLE ('',( #307 ) ) ;
#198 = ORIENTED_EDGE ( 'NONE', *, *, #26, .F. ) ;
#199 = DIRECTION ( 'NONE',  ( 1.000000000000000000, 0.000000000000000000, 0.000000000000000000 ) ) ;
#200 = FACE_OUTER_BOUND ( 'NONE', #225, .T. ) ;
#201 = PRODUCT ( '05182', '05182', '', ( #124 ) ) ;
#202 = PRESENTATION_STYLE_ASSIGNMENT (( #209 ) ) ;
#203 = DIMENSIONAL_EXPONENTS ( 1.000000000000000000, 0.000000000000000000, 0.000000000000000000, 0.000000000000000000, 0.000000000000000000, 0.000000000000000000, 0.000000000000000000 ) ;
#204 = DIRECTION ( 'NONE',  ( -1.000000000000000000, -5.442874662877122010E-17, 0.000000000000000000 ) ) ;
#205 = CARTESIAN_POINT ( 'NONE',  ( 0.000000000000000000, 0.000000000000000000, 0.000000000000000000 ) ) ;
#206 = UNCERTAINTY_MEASURE_WITH_UNIT (LENGTH_MEASURE( 1.000000000000000082E-05 ), #21, 'distance_accuracy_value', 'NONE');
#207 =( NAMED_UNIT ( * ) SI_UNIT ( $, .STERADIAN. ) SOLID_ANGLE_UNIT ( ) );
#208 = ADVANCED_FACE ( 'NONE', ( #38 ), #59, .T. ) ;
#209 = SURFACE_STYLE_USAGE ( .BOTH. , #95 ) ;
#210 =( CONVERSION_BASED_UNIT ( 'INCH', #98 ) LENGTH_UNIT ( ) NAMED_UNIT ( #203 ) );
#211 = CLOSED_SHELL ( 'NONE', ( #64, #236, #218, #208 ) ) ;
#212 = CIRCLE ( 'NONE', #296, 0.1249999999999999861 ) ;
#213 = LENGTH_MEASURE_WITH_UNIT ( LENGTH_MEASURE( 0.02539999999999999897 ), #160 );
#214 = EDGE_CURVE ( 'NONE', #156, #85, #82, .T. ) ;
#215 = CARTESIAN_POINT ( 'NONE',  ( 0.000000000000000000, 1.750000000000000000, 0.000000000000000000 ) ) ;
#216 = CARTESIAN_POINT ( 'NONE',  ( 0.1249999999999999167, 4.000000000000000000, 1.530808498934191817E-17 ) ) ;
#217 =( CONVERSION_BASED_UNIT ( 'INCH', #108 ) LENGTH_UNIT ( ) NAMED_UNIT ( #291 ) );
#218 = ADVANCED_FACE ( 'NONE', ( #239 ), #186, .T. ) ;
#219 = LENGTH_MEASURE_WITH_UNIT ( LENGTH_MEASURE( 0.02539999999999999897 ), #171 );
#220 = ORIENTED_EDGE ( 'NONE', *, *, #150, .T. ) ;
#221 = ORIENTED_EDGE ( 'NONE', *, *, #26, .T. ) ;
#222 = PRESENTATION_LAYER_ASSIGNMENT (  '', '', ( #136 ) ) ;
#223 = SURFACE_SIDE_STYLE ('',( #286 ) ) ;
#224 = CARTESIAN_POINT ( 'NONE',  ( -1.224646799147352714E-16, 4.000000000000000000, 0.000000000000000000 ) ) ;
#225 = EDGE_LOOP ( 'NONE', ( #90, #89, #190, #137 ) ) ;
#226 = CARTESIAN_POINT ( 'NONE',  ( -0.1250000000000002220, 4.000000000000000000, 0.000000000000000000 ) ) ;
#227 = VECTOR ( 'NONE', #302, 39.37007874015748143 ) ;
#228 =( GEOMETRIC_REPRESENTATION_CONTEXT ( 3 ) GLOBAL_UNCERTAINTY_ASSIGNED_CONTEXT ( ( #42 ) ) GLOBAL_UNIT_ASSIGNED_CONTEXT ( ( #279, #234, #298 ) ) REPRESENTATION_CONTEXT ( 'NONE', 'WORKASPACE' ) );
#229 = LENGTH_MEASURE_WITH_UNIT ( LENGTH_MEASURE( 0.02539999999999999897 ), #53 );
#230 = DIRECTION ( 'NONE',  ( -0.000000000000000000, -1.000000000000000000, -0.000000000000000000 ) ) ;
#231 = DIMENSIONAL_EXPONENTS ( 1.000000000000000000, 0.000000000000000000, 0.000000000000000000, 0.000000000000000000, 0.000000000000000000, 0.000000000000000000, 0.000000000000000000 ) ;
#232 = DIRECTION ( 'NONE',  ( -5.442874662877122626E-17, 1.000000000000000000, -0.000000000000000000 ) ) ;
#233 = UNCERTAINTY_MEASURE_WITH_UNIT (LENGTH_MEASURE( 1.000000000000000082E-05 ), #118, 'distance_accuracy_value', 'NONE');
#234 =( NAMED_UNIT ( * ) PLANE_ANGLE_UNIT ( ) SI_UNIT ( $, .RADIAN. ) );
#235 = LENGTH_MEASURE_WITH_UNIT ( LENGTH_MEASURE( 0.02539999999999999897 ), #151 );
#236 = ADVANCED_FACE ( 'NONE', ( #309 ), #47, .T. ) ;
#237 = STYLED_ITEM ( 'NONE', ( #202 ), #146 ) ;
#238 = DIRECTION ( 'NONE',  ( 0.000000000000000000, 0.000000000000000000, 1.000000000000000000 ) ) ;
#239 = FACE_OUTER_BOUND ( 'NONE', #45, .T. ) ;
#240 = AXIS2_PLACEMENT_3D ( 'NONE', #34, #31, #204 ) ;
#241 = APPLICATION_CONTEXT ( 'automotive_design' ) ;
#242 = UNCERTAINTY_MEASURE_WITH_UNIT (LENGTH_MEASURE( 1.000000000000000082E-05 ), #210, 'distance_accuracy_value', 'NONE');
#243 = MECHANICAL_DESIGN_GEOMETRIC_PRESENTATION_REPRESENTATION (  '', ( #136 ), #91 ) ;
#244 = DIRECTION ( 'NONE',  ( -1.000000000000000000, 0.000000000000000000, 0.000000000000000000 ) ) ;
#245 = DIRECTION ( 'NONE',  ( -0.000000000000000000, -1.000000000000000000, -0.000000000000000000 ) ) ;
#246 = PLANE ( 'NONE',  #240 ) ;
#247 = DIRECTION ( 'NONE',  ( -5.442874662877122626E-17, 1.000000000000000000, -0.000000000000000000 ) ) ;
#248 = PRESENTATION_LAYER_ASSIGNMENT (  '', '', ( #237 ) ) ;
#249 = DIMENSIONAL_EXPONENTS ( 1.000000000000000000, 0.000000000000000000, 0.000000000000000000, 0.000000000000000000, 0.000000000000000000, 0.000000000000000000, 0.000000000000000000 ) ;
#250 = DIRECTION ( 'NONE',  ( -5.442874662877122626E-17, 1.000000000000000000, -0.000000000000000000 ) ) ;
#251 = CARTESIAN_POINT ( 'NONE',  ( 0.000000000000000000, 0.000000000000000000, 0.000000000000000000 ) ) ;
#252 = DIRECTION ( 'NONE',  ( 5.442874662877122010E-17, -1.000000000000000000, 0.000000000000000000 ) ) ;
#253 =( GEOMETRIC_REPRESENTATION_CONTEXT ( 3 ) GLOBAL_UNCERTAINTY_ASSIGNED_CONTEXT ( ( #273 ) ) GLOBAL_UNIT_ASSIGNED_CONTEXT ( ( #139, #6, #207 ) ) REPRESENTATION_CONTEXT ( 'NONE', 'WORKASPACE' ) );
#254 = CARTESIAN_POINT ( 'NONE',  ( 0.1249999999999999861, 4.000000000000000000, 1.530808498934192125E-17 ) ) ;
#255 = MANIFOLD_SOLID_BREP ( 'Revolve - Cutting Edge', #211 ) ;
#256 = PLANE ( 'NONE',  #119 ) ;
#257 = AXIS2_PLACEMENT_3D ( 'NONE', #175, #238, #199 ) ;
#258 = ORIENTED_EDGE ( 'NONE', *, *, #74, .F. ) ;
#259 = SURFACE_STYLE_FILL_AREA ( #130 ) ;
#260 = PRESENTATION_LAYER_ASSIGNMENT (  '', '', ( #103 ) ) ;
#261 = SURFACE_STYLE_USAGE ( .BOTH. , #157 ) ;
#262 =( LENGTH_UNIT ( ) NAMED_UNIT ( * ) SI_UNIT ( $, .METRE. ) );
#263 = EDGE_LOOP ( 'NONE', ( #141, #304 ) ) ;
#264 = ADVANCED_FACE ( 'NONE', ( #274 ), #246, .F. ) ;
#265 = PRESENTATION_STYLE_ASSIGNMENT (( #293 ) ) ;
#266 = DIMENSIONAL_EXPONENTS ( 1.000000000000000000, 0.000000000000000000, 0.000000000000000000, 0.000000000000000000, 0.000000000000000000, 0.000000000000000000, 0.000000000000000000 ) ;
#267 = SURFACE_STYLE_USAGE ( .BOTH. , #167 ) ;
#268 = AXIS2_PLACEMENT_3D ( 'NONE', #163, #250, #244 ) ;
#269 = VERTEX_POINT ( 'NONE', #172 ) ;
#270 = COLOUR_RGB ( '',0.7921568627450980005, 0.8196078431372548767, 0.9333333333333333481 ) ;
#271 = EDGE_LOOP ( 'NONE', ( #2, #72 ) ) ;
#272 = EDGE_CURVE ( 'NONE', #115, #85, #37, .T. ) ;
#273 = UNCERTAINTY_MEASURE_WITH_UNIT (LENGTH_MEASURE( 1.000000000000000082E-05 ), #139, 'distance_accuracy_value', 'NONE');
#274 = FACE_OUTER_BOUND ( 'NONE', #271, .T. ) ;
#275 = SURFACE_STYLE_FILL_AREA ( #75 ) ;
#276 = APPLICATION_PROTOCOL_DEFINITION ( 'draft international standard', 'automotive_design', 1998, #29 ) ;
#277 = PRESENTATION_LAYER_ASSIGNMENT (  '', '', ( #131 ) ) ;
#278 = UNCERTAINTY_MEASURE_WITH_UNIT (LENGTH_MEASURE( 1.000000000000000082E-05 ), #303, 'distance_accuracy_value', 'NONE');
#279 =( CONVERSION_BASED_UNIT ( 'INCH', #229 ) LENGTH_UNIT ( ) NAMED_UNIT ( #231 ) );
#280 = CARTESIAN_POINT ( 'NONE',  ( -0.1250000000000001388, 4.000000000000000000, 0.000000000000000000 ) ) ;
#281 = CARTESIAN_POINT ( 'NONE',  ( -1.224646799147352714E-16, 4.000000000000000000, 0.000000000000000000 ) ) ;
#282 = DIRECTION ( 'NONE',  ( -1.000000000000000000, 0.000000000000000000, 0.000000000000000000 ) ) ;
#283 = DIRECTION ( 'NONE',  ( -1.000000000000000000, 0.000000000000000000, 0.000000000000000000 ) ) ;
#284 = DIRECTION ( 'NONE',  ( -0.000000000000000000, -1.000000000000000000, -0.000000000000000000 ) ) ;
#285 = CARTESIAN_POINT ( 'NONE',  ( 0.000000000000000000, 0.000000000000000000, 0.000000000000000000 ) ) ;
#286 = SURFACE_STYLE_FILL_AREA ( #189 ) ;
#287 = ORIENTED_EDGE ( 'NONE', *, *, #196, .T. ) ;
#288 = MECHANICAL_DESIGN_GEOMETRIC_PRESENTATION_REPRESENTATION (  '', ( #83 ), #301 ) ;
#289 = CYLINDRICAL_SURFACE ( 'NONE', #101, 0.1250000000000000000 ) ;
#290 = EDGE_LOOP ( 'NONE', ( #145, #13 ) ) ;
#291 = DIMENSIONAL_EXPONENTS ( 1.000000000000000000, 0.000000000000000000, 0.000000000000000000, 0.000000000000000000, 0.000000000000000000, 0.000000000000000000, 0.000000000000000000 ) ;
#292 = SURFACE_STYLE_FILL_AREA ( #197 ) ;
#293 = SURFACE_STYLE_USAGE ( .BOTH. , #25 ) ;
#294 = APPLICATION_PROTOCOL_DEFINITION ( 'draft international standard', 'automotive_design', 1998, #241 ) ;
#295 = EDGE_LOOP ( 'NONE', ( #195, #220, #52, #112 ) ) ;
#296 = AXIS2_PLACEMENT_3D ( 'NONE', #215, #284, #105 ) ;
#297 = FILL_AREA_STYLE_COLOUR ( '', #40 ) ;
#298 =( NAMED_UNIT ( * ) SI_UNIT ( $, .STERADIAN. ) SOLID_ANGLE_UNIT ( ) );
#299 = FACE_OUTER_BOUND ( 'NONE', #290, .T. ) ;
#300 = FILL_AREA_STYLE ('',( #60 ) ) ;
#301 =( GEOMETRIC_REPRESENTATION_CONTEXT ( 3 ) GLOBAL_UNCERTAINTY_ASSIGNED_CONTEXT ( ( #206 ) ) GLOBAL_UNIT_ASSIGNED_CONTEXT ( ( #21, #194, #70 ) ) REPRESENTATION_CONTEXT ( 'NONE', 'WORKASPACE' ) );
#302 = DIRECTION ( 'NONE',  ( -0.000000000000000000, -1.000000000000000000, -0.000000000000000000 ) ) ;
#303 =( CONVERSION_BASED_UNIT ( 'INCH', #213 ) LENGTH_UNIT ( ) NAMED_UNIT ( #266 ) );
#304 = ORIENTED_EDGE ( 'NONE', *, *, #196, .F. ) ;
#305 =( NAMED_UNIT ( * ) SI_UNIT ( $, .STERADIAN. ) SOLID_ANGLE_UNIT ( ) );
#306 = ORIENTED_EDGE ( 'NONE', *, *, #191, .F. ) ;
#307 = FILL_AREA_STYLE_COLOUR ( '', #80 ) ;
#308 = CIRCLE ( 'NONE', #107, 0.1249999999999999861 ) ;
#309 = FACE_OUTER_BOUND ( 'NONE', #263, .T. ) ;
ENDSEC;
END-ISO-10303-21;
