ISO-10303-21;
HEADER;
FILE_DESCRIPTION (( 'STEP AP214' ),
    '1' );
FILE_NAME ('Micro_SEM-078-03X.STEP',
    '2021-09-02T01:00:15',
    ( '' ),
    ( '' ),
    'SwSTEP 2.0',
    'SolidWorks 2020',
    '' );
FILE_SCHEMA (( 'AUTOMOTIVE_DESIGN' ));
ENDSEC;

DATA;
#1 =( GEOMETRIC_REPRESENTATION_CONTEXT ( 3 ) GLOBAL_UNCERTAINTY_ASSIGNED_CONTEXT ( ( #127 ) ) GLOBAL_UNIT_ASSIGNED_CONTEXT ( ( #227, #18, #131 ) ) REPRESENTATION_CONTEXT ( 'NONE', 'WORKASPACE' ) );
#2 = EDGE_CURVE ( 'NONE', #196, #34, #93, .T. ) ;
#3 = PLANE ( 'NONE',  #100 ) ;
#4 = DIRECTION ( 'NONE',  ( 1.000000000000000000, 0.0000000000000000000, 0.0000000000000000000 ) ) ;
#5 = VECTOR ( 'NONE', #280, 39.37007874015748143 ) ;
#6 = PRESENTATION_LAYER_ASSIGNMENT (  '', '', ( #91 ) ) ;
#7 = CARTESIAN_POINT ( 'NONE',  ( 1.910449006669871395E-17, 0.0000000000000000000, 0.1559999999999999998 ) ) ;
#8 = ORIENTED_EDGE ( 'NONE', *, *, #63, .F. ) ;
#9 = CYLINDRICAL_SURFACE ( 'NONE', #59, 0.06250000000000000000 ) ;
#10 = ORIENTED_EDGE ( 'NONE', *, *, #174, .F. ) ;
#11 = EDGE_CURVE ( 'NONE', #103, #87, #291, .T. ) ;
#12 = ORIENTED_EDGE ( 'NONE', *, *, #260, .F. ) ;
#13 = EDGE_CURVE ( 'NONE', #87, #159, #269, .T. ) ;
#14 = VECTOR ( 'NONE', #263, 39.37007874015747433 ) ;
#15 = ORIENTED_EDGE ( 'NONE', *, *, #138, .T. ) ;
#16 = AXIS2_PLACEMENT_3D ( 'NONE', #204, #289, #163 ) ;
#17 = ORIENTED_EDGE ( 'NONE', *, *, #11, .T. ) ;
#18 =( NAMED_UNIT ( * ) PLANE_ANGLE_UNIT ( ) SI_UNIT ( $, .RADIAN. ) );
#19 = EDGE_LOOP ( 'NONE', ( #160, #29, #55, #8 ) ) ;
#20 = CARTESIAN_POINT ( 'NONE',  ( -0.03901094999999998869, 6.215752999795350985E-18, 0.1559999999999999998 ) ) ;
#21 = PRESENTATION_LAYER_ASSIGNMENT (  '', '', ( #41 ) ) ;
#22 = CARTESIAN_POINT ( 'NONE',  ( 0.0000000000000000000, 0.0000000000000000000, 1.500000000000000222 ) ) ;
#23 = DIRECTION ( 'NONE',  ( 0.0000000000000000000, 0.0000000000000000000, -1.000000000000000000 ) ) ;
#24 = EDGE_CURVE ( 'NONE', #112, #90, #178, .T. ) ;
#25 = DIRECTION ( 'NONE',  ( -1.000000000000000000, 0.0000000000000000000, 0.0000000000000000000 ) ) ;
#26 = AXIS2_PLACEMENT_3D ( 'NONE', #223, #173, #239 ) ;
#27 = ADVANCED_FACE ( 'NONE', ( #275 ), #187, .T. ) ;
#28 = CARTESIAN_POINT ( 'NONE',  ( -0.06250000000000000000, 0.0000000000000000000, 1.485000000000000764 ) ) ;
#29 = ORIENTED_EDGE ( 'NONE', *, *, #266, .T. ) ;
#30 = ADVANCED_FACE ( 'NONE', ( #43 ), #158, .T. ) ;
#31 = DIRECTION ( 'NONE',  ( 1.224646799147353454E-16, 0.0000000000000000000, 1.000000000000000000 ) ) ;
#32 = VECTOR ( 'NONE', #99, 39.37007874015748143 ) ;
#33 = CARTESIAN_POINT ( 'NONE',  ( -0.06249999999999996531, 0.0000000000000000000, 0.2892130222250905436 ) ) ;
#34 = VERTEX_POINT ( 'NONE', #277 ) ;
#35 = FACE_OUTER_BOUND ( 'NONE', #62, .T. ) ;
#36 = AXIS2_PLACEMENT_3D ( 'NONE', #7, #31, #283 ) ;
#37 = EDGE_LOOP ( 'NONE', ( #230, #228, #221, #293 ) ) ;
#38 = VERTEX_POINT ( 'NONE', #165 ) ;
#39 = PRODUCT ( 'Micro_SEM-078-03X', 'Micro_SEM-078-03X', '', ( #115 ) ) ;
#40 = APPLICATION_PROTOCOL_DEFINITION ( 'draft international standard', 'automotive_design', 1998, #286 ) ;
#41 = STYLED_ITEM ( 'NONE', ( #96 ), #72 ) ;
#42 = ORIENTED_EDGE ( 'NONE', *, *, #13, .T. ) ;
#43 = FACE_OUTER_BOUND ( 'NONE', #66, .T. ) ;
#44 = LINE ( 'NONE', #200, #176 ) ;
#45 = DIMENSIONAL_EXPONENTS ( 1.000000000000000000, 0.0000000000000000000, 0.0000000000000000000, 0.0000000000000000000, 0.0000000000000000000, 0.0000000000000000000, 0.0000000000000000000 ) ;
#46 = FACE_OUTER_BOUND ( 'NONE', #226, .T. ) ;
#47 = CIRCLE ( 'NONE', #26, 0.06250000000000000000 ) ;
#48 = CARTESIAN_POINT ( 'NONE',  ( 0.06250000000000000000, 7.654042494670956004E-18, 1.485000000000000764 ) ) ;
#49 = EDGE_CURVE ( 'NONE', #38, #34, #44, .T. ) ;
#50 = CARTESIAN_POINT ( 'NONE',  ( 0.0000000000000000000, 0.0000000000000000000, 0.0000000000000000000 ) ) ;
#51 = ORIENTED_EDGE ( 'NONE', *, *, #92, .F. ) ;
#52 = DIRECTION ( 'NONE',  ( 0.0000000000000000000, 0.0000000000000000000, 1.000000000000000000 ) ) ;
#53 = AXIS2_PLACEMENT_3D ( 'NONE', #161, #136, #114 ) ;
#54 = CIRCLE ( 'NONE', #146, 0.04750000000000064587 ) ;
#55 = ORIENTED_EDGE ( 'NONE', *, *, #2, .F. ) ;
#56 = DIRECTION ( 'NONE',  ( 1.000000000000000000, 0.0000000000000000000, 0.0000000000000000000 ) ) ;
#57 = CARTESIAN_POINT ( 'NONE',  ( -0.03901094999999998869, 4.777463504919744426E-18, 0.1559999999999999998 ) ) ;
#58 = CARTESIAN_POINT ( 'NONE',  ( -0.04750000000000064587, 0.0000000000000000000, 1.500000000000000222 ) ) ;
#59 = AXIS2_PLACEMENT_3D ( 'NONE', #261, #104, #153 ) ;
#60 = LINE ( 'NONE', #171, #68 ) ;
#61 = DIRECTION ( 'NONE',  ( -1.224646799147353454E-16, -0.0000000000000000000, -1.000000000000000000 ) ) ;
#62 = EDGE_LOOP ( 'NONE', ( #274, #42, #85, #175 ) ) ;
#63 = EDGE_CURVE ( 'NONE', #159, #196, #290, .T. ) ;
#64 =( GEOMETRIC_REPRESENTATION_CONTEXT ( 3 ) GLOBAL_UNCERTAINTY_ASSIGNED_CONTEXT ( ( #262 ) ) GLOBAL_UNIT_ASSIGNED_CONTEXT ( ( #213, #77, #255 ) ) REPRESENTATION_CONTEXT ( 'NONE', 'WORKASPACE' ) );
#65 = ORIENTED_EDGE ( 'NONE', *, *, #249, .F. ) ;
#66 = EDGE_LOOP ( 'NONE', ( #264, #203, #133, #201 ) ) ;
#67 = ORIENTED_EDGE ( 'NONE', *, *, #168, .F. ) ;
#68 = VECTOR ( 'NONE', #198, 39.37007874015748143 ) ;
#69 = CARTESIAN_POINT ( 'NONE',  ( 1.910449006669871395E-17, 0.0000000000000000000, 0.1559999999999999998 ) ) ;
#70 = DIRECTION ( 'NONE',  ( 0.7071067811865456854, 8.659560562354911904E-17, -0.7071067811865493491 ) ) ;
#71 = SURFACE_STYLE_FILL_AREA ( #118 ) ;
#72 = MANIFOLD_SOLID_BREP ( 'Cut-Revolve1', #271 ) ;
#73 = CARTESIAN_POINT ( 'NONE',  ( 0.03901095000000000257, 4.777463504919744426E-18, 0.0000000000000000000 ) ) ;
#74 = VECTOR ( 'NONE', #139, 39.37007874015748143 ) ;
#75 = FACE_OUTER_BOUND ( 'NONE', #19, .T. ) ;
#76 = DIRECTION ( 'NONE',  ( -1.000000000000000000, 0.0000000000000000000, 1.224646799147353700E-16 ) ) ;
#77 =( NAMED_UNIT ( * ) PLANE_ANGLE_UNIT ( ) SI_UNIT ( $, .RADIAN. ) );
#78 = CONICAL_SURFACE ( 'NONE', #246, 0.04750000000000064587, 0.7853981633974457255 ) ;
#79 = DIRECTION ( 'NONE',  ( 0.0000000000000000000, 0.0000000000000000000, -1.000000000000000000 ) ) ;
#80 = LINE ( 'NONE', #57, #14 ) ;
#81 = UNCERTAINTY_MEASURE_WITH_UNIT (LENGTH_MEASURE( 1.000000000000000082E-05 ), #285, 'distance_accuracy_value', 'NONE');
#82 =( NAMED_UNIT ( * ) SI_UNIT ( $, .STERADIAN. ) SOLID_ANGLE_UNIT ( ) );
#83 = VERTEX_POINT ( 'NONE', #73 ) ;
#84 = ADVANCED_FACE ( 'NONE', ( #46 ), #3, .F. ) ;
#85 = ORIENTED_EDGE ( 'NONE', *, *, #63, .T. ) ;
#86 = DIRECTION ( 'NONE',  ( 0.0000000000000000000, 0.0000000000000000000, -1.000000000000000000 ) ) ;
#87 = VERTEX_POINT ( 'NONE', #48 ) ;
#88 = EDGE_LOOP ( 'NONE', ( #181, #295, #132, #51 ) ) ;
#89 = SURFACE_STYLE_FILL_AREA ( #292 ) ;
#90 = VERTEX_POINT ( 'NONE', #141 ) ;
#91 = STYLED_ITEM ( 'NONE', ( #245 ), #143 ) ;
#92 = EDGE_CURVE ( 'NONE', #83, #90, #121, .T. ) ;
#93 = CIRCLE ( 'NONE', #53, 0.06250000000000000000 ) ;
#94 =( LENGTH_UNIT ( ) NAMED_UNIT ( * ) SI_UNIT ( $, .METRE. ) );
#95 = DIRECTION ( 'NONE',  ( -1.000000000000000000, 0.0000000000000000000, 1.224646799147353700E-16 ) ) ;
#96 = PRESENTATION_STYLE_ASSIGNMENT (( #188 ) ) ;
#97 = ORIENTED_EDGE ( 'NONE', *, *, #191, .T. ) ;
#98 = CARTESIAN_POINT ( 'NONE',  ( 0.04750000000000064587, 6.735557395310482421E-18, 1.500000000000000222 ) ) ;
#99 = DIRECTION ( 'NONE',  ( -0.7071067811865456854, 0.0000000000000000000, -0.7071067811865493491 ) ) ;
#100 = AXIS2_PLACEMENT_3D ( 'NONE', #186, #185, #190 ) ;
#101 = AXIS2_PLACEMENT_3D ( 'NONE', #69, #164, #252 ) ;
#102 = DIRECTION ( 'NONE',  ( -1.000000000000000000, 0.0000000000000000000, 0.0000000000000000000 ) ) ;
#103 = VERTEX_POINT ( 'NONE', #98 ) ;
#104 = DIRECTION ( 'NONE',  ( -0.0000000000000000000, -0.0000000000000000000, -1.000000000000000000 ) ) ;
#105 = EDGE_CURVE ( 'NONE', #38, #83, #238, .T. ) ;
#106 =( LENGTH_UNIT ( ) NAMED_UNIT ( * ) SI_UNIT ( $, .METRE. ) );
#107 = EDGE_LOOP ( 'NONE', ( #12, #10, #214, #97 ) ) ;
#108 = APPLICATION_CONTEXT ( 'automotive_design' ) ;
#109 = EDGE_LOOP ( 'NONE', ( #225, #184 ) ) ;
#110 = AXIS2_PLACEMENT_3D ( 'NONE', #297, #256, #76 ) ;
#111 = MECHANICAL_DESIGN_GEOMETRIC_PRESENTATION_REPRESENTATION (  '', ( #91 ), #1 ) ;
#112 = VERTEX_POINT ( 'NONE', #20 ) ;
#113 = PRODUCT_DEFINITION ( 'UNKNOWN', '', #152, #243 ) ;
#114 = DIRECTION ( 'NONE',  ( 1.000000000000000000, 0.0000000000000000000, 0.0000000000000000000 ) ) ;
#115 = PRODUCT_CONTEXT ( 'NONE', #108, 'mechanical' ) ;
#116 = EDGE_LOOP ( 'NONE', ( #247, #17, #65, #67 ) ) ;
#117 = CIRCLE ( 'NONE', #110, 0.03901095000000000257 ) ;
#118 = FILL_AREA_STYLE ('',( #170 ) ) ;
#119 = ADVANCED_FACE ( 'NONE', ( #233 ), #78, .T. ) ;
#120 = DIRECTION ( 'NONE',  ( -1.000000000000000000, 0.0000000000000000000, 0.0000000000000000000 ) ) ;
#121 = CIRCLE ( 'NONE', #254, 0.03901095000000000257 ) ;
#122 = LINE ( 'NONE', #259, #32 ) ;
#123 = ORIENTED_EDGE ( 'NONE', *, *, #217, .T. ) ;
#124 =( NAMED_UNIT ( * ) PLANE_ANGLE_UNIT ( ) SI_UNIT ( $, .RADIAN. ) );
#125 = AXIS2_PLACEMENT_3D ( 'NONE', #195, #220, #102 ) ;
#126 = DIRECTION ( 'NONE',  ( 0.0000000000000000000, 0.0000000000000000000, 1.000000000000000000 ) ) ;
#127 = UNCERTAINTY_MEASURE_WITH_UNIT (LENGTH_MEASURE( 1.000000000000000082E-05 ), #227, 'distance_accuracy_value', 'NONE');
#128 = DIMENSIONAL_EXPONENTS ( 1.000000000000000000, 0.0000000000000000000, 0.0000000000000000000, 0.0000000000000000000, 0.0000000000000000000, 0.0000000000000000000, 0.0000000000000000000 ) ;
#129 = DIRECTION ( 'NONE',  ( -1.000000000000000000, 0.0000000000000000000, 0.0000000000000000000 ) ) ;
#130 = VECTOR ( 'NONE', #70, 39.37007874015748143 ) ;
#131 =( NAMED_UNIT ( * ) SI_UNIT ( $, .STERADIAN. ) SOLID_ANGLE_UNIT ( ) );
#132 = ORIENTED_EDGE ( 'NONE', *, *, #24, .T. ) ;
#133 = ORIENTED_EDGE ( 'NONE', *, *, #168, .T. ) ;
#134 = ADVANCED_FACE ( 'NONE', ( #75 ), #167, .T. ) ;
#135 = AXIS2_PLACEMENT_3D ( 'NONE', #137, #231, #207 ) ;
#136 = DIRECTION ( 'NONE',  ( -1.224646799147353454E-16, -0.0000000000000000000, -1.000000000000000000 ) ) ;
#137 = CARTESIAN_POINT ( 'NONE',  ( 0.0000000000000000000, 0.0000000000000000000, 1.500000000000000222 ) ) ;
#138 = EDGE_CURVE ( 'NONE', #90, #83, #117, .T. ) ;
#139 = DIRECTION ( 'NONE',  ( -0.0000000000000000000, -0.0000000000000000000, -1.000000000000000000 ) ) ;
#140 = VECTOR ( 'NONE', #272, 39.37007874015748143 ) ;
#141 = CARTESIAN_POINT ( 'NONE',  ( -0.03901095000000000257, 0.0000000000000000000, 9.554927009839491933E-18 ) ) ;
#142 = DIRECTION ( 'NONE',  ( -1.000000000000000000, 0.0000000000000000000, 1.224646799147353700E-16 ) ) ;
#143 = ADVANCED_BREP_SHAPE_REPRESENTATION ( 'Micro_SEM-078-03X', ( #72, #16 ), #183 ) ;
#144 = FACE_OUTER_BOUND ( 'NONE', #109, .T. ) ;
#145 = DIRECTION ( 'NONE',  ( 1.000000000000000000, 0.0000000000000000000, -0.0000000000000000000 ) ) ;
#146 = AXIS2_PLACEMENT_3D ( 'NONE', #284, #242, #199 ) ;
#147 = ORIENTED_EDGE ( 'NONE', *, *, #92, .T. ) ;
#148 = CYLINDRICAL_SURFACE ( 'NONE', #216, 0.03901095000000000257 ) ;
#149 = FACE_OUTER_BOUND ( 'NONE', #37, .T. ) ;
#150 = CARTESIAN_POINT ( 'NONE',  ( 0.0000000000000000000, 0.0000000000000000000, 1.500000000000000222 ) ) ;
#151 = AXIS2_PLACEMENT_3D ( 'NONE', #172, #79, #4 ) ;
#152 = PRODUCT_DEFINITION_FORMATION_WITH_SPECIFIED_SOURCE ( 'ANY', '', #39, .NOT_KNOWN. ) ;
#153 = DIRECTION ( 'NONE',  ( -1.000000000000000000, 0.0000000000000000000, 0.0000000000000000000 ) ) ;
#154 = EDGE_LOOP ( 'NONE', ( #123, #265, #253, #182 ) ) ;
#155 = ADVANCED_FACE ( 'NONE', ( #211 ), #169, .T. ) ;
#156 = FILL_AREA_STYLE_COLOUR ( '', #270 ) ;
#157 = ADVANCED_FACE ( 'NONE', ( #144 ), #236, .T. ) ;
#158 = CONICAL_SURFACE ( 'NONE', #135, 0.04750000000000064587, 0.7853981633974457255 ) ;
#159 = VERTEX_POINT ( 'NONE', #28 ) ;
#160 = ORIENTED_EDGE ( 'NONE', *, *, #249, .T. ) ;
#161 = CARTESIAN_POINT ( 'NONE',  ( 3.541838019396895887E-17, 0.0000000000000000000, 0.2892130222250905436 ) ) ;
#162 = COLOUR_RGB ( '',0.7921568627450980005, 0.8196078431372548767, 0.9333333333333333481 ) ;
#163 = DIRECTION ( 'NONE',  ( 1.000000000000000000, 0.0000000000000000000, 0.0000000000000000000 ) ) ;
#164 = DIRECTION ( 'NONE',  ( 1.224646799147353454E-16, 0.0000000000000000000, 1.000000000000000000 ) ) ;
#165 = CARTESIAN_POINT ( 'NONE',  ( 0.03901095000000002339, 0.0000000000000000000, 0.1559999999999999998 ) ) ;
#166 = AXIS2_PLACEMENT_3D ( 'NONE', #22, #209, #25 ) ;
#167 = CYLINDRICAL_SURFACE ( 'NONE', #166, 0.06250000000000000000 ) ;
#168 = EDGE_CURVE ( 'NONE', #248, #159, #122, .T. ) ;
#169 = CYLINDRICAL_SURFACE ( 'NONE', #224, 0.03901095000000000257 ) ;
#170 = FILL_AREA_STYLE_COLOUR ( '', #162 ) ;
#171 = CARTESIAN_POINT ( 'NONE',  ( 0.06250000000000000000, 7.654042494670956004E-18, 1.500000000000000222 ) ) ;
#172 = CARTESIAN_POINT ( 'NONE',  ( 0.0000000000000000000, 0.0000000000000000000, 1.485000000000000764 ) ) ;
#173 = DIRECTION ( 'NONE',  ( -1.224646799147353454E-16, -0.0000000000000000000, -1.000000000000000000 ) ) ;
#174 = EDGE_CURVE ( 'NONE', #38, #112, #179, .T. ) ;
#175 = ORIENTED_EDGE ( 'NONE', *, *, #191, .F. ) ;
#176 = VECTOR ( 'NONE', #268, 39.37007874015748143 ) ;
#177 =( LENGTH_UNIT ( ) NAMED_UNIT ( * ) SI_UNIT ( $, .METRE. ) );
#178 = LINE ( 'NONE', #205, #140 ) ;
#179 = CIRCLE ( 'NONE', #193, 0.03901095000000000257 ) ;
#180 = DIRECTION ( 'NONE',  ( 1.000000000000000000, 0.0000000000000000000, 0.0000000000000000000 ) ) ;
#181 = ORIENTED_EDGE ( 'NONE', *, *, #105, .F. ) ;
#182 = ORIENTED_EDGE ( 'NONE', *, *, #24, .F. ) ;
#183 =( GEOMETRIC_REPRESENTATION_CONTEXT ( 3 ) GLOBAL_UNCERTAINTY_ASSIGNED_CONTEXT ( ( #81 ) ) GLOBAL_UNIT_ASSIGNED_CONTEXT ( ( #285, #124, #82 ) ) REPRESENTATION_CONTEXT ( 'NONE', 'WORKASPACE' ) );
#184 = ORIENTED_EDGE ( 'NONE', *, *, #298, .T. ) ;
#185 = DIRECTION ( 'NONE',  ( 0.0000000000000000000, 0.0000000000000000000, 1.000000000000000000 ) ) ;
#186 = CARTESIAN_POINT ( 'NONE',  ( 0.0000000000000000000, 0.0000000000000000000, 0.0000000000000000000 ) ) ;
#187 = CONICAL_SURFACE ( 'NONE', #101, 0.03901095000000000257, 0.1745329251994338915 ) ;
#188 = SURFACE_STYLE_USAGE ( .BOTH. , #232 ) ;
#189 = DIRECTION ( 'NONE',  ( -1.224646799147353454E-16, -0.0000000000000000000, -1.000000000000000000 ) ) ;
#190 = DIRECTION ( 'NONE',  ( 1.000000000000000000, 0.0000000000000000000, -0.0000000000000000000 ) ) ;
#191 = EDGE_CURVE ( 'NONE', #34, #196, #47, .T. ) ;
#192 = DIRECTION ( 'NONE',  ( -1.224646799147353454E-16, -0.0000000000000000000, -1.000000000000000000 ) ) ;
#193 = AXIS2_PLACEMENT_3D ( 'NONE', #218, #192, #129 ) ;
#194 = CARTESIAN_POINT ( 'NONE',  ( 0.0000000000000000000, 0.0000000000000000000, 0.0000000000000000000 ) ) ;
#195 = CARTESIAN_POINT ( 'NONE',  ( 1.910449006669871395E-17, 0.0000000000000000000, 0.1559999999999999998 ) ) ;
#196 = VERTEX_POINT ( 'NONE', #33 ) ;
#197 = PRODUCT_RELATED_PRODUCT_CATEGORY ( 'part', '', ( #39 ) ) ;
#198 = DIRECTION ( 'NONE',  ( -0.0000000000000000000, -0.0000000000000000000, -1.000000000000000000 ) ) ;
#199 = DIRECTION ( 'NONE',  ( 1.000000000000000000, 0.0000000000000000000, 0.0000000000000000000 ) ) ;
#200 = CARTESIAN_POINT ( 'NONE',  ( 0.03901095000000002339, 0.0000000000000000000, 0.1559999999999999998 ) ) ;
#201 = ORIENTED_EDGE ( 'NONE', *, *, #13, .F. ) ;
#202 = CONICAL_SURFACE ( 'NONE', #36, 0.03901095000000000257, 0.1745329251994338915 ) ;
#203 = ORIENTED_EDGE ( 'NONE', *, *, #276, .F. ) ;
#204 = CARTESIAN_POINT ( 'NONE',  ( 0.0000000000000000000, 0.0000000000000000000, 0.0000000000000000000 ) ) ;
#205 = CARTESIAN_POINT ( 'NONE',  ( -0.03901095000000000257, 0.0000000000000000000, 4.777463504919745966E-18 ) ) ;
#206 = SHAPE_DEFINITION_REPRESENTATION ( #250, #143 ) ;
#207 = DIRECTION ( 'NONE',  ( -1.000000000000000000, 0.0000000000000000000, 0.0000000000000000000 ) ) ;
#208 = AXIS2_PLACEMENT_3D ( 'NONE', #212, #52, #145 ) ;
#209 = DIRECTION ( 'NONE',  ( -0.0000000000000000000, -0.0000000000000000000, -1.000000000000000000 ) ) ;
#210 = ADVANCED_FACE ( 'NONE', ( #149 ), #202, .T. ) ;
#211 = FACE_OUTER_BOUND ( 'NONE', #88, .T. ) ;
#212 = CARTESIAN_POINT ( 'NONE',  ( 0.0000000000000000000, 0.0000000000000000000, 1.500000000000000222 ) ) ;
#213 =( CONVERSION_BASED_UNIT ( 'INCH', #258 ) LENGTH_UNIT ( ) NAMED_UNIT ( #45 ) );
#214 = ORIENTED_EDGE ( 'NONE', *, *, #49, .T. ) ;
#215 = DIRECTION ( 'NONE',  ( -1.000000000000000000, 0.0000000000000000000, 1.224646799147353700E-16 ) ) ;
#216 = AXIS2_PLACEMENT_3D ( 'NONE', #194, #61, #215 ) ;
#217 = EDGE_CURVE ( 'NONE', #112, #38, #287, .T. ) ;
#218 = CARTESIAN_POINT ( 'NONE',  ( 1.910449006669871395E-17, 0.0000000000000000000, 0.1559999999999999998 ) ) ;
#219 = ADVANCED_FACE ( 'NONE', ( #244 ), #148, .T. ) ;
#220 = DIRECTION ( 'NONE',  ( -1.224646799147353454E-16, -0.0000000000000000000, -1.000000000000000000 ) ) ;
#221 = ORIENTED_EDGE ( 'NONE', *, *, #2, .T. ) ;
#222 = DIMENSIONAL_EXPONENTS ( 1.000000000000000000, 0.0000000000000000000, 0.0000000000000000000, 0.0000000000000000000, 0.0000000000000000000, 0.0000000000000000000, 0.0000000000000000000 ) ;
#223 = CARTESIAN_POINT ( 'NONE',  ( 3.541838019396895887E-17, 0.0000000000000000000, 0.2892130222250905436 ) ) ;
#224 = AXIS2_PLACEMENT_3D ( 'NONE', #50, #299, #95 ) ;
#225 = ORIENTED_EDGE ( 'NONE', *, *, #276, .T. ) ;
#226 = EDGE_LOOP ( 'NONE', ( #15, #147 ) ) ;
#227 =( CONVERSION_BASED_UNIT ( 'INCH', #229 ) LENGTH_UNIT ( ) NAMED_UNIT ( #128 ) );
#228 = ORIENTED_EDGE ( 'NONE', *, *, #260, .T. ) ;
#229 = LENGTH_MEASURE_WITH_UNIT ( LENGTH_MEASURE( 0.02539999999999999897 ), #106 );
#230 = ORIENTED_EDGE ( 'NONE', *, *, #217, .F. ) ;
#231 = DIRECTION ( 'NONE',  ( 0.0000000000000000000, 0.0000000000000000000, -1.000000000000000000 ) ) ;
#232 = SURFACE_SIDE_STYLE ('',( #71 ) ) ;
#233 = FACE_OUTER_BOUND ( 'NONE', #116, .T. ) ;
#234 = ADVANCED_FACE ( 'NONE', ( #35 ), #9, .T. ) ;
#235 = CARTESIAN_POINT ( 'NONE',  ( 0.03901095000000000257, 4.777463504919744426E-18, -4.777463504919745966E-18 ) ) ;
#236 = PLANE ( 'NONE',  #208 ) ;
#237 = AXIS2_PLACEMENT_3D ( 'NONE', #150, #126, #56 ) ;
#238 = LINE ( 'NONE', #235, #5 ) ;
#239 = DIRECTION ( 'NONE',  ( 1.000000000000000000, 0.0000000000000000000, 0.0000000000000000000 ) ) ;
#240 = MECHANICAL_DESIGN_GEOMETRIC_PRESENTATION_REPRESENTATION (  '', ( #41 ), #64 ) ;
#241 = LENGTH_MEASURE_WITH_UNIT ( LENGTH_MEASURE( 0.02539999999999999897 ), #177 );
#242 = DIRECTION ( 'NONE',  ( 0.0000000000000000000, 0.0000000000000000000, 1.000000000000000000 ) ) ;
#243 = PRODUCT_DEFINITION_CONTEXT ( 'detailed design', #286, 'design' ) ;
#244 = FACE_OUTER_BOUND ( 'NONE', #154, .T. ) ;
#245 = PRESENTATION_STYLE_ASSIGNMENT (( #273 ) ) ;
#246 = AXIS2_PLACEMENT_3D ( 'NONE', #281, #23, #120 ) ;
#247 = ORIENTED_EDGE ( 'NONE', *, *, #298, .F. ) ;
#248 = VERTEX_POINT ( 'NONE', #58 ) ;
#249 = EDGE_CURVE ( 'NONE', #159, #87, #278, .T. ) ;
#250 = PRODUCT_DEFINITION_SHAPE ( 'NONE', 'NONE',  #113 ) ;
#251 = CARTESIAN_POINT ( 'NONE',  ( 0.0000000000000000000, 0.0000000000000000000, 1.485000000000000764 ) ) ;
#252 = DIRECTION ( 'NONE',  ( 1.000000000000000000, 0.0000000000000000000, 0.0000000000000000000 ) ) ;
#253 = ORIENTED_EDGE ( 'NONE', *, *, #138, .F. ) ;
#254 = AXIS2_PLACEMENT_3D ( 'NONE', #279, #189, #142 ) ;
#255 =( NAMED_UNIT ( * ) SI_UNIT ( $, .STERADIAN. ) SOLID_ANGLE_UNIT ( ) );
#256 = DIRECTION ( 'NONE',  ( -1.224646799147353454E-16, -0.0000000000000000000, -1.000000000000000000 ) ) ;
#257 = CIRCLE ( 'NONE', #237, 0.04750000000000064587 ) ;
#258 = LENGTH_MEASURE_WITH_UNIT ( LENGTH_MEASURE( 0.02539999999999999897 ), #94 );
#259 = CARTESIAN_POINT ( 'NONE',  ( -0.04750000000000064587, 0.0000000000000000000, 1.500000000000000222 ) ) ;
#260 = EDGE_CURVE ( 'NONE', #112, #196, #80, .T. ) ;
#261 = CARTESIAN_POINT ( 'NONE',  ( 0.0000000000000000000, 0.0000000000000000000, 1.500000000000000222 ) ) ;
#262 = UNCERTAINTY_MEASURE_WITH_UNIT (LENGTH_MEASURE( 1.000000000000000082E-05 ), #213, 'distance_accuracy_value', 'NONE');
#263 = DIRECTION ( 'NONE',  ( -0.1736481776669311916, 2.126576849575783316E-17, 0.9848077530122080203 ) ) ;
#264 = ORIENTED_EDGE ( 'NONE', *, *, #11, .F. ) ;
#265 = ORIENTED_EDGE ( 'NONE', *, *, #105, .T. ) ;
#266 = EDGE_CURVE ( 'NONE', #87, #34, #60, .T. ) ;
#267 = SURFACE_SIDE_STYLE ('',( #89 ) ) ;
#268 = DIRECTION ( 'NONE',  ( 0.1736481776669313859, 0.0000000000000000000, 0.9848077530122077983 ) ) ;
#269 = CIRCLE ( 'NONE', #282, 0.06250000000000000000 ) ;
#270 = COLOUR_RGB ( '',0.7921568627450980005, 0.8196078431372548767, 0.9333333333333333481 ) ;
#271 = CLOSED_SHELL ( 'NONE', ( #219, #210, #119, #134, #234, #157, #30, #27, #155, #84 ) ) ;
#272 = DIRECTION ( 'NONE',  ( -1.224646799147353454E-16, -0.0000000000000000000, -1.000000000000000000 ) ) ;
#273 = SURFACE_STYLE_USAGE ( .BOTH. , #267 ) ;
#274 = ORIENTED_EDGE ( 'NONE', *, *, #266, .F. ) ;
#275 = FACE_OUTER_BOUND ( 'NONE', #107, .T. ) ;
#276 = EDGE_CURVE ( 'NONE', #248, #103, #54, .T. ) ;
#277 = CARTESIAN_POINT ( 'NONE',  ( 0.06250000000000002776, 7.654042494670959086E-18, 0.2892130222250905436 ) ) ;
#278 = CIRCLE ( 'NONE', #151, 0.06250000000000000000 ) ;
#279 = CARTESIAN_POINT ( 'NONE',  ( 5.850705389343263536E-34, 0.0000000000000000000, 4.777463504919745966E-18 ) ) ;
#280 = DIRECTION ( 'NONE',  ( -1.224646799147353454E-16, -0.0000000000000000000, -1.000000000000000000 ) ) ;
#281 = CARTESIAN_POINT ( 'NONE',  ( 0.0000000000000000000, 0.0000000000000000000, 1.500000000000000222 ) ) ;
#282 = AXIS2_PLACEMENT_3D ( 'NONE', #251, #86, #180 ) ;
#283 = DIRECTION ( 'NONE',  ( 1.000000000000000000, 0.0000000000000000000, 0.0000000000000000000 ) ) ;
#284 = CARTESIAN_POINT ( 'NONE',  ( 0.0000000000000000000, 0.0000000000000000000, 1.500000000000000222 ) ) ;
#285 =( CONVERSION_BASED_UNIT ( 'INCH', #241 ) LENGTH_UNIT ( ) NAMED_UNIT ( #222 ) );
#286 = APPLICATION_CONTEXT ( 'automotive_design' ) ;
#287 = CIRCLE ( 'NONE', #125, 0.03901095000000000257 ) ;
#288 = APPLICATION_PROTOCOL_DEFINITION ( 'draft international standard', 'automotive_design', 1998, #108 ) ;
#289 = DIRECTION ( 'NONE',  ( 0.0000000000000000000, 0.0000000000000000000, 1.000000000000000000 ) ) ;
#290 = LINE ( 'NONE', #296, #74 ) ;
#291 = LINE ( 'NONE', #294, #130 ) ;
#292 = FILL_AREA_STYLE ('',( #156 ) ) ;
#293 = ORIENTED_EDGE ( 'NONE', *, *, #49, .F. ) ;
#294 = CARTESIAN_POINT ( 'NONE',  ( 0.04750000000000064587, 5.817072295950006528E-18, 1.500000000000000222 ) ) ;
#295 = ORIENTED_EDGE ( 'NONE', *, *, #174, .T. ) ;
#296 = CARTESIAN_POINT ( 'NONE',  ( -0.06250000000000000000, 0.0000000000000000000, 1.500000000000000222 ) ) ;
#297 = CARTESIAN_POINT ( 'NONE',  ( 5.850705389343263536E-34, 0.0000000000000000000, 4.777463504919745966E-18 ) ) ;
#298 = EDGE_CURVE ( 'NONE', #103, #248, #257, .T. ) ;
#299 = DIRECTION ( 'NONE',  ( -1.224646799147353454E-16, -0.0000000000000000000, -1.000000000000000000 ) ) ;
ENDSEC;
END-ISO-10303-21;
