ISO-10303-21;
HEADER;
FILE_DESCRIPTION (( 'STEP AP214' ),
    '1' );
FILE_NAME ('07017.STEP',
    '2023-07-12T13:05:03',
    ( '' ),
    ( '' ),
    'SwSTEP 2.0',
    'SolidWorks 2023',
    '' );
FILE_SCHEMA (( 'AUTOMOTIVE_DESIGN' ));
ENDSEC;

DATA;
#1 = CARTESIAN_POINT ( 'NONE',  ( 0.2500000000000000000, 3.000000000000000444, 3.061616997868382402E-17 ) ) ;
#2 = CARTESIAN_POINT ( 'NONE',  ( 5.720915884980502567E-36, 4.783687232660806757E-19, 0.000000000000000000 ) ) ;
#3 = CLOSED_SHELL ( 'NONE', ( #63, #129, #24, #35 ) ) ;
#4 = DIRECTION ( 'NONE',  ( 0.000000000000000000, 0.000000000000000000, 1.000000000000000000 ) ) ;
#5 = ORIENTED_EDGE ( 'NONE', *, *, #216, .F. ) ;
#6 = MANIFOLD_SOLID_BREP ( 'Revolve - Cutting Edge', #3 ) ;
#7 = DIRECTION ( 'NONE',  ( -0.8660254037844397068, 0.4999999999999979461, 0.000000000000000000 ) ) ;
#8 = ORIENTED_EDGE ( 'NONE', *, *, #216, .T. ) ;
#9 = SURFACE_STYLE_USAGE ( .BOTH. , #202 ) ;
#10 = CARTESIAN_POINT ( 'NONE',  ( -6.123233995736772199E-17, 3.000000000000000444, 0.000000000000000000 ) ) ;
#11 = CARTESIAN_POINT ( 'NONE',  ( 0.000000000000000000, 0.000000000000000000, 0.000000000000000000 ) ) ;
#12 = LENGTH_MEASURE_WITH_UNIT ( LENGTH_MEASURE( 0.02539999999999999897 ), #89 );
#13 = FILL_AREA_STYLE_COLOUR ( '', #285 ) ;
#14 = STYLED_ITEM ( 'NONE', ( #286 ), #129 ) ;
#15 =( GEOMETRIC_REPRESENTATION_CONTEXT ( 3 ) GLOBAL_UNCERTAINTY_ASSIGNED_CONTEXT ( ( #192 ) ) GLOBAL_UNIT_ASSIGNED_CONTEXT ( ( #20, #102, #282 ) ) REPRESENTATION_CONTEXT ( 'NONE', 'WORKASPACE' ) );
#16 = CARTESIAN_POINT ( 'NONE',  ( 5.720915884980502567E-36, 4.783687232660806757E-19, 0.000000000000000000 ) ) ;
#17 =( NAMED_UNIT ( * ) SI_UNIT ( $, .STERADIAN. ) SOLID_ANGLE_UNIT ( ) );
#18 =( LENGTH_UNIT ( ) NAMED_UNIT ( * ) SI_UNIT ( $, .METRE. ) );
#19 = CARTESIAN_POINT ( 'NONE',  ( 2.860457942490251284E-36, 2.391843616330403378E-19, 0.000000000000000000 ) ) ;
#20 =( CONVERSION_BASED_UNIT ( 'INCH', #307 ) LENGTH_UNIT ( ) NAMED_UNIT ( #268 ) );
#21 = DIRECTION ( 'NONE',  ( -1.220982727043392245E-16, 1.000000000000000000, -0.000000000000000000 ) ) ;
#22 = DIRECTION ( 'NONE',  ( -1.000000000000000000, -1.220982727043392245E-16, 0.000000000000000000 ) ) ;
#23 =( GEOMETRIC_REPRESENTATION_CONTEXT ( 3 ) GLOBAL_UNCERTAINTY_ASSIGNED_CONTEXT ( ( #158 ) ) GLOBAL_UNIT_ASSIGNED_CONTEXT ( ( #248, #249, #17 ) ) REPRESENTATION_CONTEXT ( 'NONE', 'WORKASPACE' ) );
#24 = ADVANCED_FACE ( 'NONE', ( #116 ), #113, .T. ) ;
#25 = DIRECTION ( 'NONE',  ( -1.220982727043392245E-16, 1.000000000000000000, -0.000000000000000000 ) ) ;
#26 = DIRECTION ( 'NONE',  ( 1.000000000000000000, -1.195921808165201631E-17, 0.000000000000000000 ) ) ;
#27 = VERTEX_POINT ( 'NONE', #195 ) ;
#28 = CIRCLE ( 'NONE', #79, 0.2500000000000000000 ) ;
#29 = COLOUR_RGB ( '',0.7921568627450980005, 0.8196078431372548767, 0.9333333333333333481 ) ;
#30 = FACE_OUTER_BOUND ( 'NONE', #295, .T. ) ;
#31 = DIRECTION ( 'NONE',  ( -1.195921808165201785E-17, -1.000000000000000000, -0.000000000000000000 ) ) ;
#32 = PRODUCT ( '07017', '07017', '', ( #219 ) ) ;
#33 = FILL_AREA_STYLE ('',( #133 ) ) ;
#34 = AXIS2_PLACEMENT_3D ( 'NONE', #73, #264, #147 ) ;
#35 = ADVANCED_FACE ( 'NONE', ( #170 ), #258, .T. ) ;
#36 = ORIENTED_EDGE ( 'NONE', *, *, #154, .F. ) ;
#37 = UNCERTAINTY_MEASURE_WITH_UNIT (LENGTH_MEASURE( 1.000000000000000082E-05 ), #88, 'distance_accuracy_value', 'NONE');
#38 = ORIENTED_EDGE ( 'NONE', *, *, #118, .T. ) ;
#39 = AXIS2_PLACEMENT_3D ( 'NONE', #168, #74, #194 ) ;
#40 = LENGTH_MEASURE_WITH_UNIT ( LENGTH_MEASURE( 0.02539999999999999897 ), #18 );
#41 = PRODUCT_RELATED_PRODUCT_CATEGORY ( 'part', '', ( #32 ) ) ;
#42 = FILL_AREA_STYLE_COLOUR ( '', #65 ) ;
#43 = CARTESIAN_POINT ( 'NONE',  ( 2.902588493268279793E-16, 0.1212435565298207452, 0.000000000000000000 ) ) ;
#44 = SURFACE_STYLE_FILL_AREA ( #279 ) ;
#45 = DIRECTION ( 'NONE',  ( -1.220982727043392245E-16, 1.000000000000000000, 0.000000000000000000 ) ) ;
#46 =( NAMED_UNIT ( * ) PLANE_ANGLE_UNIT ( ) SI_UNIT ( $, .RADIAN. ) );
#47 = PLANE ( 'NONE',  #127 ) ;
#48 = CONICAL_SURFACE ( 'NONE', #34, 0.04000000000000000083, 1.047197551196600074 ) ;
#49 =( NAMED_UNIT ( * ) PLANE_ANGLE_UNIT ( ) SI_UNIT ( $, .RADIAN. ) );
#50 = AXIS2_PLACEMENT_3D ( 'NONE', #266, #240, #26 ) ;
#51 = EDGE_CURVE ( 'NONE', #273, #92, #217, .T. ) ;
#52 =( NAMED_UNIT ( * ) SI_UNIT ( $, .STERADIAN. ) SOLID_ANGLE_UNIT ( ) );
#53 = ORIENTED_EDGE ( 'NONE', *, *, #246, .F. ) ;
#54 = EDGE_CURVE ( 'NONE', #273, #296, #302, .T. ) ;
#55 = CYLINDRICAL_SURFACE ( 'NONE', #123, 0.2499999999999998890 ) ;
#56 = CIRCLE ( 'NONE', #297, 0.2500000000000000000 ) ;
#57 =( CONVERSION_BASED_UNIT ( 'INCH', #111 ) LENGTH_UNIT ( ) NAMED_UNIT ( #179 ) );
#58 = ORIENTED_EDGE ( 'NONE', *, *, #54, .F. ) ;
#59 = PRESENTATION_LAYER_ASSIGNMENT (  '', '', ( #251 ) ) ;
#60 = AXIS2_PLACEMENT_3D ( 'NONE', #84, #178, #128 ) ;
#61 = LENGTH_MEASURE_WITH_UNIT ( LENGTH_MEASURE( 0.02539999999999999897 ), #186 );
#62 = ORIENTED_EDGE ( 'NONE', *, *, #246, .T. ) ;
#63 = ADVANCED_FACE ( 'NONE', ( #304 ), #48, .T. ) ;
#64 = EDGE_LOOP ( 'NONE', ( #137, #276, #8, #270 ) ) ;
#65 = COLOUR_RGB ( '',1.000000000000000000, 0.000000000000000000, 0.000000000000000000 ) ;
#66 = STYLED_ITEM ( 'NONE', ( #247 ), #215 ) ;
#67 = PRODUCT_DEFINITION_CONTEXT ( 'detailed design', #157, 'design' ) ;
#68 = EDGE_LOOP ( 'NONE', ( #53, #58 ) ) ;
#69 =( CONVERSION_BASED_UNIT ( 'INCH', #236 ) LENGTH_UNIT ( ) NAMED_UNIT ( #112 ) );
#70 = DIRECTION ( 'NONE',  ( 1.000000000000000000, 1.220982727043392245E-16, 0.000000000000000000 ) ) ;
#71 = COLOUR_RGB ( '',1.000000000000000000, 0.000000000000000000, 0.000000000000000000 ) ;
#72 = ADVANCED_BREP_SHAPE_REPRESENTATION ( '07017', ( #6, #215, #262 ), #196 ) ;
#73 = CARTESIAN_POINT ( 'NONE',  ( 5.720915884980502567E-36, 4.783687232660806757E-19, 0.000000000000000000 ) ) ;
#74 = DIRECTION ( 'NONE',  ( -1.220982727043392245E-16, 1.000000000000000000, -0.000000000000000000 ) ) ;
#75 = EDGE_LOOP ( 'NONE', ( #161, #82, #38, #287 ) ) ;
#76 = UNCERTAINTY_MEASURE_WITH_UNIT (LENGTH_MEASURE( 1.000000000000000082E-05 ), #257, 'distance_accuracy_value', 'NONE');
#77 =( LENGTH_UNIT ( ) NAMED_UNIT ( * ) SI_UNIT ( $, .METRE. ) );
#78 = CARTESIAN_POINT ( 'NONE',  ( -0.2499999999999994449, 0.1212435565298207590, 0.000000000000000000 ) ) ;
#79 = AXIS2_PLACEMENT_3D ( 'NONE', #151, #31, #243 ) ;
#80 = DIRECTION ( 'NONE',  ( 0.8660254037844397068, 0.4999999999999979461, 1.060575238724908024E-16 ) ) ;
#81 = APPLICATION_PROTOCOL_DEFINITION ( 'draft international standard', 'automotive_design', 1998, #157 ) ;
#82 = ORIENTED_EDGE ( 'NONE', *, *, #154, .T. ) ;
#83 = DIRECTION ( 'NONE',  ( 1.000000000000000000, -1.195921808165201631E-17, 0.000000000000000000 ) ) ;
#84 = CARTESIAN_POINT ( 'NONE',  ( -6.123233995736772199E-17, 3.000000000000000444, 0.000000000000000000 ) ) ;
#85 = DIMENSIONAL_EXPONENTS ( 1.000000000000000000, 0.000000000000000000, 0.000000000000000000, 0.000000000000000000, 0.000000000000000000, 0.000000000000000000, 0.000000000000000000 ) ;
#86 = DIRECTION ( 'NONE',  ( -1.220982727043392245E-16, 1.000000000000000000, -0.000000000000000000 ) ) ;
#87 = ORIENTED_EDGE ( 'NONE', *, *, #118, .F. ) ;
#88 =( CONVERSION_BASED_UNIT ( 'INCH', #12 ) LENGTH_UNIT ( ) NAMED_UNIT ( #293 ) );
#89 =( LENGTH_UNIT ( ) NAMED_UNIT ( * ) SI_UNIT ( $, .METRE. ) );
#90 = EDGE_CURVE ( 'NONE', #27, #205, #56, .T. ) ;
#91 = SURFACE_STYLE_FILL_AREA ( #156 ) ;
#92 = VERTEX_POINT ( 'NONE', #1 ) ;
#93 =( GEOMETRIC_REPRESENTATION_CONTEXT ( 3 ) GLOBAL_UNCERTAINTY_ASSIGNED_CONTEXT ( ( #37 ) ) GLOBAL_UNIT_ASSIGNED_CONTEXT ( ( #88, #49, #255 ) ) REPRESENTATION_CONTEXT ( 'NONE', 'WORKASPACE' ) );
#94 = SURFACE_STYLE_USAGE ( .BOTH. , #167 ) ;
#95 = CARTESIAN_POINT ( 'NONE',  ( -0.2499999999999999722, 3.000000000000000444, 0.000000000000000000 ) ) ;
#96 = APPLICATION_CONTEXT ( 'automotive_design' ) ;
#97 = LENGTH_MEASURE_WITH_UNIT ( LENGTH_MEASURE( 0.02539999999999999897 ), #77 );
#98 = CYLINDRICAL_SURFACE ( 'NONE', #39, 0.2499999999999998890 ) ;
#99 = DIRECTION ( 'NONE',  ( -1.195921808165201940E-17, -1.000000000000000000, 0.000000000000000000 ) ) ;
#100 = FACE_OUTER_BOUND ( 'NONE', #68, .T. ) ;
#101 = SURFACE_STYLE_USAGE ( .BOTH. , #187 ) ;
#102 =( NAMED_UNIT ( * ) PLANE_ANGLE_UNIT ( ) SI_UNIT ( $, .RADIAN. ) );
#103 = PRODUCT_DEFINITION ( 'UNKNOWN', '', #220, #67 ) ;
#104 = APPLICATION_PROTOCOL_DEFINITION ( 'draft international standard', 'automotive_design', 1998, #96 ) ;
#105 = ADVANCED_FACE ( 'NONE', ( #146 ), #55, .T. ) ;
#106 = DIRECTION ( 'NONE',  ( -1.000000000000000000, 0.000000000000000000, 0.000000000000000000 ) ) ;
#107 = MECHANICAL_DESIGN_GEOMETRIC_PRESENTATION_REPRESENTATION (  '', ( #183 ), #126 ) ;
#108 = PLANE ( 'NONE',  #177 ) ;
#109 = ORIENTED_EDGE ( 'NONE', *, *, #51, .T. ) ;
#110 = CARTESIAN_POINT ( 'NONE',  ( -0.2500000000000001110, 3.000000000000000444, 0.000000000000000000 ) ) ;
#111 = LENGTH_MEASURE_WITH_UNIT ( LENGTH_MEASURE( 0.02539999999999999897 ), #149 );
#112 = DIMENSIONAL_EXPONENTS ( 1.000000000000000000, 0.000000000000000000, 0.000000000000000000, 0.000000000000000000, 0.000000000000000000, 0.000000000000000000, 0.000000000000000000 ) ;
#113 = CONICAL_SURFACE ( 'NONE', #291, 0.04000000000000000083, 1.047197551196600074 ) ;
#114 = CIRCLE ( 'NONE', #144, 0.2499999999999997224 ) ;
#115 = PRODUCT_DEFINITION_SHAPE ( 'NONE', 'NONE',  #103 ) ;
#116 = FACE_OUTER_BOUND ( 'NONE', #254, .T. ) ;
#117 = UNCERTAINTY_MEASURE_WITH_UNIT (LENGTH_MEASURE( 1.000000000000000082E-05 ), #214, 'distance_accuracy_value', 'NONE');
#118 = EDGE_CURVE ( 'NONE', #205, #27, #28, .T. ) ;
#119 = PRESENTATION_STYLE_ASSIGNMENT (( #184 ) ) ;
#120 = CIRCLE ( 'NONE', #211, 0.2500000000000000555 ) ;
#121 = PRESENTATION_STYLE_ASSIGNMENT (( #228 ) ) ;
#122 = DIRECTION ( 'NONE',  ( -1.220982727043392245E-16, 1.000000000000000000, -0.000000000000000000 ) ) ;
#123 = AXIS2_PLACEMENT_3D ( 'NONE', #10, #25, #106 ) ;
#124 = FILL_AREA_STYLE ('',( #125 ) ) ;
#125 = FILL_AREA_STYLE_COLOUR ( '', #274 ) ;
#126 =( GEOMETRIC_REPRESENTATION_CONTEXT ( 3 ) GLOBAL_UNCERTAINTY_ASSIGNED_CONTEXT ( ( #229 ) ) GLOBAL_UNIT_ASSIGNED_CONTEXT ( ( #69, #46, #306 ) ) REPRESENTATION_CONTEXT ( 'NONE', 'WORKASPACE' ) );
#127 = AXIS2_PLACEMENT_3D ( 'NONE', #142, #278, #70 ) ;
#128 = DIRECTION ( 'NONE',  ( -1.000000000000000000, 0.000000000000000000, 0.000000000000000000 ) ) ;
#129 = ADVANCED_FACE ( 'NONE', ( #30 ), #108, .T. ) ;
#130 = LINE ( 'NONE', #224, #298 ) ;
#131 =( GEOMETRIC_REPRESENTATION_CONTEXT ( 3 ) GLOBAL_UNCERTAINTY_ASSIGNED_CONTEXT ( ( #117 ) ) GLOBAL_UNIT_ASSIGNED_CONTEXT ( ( #214, #188, #245 ) ) REPRESENTATION_CONTEXT ( 'NONE', 'WORKASPACE' ) );
#132 = FILL_AREA_STYLE_COLOUR ( '', #71 ) ;
#133 = FILL_AREA_STYLE_COLOUR ( '', #29 ) ;
#134 = STYLED_ITEM ( 'NONE', ( #121 ), #24 ) ;
#135 = SURFACE_SIDE_STYLE ('',( #159 ) ) ;
#136 = ORIENTED_EDGE ( 'NONE', *, *, #90, .T. ) ;
#137 = ORIENTED_EDGE ( 'NONE', *, *, #51, .F. ) ;
#138 = MECHANICAL_DESIGN_GEOMETRIC_PRESENTATION_REPRESENTATION (  '', ( #251 ), #23 ) ;
#139 = EDGE_LOOP ( 'NONE', ( #62, #109, #253, #5 ) ) ;
#140 = DIRECTION ( 'NONE',  ( 1.195921808165201785E-17, 1.000000000000000000, 0.000000000000000000 ) ) ;
#141 =( NAMED_UNIT ( * ) PLANE_ANGLE_UNIT ( ) SI_UNIT ( $, .RADIAN. ) );
#142 = CARTESIAN_POINT ( 'NONE',  ( 0.2500000000000000000, 3.000000000000000444, 0.000000000000000000 ) ) ;
#143 = STYLED_ITEM ( 'NONE', ( #193 ), #63 ) ;
#144 = AXIS2_PLACEMENT_3D ( 'NONE', #284, #261, #234 ) ;
#145 = DIRECTION ( 'NONE',  ( -1.000000000000000000, 1.195921808165201631E-17, 0.000000000000000000 ) ) ;
#146 = FACE_OUTER_BOUND ( 'NONE', #139, .T. ) ;
#147 = DIRECTION ( 'NONE',  ( -1.000000000000000000, 1.195921808165201631E-17, 0.000000000000000000 ) ) ;
#148 = AXIS2_PLACEMENT_3D ( 'NONE', #232, #21, #209 ) ;
#149 =( LENGTH_UNIT ( ) NAMED_UNIT ( * ) SI_UNIT ( $, .METRE. ) );
#150 = EDGE_LOOP ( 'NONE', ( #244, #185 ) ) ;
#151 = CARTESIAN_POINT ( 'NONE',  ( 1.449978133535231439E-18, 0.1212435565298207868, 0.000000000000000000 ) ) ;
#152 = DIMENSIONAL_EXPONENTS ( 1.000000000000000000, 0.000000000000000000, 0.000000000000000000, 0.000000000000000000, 0.000000000000000000, 0.000000000000000000, 0.000000000000000000 ) ;
#153 = SURFACE_STYLE_USAGE ( .BOTH. , #269 ) ;
#154 = EDGE_CURVE ( 'NONE', #263, #205, #221, .T. ) ;
#155 = VECTOR ( 'NONE', #281, 39.37007874015748143 ) ;
#156 = FILL_AREA_STYLE ('',( #13 ) ) ;
#157 = APPLICATION_CONTEXT ( 'automotive_design' ) ;
#158 = UNCERTAINTY_MEASURE_WITH_UNIT (LENGTH_MEASURE( 1.000000000000000082E-05 ), #248, 'distance_accuracy_value', 'NONE');
#159 = SURFACE_STYLE_FILL_AREA ( #231 ) ;
#160 = EDGE_CURVE ( 'NONE', #198, #92, #303, .T. ) ;
#161 = ORIENTED_EDGE ( 'NONE', *, *, #208, .F. ) ;
#162 = CLOSED_SHELL ( 'NONE', ( #105, #272, #225, #309 ) ) ;
#163 = VECTOR ( 'NONE', #122, 39.37007874015748143 ) ;
#164 =( NAMED_UNIT ( * ) SI_UNIT ( $, .STERADIAN. ) SOLID_ANGLE_UNIT ( ) );
#165 = COLOUR_RGB ( '',1.000000000000000000, 0.000000000000000000, 0.000000000000000000 ) ;
#166 = PRESENTATION_LAYER_ASSIGNMENT (  '', '', ( #66 ) ) ;
#167 = SURFACE_SIDE_STYLE ('',( #44 ) ) ;
#168 = CARTESIAN_POINT ( 'NONE',  ( -6.123233995736772199E-17, 3.000000000000000444, 0.000000000000000000 ) ) ;
#169 = EDGE_LOOP ( 'NONE', ( #207, #283 ) ) ;
#170 = FACE_OUTER_BOUND ( 'NONE', #169, .T. ) ;
#171 = CARTESIAN_POINT ( 'NONE',  ( -0.04000000000000000083, 9.567374465321613513E-19, 0.000000000000000000 ) ) ;
#172 = PRESENTATION_STYLE_ASSIGNMENT (( #94 ) ) ;
#173 = CARTESIAN_POINT ( 'NONE',  ( 1.449978133535231439E-18, 0.1212435565298207868, 0.000000000000000000 ) ) ;
#174 = DIRECTION ( 'NONE',  ( -1.195921808165201785E-17, -1.000000000000000000, -0.000000000000000000 ) ) ;
#175 = CARTESIAN_POINT ( 'NONE',  ( -6.123233995736772199E-17, 3.000000000000000444, 0.000000000000000000 ) ) ;
#176 =( GEOMETRIC_REPRESENTATION_CONTEXT ( 3 ) GLOBAL_UNCERTAINTY_ASSIGNED_CONTEXT ( ( #299 ) ) GLOBAL_UNIT_ASSIGNED_CONTEXT ( ( #57, #292, #52 ) ) REPRESENTATION_CONTEXT ( 'NONE', 'WORKASPACE' ) );
#177 = AXIS2_PLACEMENT_3D ( 'NONE', #267, #239, #241 ) ;
#178 = DIRECTION ( 'NONE',  ( -1.220982727043392245E-16, 1.000000000000000000, -0.000000000000000000 ) ) ;
#179 = DIMENSIONAL_EXPONENTS ( 1.000000000000000000, 0.000000000000000000, 0.000000000000000000, 0.000000000000000000, 0.000000000000000000, 0.000000000000000000, 0.000000000000000000 ) ;
#180 = FACE_OUTER_BOUND ( 'NONE', #64, .T. ) ;
#181 = EDGE_CURVE ( 'NONE', #300, #263, #242, .T. ) ;
#182 = SURFACE_SIDE_STYLE ('',( #91 ) ) ;
#183 = STYLED_ITEM ( 'NONE', ( #172 ), #35 ) ;
#184 = SURFACE_STYLE_USAGE ( .BOTH. , #182 ) ;
#185 = ORIENTED_EDGE ( 'NONE', *, *, #213, .T. ) ;
#186 =( LENGTH_UNIT ( ) NAMED_UNIT ( * ) SI_UNIT ( $, .METRE. ) );
#187 = SURFACE_SIDE_STYLE ('',( #277 ) ) ;
#188 =( NAMED_UNIT ( * ) PLANE_ANGLE_UNIT ( ) SI_UNIT ( $, .RADIAN. ) );
#189 = EDGE_CURVE ( 'NONE', #300, #27, #130, .T. ) ;
#190 = PRESENTATION_LAYER_ASSIGNMENT (  '', '', ( #14 ) ) ;
#191 = PLANE ( 'NONE',  #252 ) ;
#192 = UNCERTAINTY_MEASURE_WITH_UNIT (LENGTH_MEASURE( 1.000000000000000082E-05 ), #20, 'distance_accuracy_value', 'NONE');
#193 = PRESENTATION_STYLE_ASSIGNMENT (( #101 ) ) ;
#194 = DIRECTION ( 'NONE',  ( -1.000000000000000000, 0.000000000000000000, 0.000000000000000000 ) ) ;
#195 = CARTESIAN_POINT ( 'NONE',  ( -0.2500000000000000000, 0.1212435565298207868, 0.000000000000000000 ) ) ;
#196 =( GEOMETRIC_REPRESENTATION_CONTEXT ( 3 ) GLOBAL_UNCERTAINTY_ASSIGNED_CONTEXT ( ( #76 ) ) GLOBAL_UNIT_ASSIGNED_CONTEXT ( ( #257, #141, #164 ) ) REPRESENTATION_CONTEXT ( 'NONE', 'WORKASPACE' ) );
#197 = DIRECTION ( 'NONE',  ( 1.000000000000000000, 0.000000000000000000, 0.000000000000000000 ) ) ;
#198 = VERTEX_POINT ( 'NONE', #110 ) ;
#199 = SURFACE_STYLE_FILL_AREA ( #223 ) ;
#200 = PRESENTATION_LAYER_ASSIGNMENT (  '', '', ( #143 ) ) ;
#201 = VECTOR ( 'NONE', #80, 39.37007874015748854 ) ;
#202 = SURFACE_SIDE_STYLE ('',( #199 ) ) ;
#203 = DIMENSIONAL_EXPONENTS ( 1.000000000000000000, 0.000000000000000000, 0.000000000000000000, 0.000000000000000000, 0.000000000000000000, 0.000000000000000000, 0.000000000000000000 ) ;
#204 =( LENGTH_UNIT ( ) NAMED_UNIT ( * ) SI_UNIT ( $, .METRE. ) );
#205 = VERTEX_POINT ( 'NONE', #218 ) ;
#206 = ORIENTED_EDGE ( 'NONE', *, *, #189, .T. ) ;
#207 = ORIENTED_EDGE ( 'NONE', *, *, #181, .T. ) ;
#208 = EDGE_CURVE ( 'NONE', #263, #300, #265, .T. ) ;
#209 = DIRECTION ( 'NONE',  ( -1.000000000000000000, -1.365923996832133088E-16, 0.000000000000000000 ) ) ;
#210 = MECHANICAL_DESIGN_GEOMETRIC_PRESENTATION_REPRESENTATION (  '', ( #134 ), #93 ) ;
#211 = AXIS2_PLACEMENT_3D ( 'NONE', #175, #86, #294 ) ;
#212 = CARTESIAN_POINT ( 'NONE',  ( 0.04000000000000000083, 0.000000000000000000, 1.775737858763662224E-17 ) ) ;
#213 = EDGE_CURVE ( 'NONE', #92, #198, #120, .T. ) ;
#214 =( CONVERSION_BASED_UNIT ( 'INCH', #97 ) LENGTH_UNIT ( ) NAMED_UNIT ( #152 ) );
#215 = MANIFOLD_SOLID_BREP ( 'Revolve - Tool Body (Tipped Off)', #162 ) ;
#216 = EDGE_CURVE ( 'NONE', #296, #198, #259, .T. ) ;
#217 = LINE ( 'NONE', #308, #155 ) ;
#218 = CARTESIAN_POINT ( 'NONE',  ( 0.2500000000000000000, 0.1212435565298207868, 3.061616997868383634E-17 ) ) ;
#219 = PRODUCT_CONTEXT ( 'NONE', #96, 'mechanical' ) ;
#220 = PRODUCT_DEFINITION_FORMATION_WITH_SPECIFIED_SOURCE ( 'ANY', '', #32, .NOT_KNOWN. ) ;
#221 = LINE ( 'NONE', #290, #201 ) ;
#222 = DIRECTION ( 'NONE',  ( 1.000000000000000000, 0.000000000000000000, 0.000000000000000000 ) ) ;
#223 = FILL_AREA_STYLE ('',( #132 ) ) ;
#224 = CARTESIAN_POINT ( 'NONE',  ( -0.04000000000000000083, 9.567374465321613513E-19, 0.000000000000000000 ) ) ;
#225 = ADVANCED_FACE ( 'NONE', ( #180 ), #98, .T. ) ;
#226 = PRESENTATION_LAYER_ASSIGNMENT (  '', '', ( #134 ) ) ;
#227 = SURFACE_STYLE_FILL_AREA ( #33 ) ;
#228 = SURFACE_STYLE_USAGE ( .BOTH. , #135 ) ;
#229 = UNCERTAINTY_MEASURE_WITH_UNIT (LENGTH_MEASURE( 1.000000000000000082E-05 ), #69, 'distance_accuracy_value', 'NONE');
#230 = MECHANICAL_DESIGN_GEOMETRIC_PRESENTATION_REPRESENTATION (  '', ( #14 ), #176 ) ;
#231 = FILL_AREA_STYLE ('',( #250 ) ) ;
#232 = CARTESIAN_POINT ( 'NONE',  ( 2.902588493268279793E-16, 0.1212435565298208007, 0.000000000000000000 ) ) ;
#233 = MECHANICAL_DESIGN_GEOMETRIC_PRESENTATION_REPRESENTATION (  '', ( #143 ), #131 ) ;
#234 = DIRECTION ( 'NONE',  ( -1.000000000000000000, -1.365923996832133088E-16, 0.000000000000000000 ) ) ;
#235 = DIRECTION ( 'NONE',  ( 1.000000000000000000, -1.195921808165201940E-17, 0.000000000000000000 ) ) ;
#236 = LENGTH_MEASURE_WITH_UNIT ( LENGTH_MEASURE( 0.02539999999999999897 ), #260 );
#237 = PRESENTATION_LAYER_ASSIGNMENT (  '', '', ( #183 ) ) ;
#238 = AXIS2_PLACEMENT_3D ( 'NONE', #2, #288, #83 ) ;
#239 = DIRECTION ( 'NONE',  ( 1.195921808165201940E-17, 1.000000000000000000, 0.000000000000000000 ) ) ;
#240 = DIRECTION ( 'NONE',  ( -1.195921808165201785E-17, -1.000000000000000000, -0.000000000000000000 ) ) ;
#241 = DIRECTION ( 'NONE',  ( -1.000000000000000000, 1.195921808165201940E-17, 0.000000000000000000 ) ) ;
#242 = CIRCLE ( 'NONE', #50, 0.04000000000000000083 ) ;
#243 = DIRECTION ( 'NONE',  ( 1.000000000000000000, 0.000000000000000000, 0.000000000000000000 ) ) ;
#244 = ORIENTED_EDGE ( 'NONE', *, *, #160, .T. ) ;
#245 =( NAMED_UNIT ( * ) SI_UNIT ( $, .STERADIAN. ) SOLID_ANGLE_UNIT ( ) );
#246 = EDGE_CURVE ( 'NONE', #296, #273, #114, .T. ) ;
#247 = PRESENTATION_STYLE_ASSIGNMENT (( #153 ) ) ;
#248 =( CONVERSION_BASED_UNIT ( 'INCH', #61 ) LENGTH_UNIT ( ) NAMED_UNIT ( #85 ) );
#249 =( NAMED_UNIT ( * ) PLANE_ANGLE_UNIT ( ) SI_UNIT ( $, .RADIAN. ) );
#250 = FILL_AREA_STYLE_COLOUR ( '', #165 ) ;
#251 = STYLED_ITEM ( 'NONE', ( #119 ), #6 ) ;
#252 = AXIS2_PLACEMENT_3D ( 'NONE', #43, #45, #22 ) ;
#253 = ORIENTED_EDGE ( 'NONE', *, *, #160, .F. ) ;
#254 = EDGE_LOOP ( 'NONE', ( #36, #271, #206, #136 ) ) ;
#255 =( NAMED_UNIT ( * ) SI_UNIT ( $, .STERADIAN. ) SOLID_ANGLE_UNIT ( ) );
#256 = AXIS2_PLACEMENT_3D ( 'NONE', #19, #99, #235 ) ;
#257 =( CONVERSION_BASED_UNIT ( 'INCH', #40 ) LENGTH_UNIT ( ) NAMED_UNIT ( #203 ) );
#258 = PLANE ( 'NONE',  #256 ) ;
#259 = LINE ( 'NONE', #95, #163 ) ;
#260 =( LENGTH_UNIT ( ) NAMED_UNIT ( * ) SI_UNIT ( $, .METRE. ) );
#261 = DIRECTION ( 'NONE',  ( -1.220982727043392245E-16, 1.000000000000000000, -0.000000000000000000 ) ) ;
#262 = AXIS2_PLACEMENT_3D ( 'NONE', #11, #4, #222 ) ;
#263 = VERTEX_POINT ( 'NONE', #212 ) ;
#264 = DIRECTION ( 'NONE',  ( 1.195921808165201785E-17, 1.000000000000000000, 0.000000000000000000 ) ) ;
#265 = CIRCLE ( 'NONE', #238, 0.04000000000000000083 ) ;
#266 = CARTESIAN_POINT ( 'NONE',  ( 5.720915884980502567E-36, 4.783687232660806757E-19, 0.000000000000000000 ) ) ;
#267 = CARTESIAN_POINT ( 'NONE',  ( 1.449978133535231054E-18, 0.1212435565298207590, 0.000000000000000000 ) ) ;
#268 = DIMENSIONAL_EXPONENTS ( 1.000000000000000000, 0.000000000000000000, 0.000000000000000000, 0.000000000000000000, 0.000000000000000000, 0.000000000000000000, 0.000000000000000000 ) ;
#269 = SURFACE_SIDE_STYLE ('',( #227 ) ) ;
#270 = ORIENTED_EDGE ( 'NONE', *, *, #213, .F. ) ;
#271 = ORIENTED_EDGE ( 'NONE', *, *, #181, .F. ) ;
#272 = ADVANCED_FACE ( 'NONE', ( #100 ), #191, .F. ) ;
#273 = VERTEX_POINT ( 'NONE', #305 ) ;
#274 = COLOUR_RGB ( '',1.000000000000000000, 0.000000000000000000, 0.000000000000000000 ) ;
#275 = MECHANICAL_DESIGN_GEOMETRIC_PRESENTATION_REPRESENTATION (  '', ( #66 ), #15 ) ;
#276 = ORIENTED_EDGE ( 'NONE', *, *, #54, .T. ) ;
#277 = SURFACE_STYLE_FILL_AREA ( #124 ) ;
#278 = DIRECTION ( 'NONE',  ( 1.220982727043392245E-16, -1.000000000000000000, 0.000000000000000000 ) ) ;
#279 = FILL_AREA_STYLE ('',( #42 ) ) ;
#280 = FACE_OUTER_BOUND ( 'NONE', #150, .T. ) ;
#281 = DIRECTION ( 'NONE',  ( -1.220982727043392245E-16, 1.000000000000000000, -0.000000000000000000 ) ) ;
#282 =( NAMED_UNIT ( * ) SI_UNIT ( $, .STERADIAN. ) SOLID_ANGLE_UNIT ( ) );
#283 = ORIENTED_EDGE ( 'NONE', *, *, #208, .T. ) ;
#284 = CARTESIAN_POINT ( 'NONE',  ( 2.902588493268279793E-16, 0.1212435565298208007, 0.000000000000000000 ) ) ;
#285 = COLOUR_RGB ( '',0.7921568627450980005, 0.8196078431372548767, 0.9333333333333333481 ) ;
#286 = PRESENTATION_STYLE_ASSIGNMENT (( #9 ) ) ;
#287 = ORIENTED_EDGE ( 'NONE', *, *, #189, .F. ) ;
#288 = DIRECTION ( 'NONE',  ( -1.195921808165201785E-17, -1.000000000000000000, -0.000000000000000000 ) ) ;
#289 = SHAPE_DEFINITION_REPRESENTATION ( #115, #72 ) ;
#290 = CARTESIAN_POINT ( 'NONE',  ( 0.04000000000000000083, 0.000000000000000000, 4.898587196589413537E-18 ) ) ;
#291 = AXIS2_PLACEMENT_3D ( 'NONE', #16, #140, #145 ) ;
#292 =( NAMED_UNIT ( * ) PLANE_ANGLE_UNIT ( ) SI_UNIT ( $, .RADIAN. ) );
#293 = DIMENSIONAL_EXPONENTS ( 1.000000000000000000, 0.000000000000000000, 0.000000000000000000, 0.000000000000000000, 0.000000000000000000, 0.000000000000000000, 0.000000000000000000 ) ;
#294 = DIRECTION ( 'NONE',  ( -1.000000000000000000, 0.000000000000000000, 0.000000000000000000 ) ) ;
#295 = EDGE_LOOP ( 'NONE', ( #301, #87 ) ) ;
#296 = VERTEX_POINT ( 'NONE', #78 ) ;
#297 = AXIS2_PLACEMENT_3D ( 'NONE', #173, #174, #197 ) ;
#298 = VECTOR ( 'NONE', #7, 39.37007874015748854 ) ;
#299 = UNCERTAINTY_MEASURE_WITH_UNIT (LENGTH_MEASURE( 1.000000000000000082E-05 ), #57, 'distance_accuracy_value', 'NONE');
#300 = VERTEX_POINT ( 'NONE', #171 ) ;
#301 = ORIENTED_EDGE ( 'NONE', *, *, #90, .F. ) ;
#302 = CIRCLE ( 'NONE', #148, 0.2499999999999997224 ) ;
#303 = CIRCLE ( 'NONE', #60, 0.2500000000000000555 ) ;
#304 = FACE_OUTER_BOUND ( 'NONE', #75, .T. ) ;
#305 = CARTESIAN_POINT ( 'NONE',  ( 0.2500000000000000000, 0.1212435565298208284, 3.061616997868382402E-17 ) ) ;
#306 =( NAMED_UNIT ( * ) SI_UNIT ( $, .STERADIAN. ) SOLID_ANGLE_UNIT ( ) );
#307 = LENGTH_MEASURE_WITH_UNIT ( LENGTH_MEASURE( 0.02539999999999999897 ), #204 );
#308 = CARTESIAN_POINT ( 'NONE',  ( 0.2499999999999998335, 3.000000000000000444, 3.061616997868381785E-17 ) ) ;
#309 = ADVANCED_FACE ( 'NONE', ( #280 ), #47, .F. ) ;
ENDSEC;
END-ISO-10303-21;
