ISO-10303-21;
HEADER;
FILE_DESCRIPTION (( 'STEP AP214' ),
    '1' );
FILE_NAME ('Micro_SME-030-2.STEP',
    '2021-09-02T11:36:47',
    ( '' ),
    ( '' ),
    'SwSTEP 2.0',
    'SolidWorks 2020',
    '' );
FILE_SCHEMA (( 'AUTOMOTIVE_DESIGN' ));
ENDSEC;

DATA;
#1 = EDGE_CURVE ( 'NONE', #123, #284, #270, .T. ) ;
#2 = AXIS2_PLACEMENT_3D ( 'NONE', #86, #47, #244 ) ;
#3 = DIRECTION ( 'NONE',  ( 0.1736481776669313304, 0.0000000000000000000, 0.9848077530122077983 ) ) ;
#4 = EDGE_LOOP ( 'NONE', ( #147, #146, #164, #191 ) ) ;
#5 = CARTESIAN_POINT ( 'NONE',  ( 0.01498500000000000006, 1.835133228522308816E-18, 0.0000000000000000000 ) ) ;
#6 = ORIENTED_EDGE ( 'NONE', *, *, #101, .T. ) ;
#7 = AXIS2_PLACEMENT_3D ( 'NONE', #41, #19, #291 ) ;
#8 = EDGE_CURVE ( 'NONE', #212, #266, #242, .T. ) ;
#9 = CARTESIAN_POINT ( 'NONE',  ( 0.04750000000000064587, 5.817072295950006528E-18, 1.500000000000000222 ) ) ;
#10 = ORIENTED_EDGE ( 'NONE', *, *, #233, .F. ) ;
#11 = CARTESIAN_POINT ( 'NONE',  ( -0.06250000000000002776, 0.0000000000000000000, 1.485000000000000764 ) ) ;
#12 = EDGE_LOOP ( 'NONE', ( #166, #173, #39, #88 ) ) ;
#13 = AXIS2_PLACEMENT_3D ( 'NONE', #261, #167, #169 ) ;
#14 = FILL_AREA_STYLE ('',( #199 ) ) ;
#15 = AXIS2_PLACEMENT_3D ( 'NONE', #238, #33, #32 ) ;
#16 = DIRECTION ( 'NONE',  ( -1.000000000000000000, 0.0000000000000000000, 0.0000000000000000000 ) ) ;
#17 =( LENGTH_UNIT ( ) NAMED_UNIT ( * ) SI_UNIT ( $, .METRE. ) );
#18 = PLANE ( 'NONE',  #160 ) ;
#19 = DIRECTION ( 'NONE',  ( -1.224646799147353700E-16, -0.0000000000000000000, -1.000000000000000000 ) ) ;
#20 = CLOSED_SHELL ( 'NONE', ( #274, #158, #125, #24, #150, #56, #28, #83, #63, #95 ) ) ;
#21 = FILL_AREA_STYLE ('',( #289 ) ) ;
#22 = VECTOR ( 'NONE', #112, 39.37007874015748143 ) ;
#23 = SURFACE_SIDE_STYLE ('',( #228 ) ) ;
#24 = ADVANCED_FACE ( 'NONE', ( #227 ), #156, .T. ) ;
#25 = AXIS2_PLACEMENT_3D ( 'NONE', #74, #225, #268 ) ;
#26 = LINE ( 'NONE', #81, #51 ) ;
#27 = CARTESIAN_POINT ( 'NONE',  ( -0.04750000000000064587, 0.0000000000000000000, 1.500000000000000222 ) ) ;
#28 = ADVANCED_FACE ( 'NONE', ( #178 ), #127, .T. ) ;
#29 = CIRCLE ( 'NONE', #93, 0.06250000000000002776 ) ;
#30 =( LENGTH_UNIT ( ) NAMED_UNIT ( * ) SI_UNIT ( $, .METRE. ) );
#31 = MANIFOLD_SOLID_BREP ( 'Cut-Revolve1', #20 ) ;
#32 = DIRECTION ( 'NONE',  ( -1.000000000000000000, 0.0000000000000000000, 0.0000000000000000000 ) ) ;
#33 = DIRECTION ( 'NONE',  ( -1.224646799147353700E-16, -0.0000000000000000000, -1.000000000000000000 ) ) ;
#34 = VERTEX_POINT ( 'NONE', #119 ) ;
#35 = AXIS2_PLACEMENT_3D ( 'NONE', #67, #70, #165 ) ;
#36 = CYLINDRICAL_SURFACE ( 'NONE', #223, 0.01498500000000000006 ) ;
#37 = ORIENTED_EDGE ( 'NONE', *, *, #229, .T. ) ;
#38 = CARTESIAN_POINT ( 'NONE',  ( 0.01498500000000000699, 0.0000000000000000000, 0.04499999999999999833 ) ) ;
#39 = ORIENTED_EDGE ( 'NONE', *, *, #251, .T. ) ;
#40 = VECTOR ( 'NONE', #107, 39.37007874015748854 ) ;
#41 = CARTESIAN_POINT ( 'NONE',  ( 0.0000000000000000000, 0.0000000000000000000, 0.0000000000000000000 ) ) ;
#42 =( NAMED_UNIT ( * ) SI_UNIT ( $, .STERADIAN. ) SOLID_ANGLE_UNIT ( ) );
#43 = PRODUCT_DEFINITION_CONTEXT ( 'detailed design', #162, 'design' ) ;
#44 = CARTESIAN_POINT ( 'NONE',  ( 0.01498500000000000006, 1.835133228522308816E-18, -1.835133228522309586E-18 ) ) ;
#45 = DIRECTION ( 'NONE',  ( 1.000000000000000000, 0.0000000000000000000, 0.0000000000000000000 ) ) ;
#46 = CARTESIAN_POINT ( 'NONE',  ( -0.01498499999999999485, 4.744587861596634336E-18, 0.04499999999999999833 ) ) ;
#47 = DIRECTION ( 'NONE',  ( -1.224646799147353700E-16, -0.0000000000000000000, -1.000000000000000000 ) ) ;
#48 = ORIENTED_EDGE ( 'NONE', *, *, #142, .F. ) ;
#49 = DIRECTION ( 'NONE',  ( -1.000000000000000000, 0.0000000000000000000, 0.0000000000000000000 ) ) ;
#50 = DIRECTION ( 'NONE',  ( 1.000000000000000000, 0.0000000000000000000, 0.0000000000000000000 ) ) ;
#51 = VECTOR ( 'NONE', #134, 39.37007874015748143 ) ;
#52 = CARTESIAN_POINT ( 'NONE',  ( 0.0000000000000000000, 0.0000000000000000000, 1.485000000000000764 ) ) ;
#53 = SHAPE_DEFINITION_REPRESENTATION ( #181, #285 ) ;
#54 = CIRCLE ( 'NONE', #2, 0.01498500000000000006 ) ;
#55 = ORIENTED_EDGE ( 'NONE', *, *, #251, .F. ) ;
#56 = ADVANCED_FACE ( 'NONE', ( #153 ), #18, .T. ) ;
#57 = PRODUCT_CONTEXT ( 'NONE', #91, 'mechanical' ) ;
#58 = VERTEX_POINT ( 'NONE', #198 ) ;
#59 = EDGE_CURVE ( 'NONE', #34, #219, #293, .T. ) ;
#60 = AXIS2_PLACEMENT_3D ( 'NONE', #180, #276, #205 ) ;
#61 = CIRCLE ( 'NONE', #35, 0.04750000000000064587 ) ;
#62 = ORIENTED_EDGE ( 'NONE', *, *, #233, .T. ) ;
#63 = ADVANCED_FACE ( 'NONE', ( #148 ), #246, .T. ) ;
#64 = FACE_OUTER_BOUND ( 'NONE', #139, .T. ) ;
#65 = LINE ( 'NONE', #38, #136 ) ;
#66 = ORIENTED_EDGE ( 'NONE', *, *, #213, .T. ) ;
#67 = CARTESIAN_POINT ( 'NONE',  ( 0.0000000000000000000, 0.0000000000000000000, 1.500000000000000222 ) ) ;
#68 = CARTESIAN_POINT ( 'NONE',  ( 0.06250000000000002776, 7.654042494670959086E-18, 1.500000000000000222 ) ) ;
#69 = ORIENTED_EDGE ( 'NONE', *, *, #8, .F. ) ;
#70 = DIRECTION ( 'NONE',  ( 0.0000000000000000000, 0.0000000000000000000, 1.000000000000000000 ) ) ;
#71 = VERTEX_POINT ( 'NONE', #98 ) ;
#72 =( GEOMETRIC_REPRESENTATION_CONTEXT ( 3 ) GLOBAL_UNCERTAINTY_ASSIGNED_CONTEXT ( ( #297 ) ) GLOBAL_UNIT_ASSIGNED_CONTEXT ( ( #192, #110, #290 ) ) REPRESENTATION_CONTEXT ( 'NONE', 'WORKASPACE' ) );
#73 = DIRECTION ( 'NONE',  ( -1.224646799147353700E-16, -0.0000000000000000000, -1.000000000000000000 ) ) ;
#74 = CARTESIAN_POINT ( 'NONE',  ( 3.851158492727680563E-17, 0.0000000000000000000, 0.3144709556591341881 ) ) ;
#75 = VECTOR ( 'NONE', #143, 39.37007874015747433 ) ;
#76 = CARTESIAN_POINT ( 'NONE',  ( 0.0000000000000000000, 0.0000000000000000000, 0.0000000000000000000 ) ) ;
#77 = DIRECTION ( 'NONE',  ( 1.000000000000000000, 0.0000000000000000000, 0.0000000000000000000 ) ) ;
#78 = EDGE_LOOP ( 'NONE', ( #37, #168, #288, #55 ) ) ;
#79 = CARTESIAN_POINT ( 'NONE',  ( 0.0000000000000000000, 0.0000000000000000000, 0.0000000000000000000 ) ) ;
#80 = ORIENTED_EDGE ( 'NONE', *, *, #280, .T. ) ;
#81 = CARTESIAN_POINT ( 'NONE',  ( -0.01498500000000000006, 0.0000000000000000000, 1.835133228522309586E-18 ) ) ;
#82 = CONICAL_SURFACE ( 'NONE', #210, 0.04750000000000064587, 0.7853981633974466137 ) ;
#83 = ADVANCED_FACE ( 'NONE', ( #64 ), #260, .T. ) ;
#84 = DIRECTION ( 'NONE',  ( 1.000000000000000000, 0.0000000000000000000, 0.0000000000000000000 ) ) ;
#85 = ORIENTED_EDGE ( 'NONE', *, *, #101, .F. ) ;
#86 = CARTESIAN_POINT ( 'NONE',  ( 2.247390034318795518E-34, 0.0000000000000000000, 1.835133228522309586E-18 ) ) ;
#87 = ORIENTED_EDGE ( 'NONE', *, *, #189, .F. ) ;
#88 = ORIENTED_EDGE ( 'NONE', *, *, #203, .F. ) ;
#89 = PRODUCT_RELATED_PRODUCT_CATEGORY ( 'part', '', ( #177 ) ) ;
#90 = DIRECTION ( 'NONE',  ( 1.000000000000000000, 0.0000000000000000000, 0.0000000000000000000 ) ) ;
#91 = APPLICATION_CONTEXT ( 'automotive_design' ) ;
#92 = CARTESIAN_POINT ( 'NONE',  ( -0.04750000000000064587, 0.0000000000000000000, 1.500000000000000222 ) ) ;
#93 = AXIS2_PLACEMENT_3D ( 'NONE', #193, #114, #84 ) ;
#94 = CARTESIAN_POINT ( 'NONE',  ( 0.0000000000000000000, 0.0000000000000000000, 1.500000000000000222 ) ) ;
#95 = ADVANCED_FACE ( 'NONE', ( #299 ), #298, .F. ) ;
#96 = SURFACE_STYLE_USAGE ( .BOTH. , #23 ) ;
#97 = APPLICATION_PROTOCOL_DEFINITION ( 'draft international standard', 'automotive_design', 1998, #162 ) ;
#98 = CARTESIAN_POINT ( 'NONE',  ( 0.06250000000000002776, 7.654042494670959086E-18, 1.485000000000000764 ) ) ;
#99 = AXIS2_PLACEMENT_3D ( 'NONE', #52, #286, #90 ) ;
#100 = CARTESIAN_POINT ( 'NONE',  ( 0.0000000000000000000, 0.0000000000000000000, 1.500000000000000222 ) ) ;
#101 = EDGE_CURVE ( 'NONE', #284, #278, #129, .T. ) ;
#102 = CARTESIAN_POINT ( 'NONE',  ( 0.0000000000000000000, 0.0000000000000000000, 1.500000000000000222 ) ) ;
#103 = CARTESIAN_POINT ( 'NONE',  ( 5.510910596163091096E-18, 0.0000000000000000000, 0.04499999999999999833 ) ) ;
#104 = COLOUR_RGB ( '',0.7921568627450980005, 0.8196078431372548767, 0.9333333333333333481 ) ;
#105 = DIRECTION ( 'NONE',  ( 0.0000000000000000000, 0.0000000000000000000, -1.000000000000000000 ) ) ;
#106 = LINE ( 'NONE', #44, #137 ) ;
#107 = DIRECTION ( 'NONE',  ( -0.7071067811865462405, 0.0000000000000000000, -0.7071067811865486830 ) ) ;
#108 = STYLED_ITEM ( 'NONE', ( #273 ), #31 ) ;
#109 = CONICAL_SURFACE ( 'NONE', #155, 0.01498500000000000006, 0.1745329251994338360 ) ;
#110 =( NAMED_UNIT ( * ) PLANE_ANGLE_UNIT ( ) SI_UNIT ( $, .RADIAN. ) );
#111 = CARTESIAN_POINT ( 'NONE',  ( 0.0000000000000000000, 0.0000000000000000000, 0.0000000000000000000 ) ) ;
#112 = DIRECTION ( 'NONE',  ( -0.0000000000000000000, -0.0000000000000000000, -1.000000000000000000 ) ) ;
#113 = ORIENTED_EDGE ( 'NONE', *, *, #130, .T. ) ;
#114 = DIRECTION ( 'NONE',  ( -1.224646799147353700E-16, -0.0000000000000000000, -1.000000000000000000 ) ) ;
#115 = ORIENTED_EDGE ( 'NONE', *, *, #1, .F. ) ;
#116 = CARTESIAN_POINT ( 'NONE',  ( 0.06250000000000006939, 7.654042494670963708E-18, 0.3144709556591341881 ) ) ;
#117 = ORIENTED_EDGE ( 'NONE', *, *, #195, .F. ) ;
#118 =( NAMED_UNIT ( * ) PLANE_ANGLE_UNIT ( ) SI_UNIT ( $, .RADIAN. ) );
#119 = CARTESIAN_POINT ( 'NONE',  ( -0.06249999999999997918, 0.0000000000000000000, 0.3144709556591341881 ) ) ;
#120 = PRODUCT_DEFINITION ( 'UNKNOWN', '', #132, #43 ) ;
#121 = STYLED_ITEM ( 'NONE', ( #294 ), #285 ) ;
#122 = DIRECTION ( 'NONE',  ( 0.0000000000000000000, 0.0000000000000000000, -1.000000000000000000 ) ) ;
#123 = VERTEX_POINT ( 'NONE', #185 ) ;
#124 =( CONVERSION_BASED_UNIT ( 'INCH', #201 ) LENGTH_UNIT ( ) NAMED_UNIT ( #159 ) );
#125 = ADVANCED_FACE ( 'NONE', ( #256 ), #82, .T. ) ;
#126 = EDGE_LOOP ( 'NONE', ( #170, #249 ) ) ;
#127 = CONICAL_SURFACE ( 'NONE', #171, 0.04750000000000064587, 0.7853981633974466137 ) ;
#128 = ORIENTED_EDGE ( 'NONE', *, *, #195, .T. ) ;
#129 = LINE ( 'NONE', #27, #40 ) ;
#130 = EDGE_CURVE ( 'NONE', #215, #266, #26, .T. ) ;
#131 = AXIS2_PLACEMENT_3D ( 'NONE', #100, #222, #77 ) ;
#132 = PRODUCT_DEFINITION_FORMATION_WITH_SPECIFIED_SOURCE ( 'ANY', '', #177, .NOT_KNOWN. ) ;
#133 = DIRECTION ( 'NONE',  ( -1.224646799147353700E-16, -0.0000000000000000000, -1.000000000000000000 ) ) ;
#134 = DIRECTION ( 'NONE',  ( -1.224646799147353700E-16, -0.0000000000000000000, -1.000000000000000000 ) ) ;
#135 = CARTESIAN_POINT ( 'NONE',  ( -0.01498500000000000006, 0.0000000000000000000, 3.670266457044619172E-18 ) ) ;
#136 = VECTOR ( 'NONE', #3, 39.37007874015748143 ) ;
#137 = VECTOR ( 'NONE', #133, 39.37007874015748143 ) ;
#138 = DIRECTION ( 'NONE',  ( -0.0000000000000000000, -0.0000000000000000000, -1.000000000000000000 ) ) ;
#139 = EDGE_LOOP ( 'NONE', ( #117, #240, #197, #239 ) ) ;
#140 = CARTESIAN_POINT ( 'NONE',  ( -0.01498499999999999485, 1.835133228522308816E-18, 0.04499999999999999833 ) ) ;
#141 = ORIENTED_EDGE ( 'NONE', *, *, #1, .T. ) ;
#142 = EDGE_CURVE ( 'NONE', #58, #212, #106, .T. ) ;
#143 = DIRECTION ( 'NONE',  ( -0.1736481776669311639, 2.126576849575782392E-17, 0.9848077530122080203 ) ) ;
#144 = CIRCLE ( 'NONE', #13, 0.06250000000000002776 ) ;
#145 = CARTESIAN_POINT ( 'NONE',  ( 0.0000000000000000000, 0.0000000000000000000, 1.500000000000000222 ) ) ;
#146 = ORIENTED_EDGE ( 'NONE', *, *, #142, .T. ) ;
#147 = ORIENTED_EDGE ( 'NONE', *, *, #255, .T. ) ;
#148 = FACE_OUTER_BOUND ( 'NONE', #221, .T. ) ;
#149 = LENGTH_MEASURE_WITH_UNIT ( LENGTH_MEASURE( 0.02539999999999999897 ), #296 );
#150 = ADVANCED_FACE ( 'NONE', ( #258 ), #234, .T. ) ;
#151 = SURFACE_SIDE_STYLE ('',( #245 ) ) ;
#152 =( NAMED_UNIT ( * ) PLANE_ANGLE_UNIT ( ) SI_UNIT ( $, .RADIAN. ) );
#153 = FACE_OUTER_BOUND ( 'NONE', #182, .T. ) ;
#154 = UNCERTAINTY_MEASURE_WITH_UNIT (LENGTH_MEASURE( 1.000000000000000082E-05 ), #124, 'distance_accuracy_value', 'NONE');
#155 = AXIS2_PLACEMENT_3D ( 'NONE', #196, #264, #50 ) ;
#156 = CYLINDRICAL_SURFACE ( 'NONE', #259, 0.06250000000000002776 ) ;
#157 = ORIENTED_EDGE ( 'NONE', *, *, #213, .F. ) ;
#158 = ADVANCED_FACE ( 'NONE', ( #281 ), #109, .T. ) ;
#159 = DIMENSIONAL_EXPONENTS ( 1.000000000000000000, 0.0000000000000000000, 0.0000000000000000000, 0.0000000000000000000, 0.0000000000000000000, 0.0000000000000000000, 0.0000000000000000000 ) ;
#160 = AXIS2_PLACEMENT_3D ( 'NONE', #94, #200, #174 ) ;
#161 = CARTESIAN_POINT ( 'NONE',  ( 0.0000000000000000000, 0.0000000000000000000, 1.500000000000000222 ) ) ;
#162 = APPLICATION_CONTEXT ( 'automotive_design' ) ;
#163 = DIRECTION ( 'NONE',  ( -0.0000000000000000000, -0.0000000000000000000, -1.000000000000000000 ) ) ;
#164 = ORIENTED_EDGE ( 'NONE', *, *, #241, .F. ) ;
#165 = DIRECTION ( 'NONE',  ( 1.000000000000000000, 0.0000000000000000000, 0.0000000000000000000 ) ) ;
#166 = ORIENTED_EDGE ( 'NONE', *, *, #269, .F. ) ;
#167 = DIRECTION ( 'NONE',  ( 0.0000000000000000000, 0.0000000000000000000, -1.000000000000000000 ) ) ;
#168 = ORIENTED_EDGE ( 'NONE', *, *, #269, .T. ) ;
#169 = DIRECTION ( 'NONE',  ( 1.000000000000000000, 0.0000000000000000000, 0.0000000000000000000 ) ) ;
#170 = ORIENTED_EDGE ( 'NONE', *, *, #241, .T. ) ;
#171 = AXIS2_PLACEMENT_3D ( 'NONE', #295, #122, #16 ) ;
#172 = EDGE_LOOP ( 'NONE', ( #157, #10, #6, #292 ) ) ;
#173 = ORIENTED_EDGE ( 'NONE', *, *, #237, .T. ) ;
#174 = DIRECTION ( 'NONE',  ( 1.000000000000000000, 0.0000000000000000000, -0.0000000000000000000 ) ) ;
#175 = PRESENTATION_LAYER_ASSIGNMENT (  '', '', ( #108 ) ) ;
#176 = DIRECTION ( 'NONE',  ( 0.0000000000000000000, 0.0000000000000000000, 1.000000000000000000 ) ) ;
#177 = PRODUCT ( 'Micro_SME-030-2', 'Micro_SME-030-2', '', ( #57 ) ) ;
#178 = FACE_OUTER_BOUND ( 'NONE', #172, .T. ) ;
#179 = SURFACE_STYLE_USAGE ( .BOTH. , #151 ) ;
#180 = CARTESIAN_POINT ( 'NONE',  ( 2.247390034318795518E-34, 0.0000000000000000000, 1.835133228522309586E-18 ) ) ;
#181 = PRODUCT_DEFINITION_SHAPE ( 'NONE', 'NONE',  #120 ) ;
#182 = EDGE_LOOP ( 'NONE', ( #62, #141 ) ) ;
#183 = VECTOR ( 'NONE', #138, 39.37007874015748143 ) ;
#184 = EDGE_LOOP ( 'NONE', ( #115, #66, #194, #85 ) ) ;
#185 = CARTESIAN_POINT ( 'NONE',  ( 0.04750000000000064587, 6.735557395310483192E-18, 1.500000000000000222 ) ) ;
#186 = PRESENTATION_LAYER_ASSIGNMENT (  '', '', ( #121 ) ) ;
#187 = CARTESIAN_POINT ( 'NONE',  ( -0.06250000000000002776, 0.0000000000000000000, 1.500000000000000222 ) ) ;
#188 = LINE ( 'NONE', #68, #22 ) ;
#189 = EDGE_CURVE ( 'NONE', #58, #219, #65, .T. ) ;
#190 = AXIS2_PLACEMENT_3D ( 'NONE', #79, #254, #232 ) ;
#191 = ORIENTED_EDGE ( 'NONE', *, *, #130, .F. ) ;
#192 =( CONVERSION_BASED_UNIT ( 'INCH', #236 ) LENGTH_UNIT ( ) NAMED_UNIT ( #230 ) );
#193 = CARTESIAN_POINT ( 'NONE',  ( 3.851158492727680563E-17, 0.0000000000000000000, 0.3144709556591341881 ) ) ;
#194 = ORIENTED_EDGE ( 'NONE', *, *, #229, .F. ) ;
#195 = EDGE_CURVE ( 'NONE', #215, #34, #218, .T. ) ;
#196 = CARTESIAN_POINT ( 'NONE',  ( 5.510910596163091096E-18, 0.0000000000000000000, 0.04499999999999999833 ) ) ;
#197 = ORIENTED_EDGE ( 'NONE', *, *, #189, .T. ) ;
#198 = CARTESIAN_POINT ( 'NONE',  ( 0.01498500000000000699, 0.0000000000000000000, 0.04499999999999999833 ) ) ;
#199 = FILL_AREA_STYLE_COLOUR ( '', #104 ) ;
#200 = DIRECTION ( 'NONE',  ( 0.0000000000000000000, 0.0000000000000000000, 1.000000000000000000 ) ) ;
#201 = LENGTH_MEASURE_WITH_UNIT ( LENGTH_MEASURE( 0.02539999999999999897 ), #17 );
#202 =( CONVERSION_BASED_UNIT ( 'INCH', #149 ) LENGTH_UNIT ( ) NAMED_UNIT ( #257 ) );
#203 = EDGE_CURVE ( 'NONE', #219, #34, #29, .T. ) ;
#204 = AXIS2_PLACEMENT_3D ( 'NONE', #262, #73, #49 ) ;
#205 = DIRECTION ( 'NONE',  ( -1.000000000000000000, 0.0000000000000000000, 1.224646799147353700E-16 ) ) ;
#206 = DIRECTION ( 'NONE',  ( -1.000000000000000000, 0.0000000000000000000, 0.0000000000000000000 ) ) ;
#207 = DIRECTION ( 'NONE',  ( 1.224646799147353700E-16, 0.0000000000000000000, 1.000000000000000000 ) ) ;
#208 = MECHANICAL_DESIGN_GEOMETRIC_PRESENTATION_REPRESENTATION (  '', ( #121 ), #231 ) ;
#209 = DIRECTION ( 'NONE',  ( -1.000000000000000000, 0.0000000000000000000, 0.0000000000000000000 ) ) ;
#210 = AXIS2_PLACEMENT_3D ( 'NONE', #161, #105, #209 ) ;
#211 = DIRECTION ( 'NONE',  ( -1.000000000000000000, 0.0000000000000000000, 0.0000000000000000000 ) ) ;
#212 = VERTEX_POINT ( 'NONE', #5 ) ;
#213 = EDGE_CURVE ( 'NONE', #123, #71, #214, .T. ) ;
#214 = LINE ( 'NONE', #9, #282 ) ;
#215 = VERTEX_POINT ( 'NONE', #46 ) ;
#216 = DIRECTION ( 'NONE',  ( 0.7071067811865462405, 8.659560562354916834E-17, -0.7071067811865486830 ) ) ;
#217 = CIRCLE ( 'NONE', #204, 0.01498500000000000006 ) ;
#218 = LINE ( 'NONE', #140, #75 ) ;
#219 = VERTEX_POINT ( 'NONE', #116 ) ;
#220 = LINE ( 'NONE', #187, #183 ) ;
#221 = EDGE_LOOP ( 'NONE', ( #48, #80, #113, #69 ) ) ;
#222 = DIRECTION ( 'NONE',  ( 0.0000000000000000000, 0.0000000000000000000, 1.000000000000000000 ) ) ;
#223 = AXIS2_PLACEMENT_3D ( 'NONE', #111, #265, #283 ) ;
#224 = DIRECTION ( 'NONE',  ( -0.0000000000000000000, -0.0000000000000000000, -1.000000000000000000 ) ) ;
#225 = DIRECTION ( 'NONE',  ( -1.224646799147353700E-16, -0.0000000000000000000, -1.000000000000000000 ) ) ;
#226 = DIRECTION ( 'NONE',  ( 1.000000000000000000, 0.0000000000000000000, 0.0000000000000000000 ) ) ;
#227 = FACE_OUTER_BOUND ( 'NONE', #78, .T. ) ;
#228 = SURFACE_STYLE_FILL_AREA ( #21 ) ;
#229 = EDGE_CURVE ( 'NONE', #278, #71, #247, .T. ) ;
#230 = DIMENSIONAL_EXPONENTS ( 1.000000000000000000, 0.0000000000000000000, 0.0000000000000000000, 0.0000000000000000000, 0.0000000000000000000, 0.0000000000000000000, 0.0000000000000000000 ) ;
#231 =( GEOMETRIC_REPRESENTATION_CONTEXT ( 3 ) GLOBAL_UNCERTAINTY_ASSIGNED_CONTEXT ( ( #154 ) ) GLOBAL_UNIT_ASSIGNED_CONTEXT ( ( #124, #118, #248 ) ) REPRESENTATION_CONTEXT ( 'NONE', 'WORKASPACE' ) );
#232 = DIRECTION ( 'NONE',  ( 1.000000000000000000, 0.0000000000000000000, -0.0000000000000000000 ) ) ;
#233 = EDGE_CURVE ( 'NONE', #284, #123, #61, .T. ) ;
#234 = CYLINDRICAL_SURFACE ( 'NONE', #279, 0.06250000000000002776 ) ;
#235 = CIRCLE ( 'NONE', #15, 0.01498500000000000006 ) ;
#236 = LENGTH_MEASURE_WITH_UNIT ( LENGTH_MEASURE( 0.02539999999999999897 ), #30 );
#237 = EDGE_CURVE ( 'NONE', #71, #278, #144, .T. ) ;
#238 = CARTESIAN_POINT ( 'NONE',  ( 5.510910596163091096E-18, 0.0000000000000000000, 0.04499999999999999833 ) ) ;
#239 = ORIENTED_EDGE ( 'NONE', *, *, #203, .T. ) ;
#240 = ORIENTED_EDGE ( 'NONE', *, *, #280, .F. ) ;
#241 = EDGE_CURVE ( 'NONE', #266, #212, #54, .T. ) ;
#242 = CIRCLE ( 'NONE', #60, 0.01498500000000000006 ) ;
#243 = FACE_OUTER_BOUND ( 'NONE', #4, .T. ) ;
#244 = DIRECTION ( 'NONE',  ( -1.000000000000000000, 0.0000000000000000000, 1.224646799147353700E-16 ) ) ;
#245 = SURFACE_STYLE_FILL_AREA ( #14 ) ;
#246 = CYLINDRICAL_SURFACE ( 'NONE', #7, 0.01498500000000000006 ) ;
#247 = CIRCLE ( 'NONE', #99, 0.06250000000000002776 ) ;
#248 =( NAMED_UNIT ( * ) SI_UNIT ( $, .STERADIAN. ) SOLID_ANGLE_UNIT ( ) );
#249 = ORIENTED_EDGE ( 'NONE', *, *, #8, .T. ) ;
#250 = APPLICATION_PROTOCOL_DEFINITION ( 'draft international standard', 'automotive_design', 1998, #91 ) ;
#251 = EDGE_CURVE ( 'NONE', #278, #34, #220, .T. ) ;
#252 = COLOUR_RGB ( '',0.7921568627450980005, 0.8196078431372548767, 0.9333333333333333481 ) ;
#253 = AXIS2_PLACEMENT_3D ( 'NONE', #103, #207, #45 ) ;
#254 = DIRECTION ( 'NONE',  ( 0.0000000000000000000, 0.0000000000000000000, 1.000000000000000000 ) ) ;
#255 = EDGE_CURVE ( 'NONE', #215, #58, #235, .T. ) ;
#256 = FACE_OUTER_BOUND ( 'NONE', #184, .T. ) ;
#257 = DIMENSIONAL_EXPONENTS ( 1.000000000000000000, 0.0000000000000000000, 0.0000000000000000000, 0.0000000000000000000, 0.0000000000000000000, 0.0000000000000000000, 0.0000000000000000000 ) ;
#258 = FACE_OUTER_BOUND ( 'NONE', #12, .T. ) ;
#259 = AXIS2_PLACEMENT_3D ( 'NONE', #102, #224, #206 ) ;
#260 = CONICAL_SURFACE ( 'NONE', #253, 0.01498500000000000006, 0.1745329251994338360 ) ;
#261 = CARTESIAN_POINT ( 'NONE',  ( 0.0000000000000000000, 0.0000000000000000000, 1.485000000000000764 ) ) ;
#262 = CARTESIAN_POINT ( 'NONE',  ( 5.510910596163091096E-18, 0.0000000000000000000, 0.04499999999999999833 ) ) ;
#263 = ORIENTED_EDGE ( 'NONE', *, *, #255, .F. ) ;
#264 = DIRECTION ( 'NONE',  ( 1.224646799147353700E-16, 0.0000000000000000000, 1.000000000000000000 ) ) ;
#265 = DIRECTION ( 'NONE',  ( -1.224646799147353700E-16, -0.0000000000000000000, -1.000000000000000000 ) ) ;
#266 = VERTEX_POINT ( 'NONE', #135 ) ;
#267 = ORIENTED_EDGE ( 'NONE', *, *, #59, .T. ) ;
#268 = DIRECTION ( 'NONE',  ( 1.000000000000000000, 0.0000000000000000000, 0.0000000000000000000 ) ) ;
#269 = EDGE_CURVE ( 'NONE', #71, #219, #188, .T. ) ;
#270 = CIRCLE ( 'NONE', #131, 0.04750000000000064587 ) ;
#271 = EDGE_LOOP ( 'NONE', ( #263, #128, #267, #87 ) ) ;
#272 = AXIS2_PLACEMENT_3D ( 'NONE', #76, #176, #226 ) ;
#273 = PRESENTATION_STYLE_ASSIGNMENT (( #96 ) ) ;
#274 = ADVANCED_FACE ( 'NONE', ( #243 ), #36, .T. ) ;
#275 = UNCERTAINTY_MEASURE_WITH_UNIT (LENGTH_MEASURE( 1.000000000000000082E-05 ), #202, 'distance_accuracy_value', 'NONE');
#276 = DIRECTION ( 'NONE',  ( -1.224646799147353700E-16, -0.0000000000000000000, -1.000000000000000000 ) ) ;
#277 =( GEOMETRIC_REPRESENTATION_CONTEXT ( 3 ) GLOBAL_UNCERTAINTY_ASSIGNED_CONTEXT ( ( #275 ) ) GLOBAL_UNIT_ASSIGNED_CONTEXT ( ( #202, #152, #42 ) ) REPRESENTATION_CONTEXT ( 'NONE', 'WORKASPACE' ) );
#278 = VERTEX_POINT ( 'NONE', #11 ) ;
#279 = AXIS2_PLACEMENT_3D ( 'NONE', #145, #163, #211 ) ;
#280 = EDGE_CURVE ( 'NONE', #58, #215, #217, .T. ) ;
#281 = FACE_OUTER_BOUND ( 'NONE', #271, .T. ) ;
#282 = VECTOR ( 'NONE', #216, 39.37007874015748854 ) ;
#283 = DIRECTION ( 'NONE',  ( -1.000000000000000000, 0.0000000000000000000, 1.224646799147353700E-16 ) ) ;
#284 = VERTEX_POINT ( 'NONE', #92 ) ;
#285 = ADVANCED_BREP_SHAPE_REPRESENTATION ( 'Micro_SME-030-2', ( #31, #272 ), #72 ) ;
#286 = DIRECTION ( 'NONE',  ( 0.0000000000000000000, 0.0000000000000000000, -1.000000000000000000 ) ) ;
#287 = MECHANICAL_DESIGN_GEOMETRIC_PRESENTATION_REPRESENTATION (  '', ( #108 ), #277 ) ;
#288 = ORIENTED_EDGE ( 'NONE', *, *, #59, .F. ) ;
#289 = FILL_AREA_STYLE_COLOUR ( '', #252 ) ;
#290 =( NAMED_UNIT ( * ) SI_UNIT ( $, .STERADIAN. ) SOLID_ANGLE_UNIT ( ) );
#291 = DIRECTION ( 'NONE',  ( -1.000000000000000000, 0.0000000000000000000, 1.224646799147353700E-16 ) ) ;
#292 = ORIENTED_EDGE ( 'NONE', *, *, #237, .F. ) ;
#293 = CIRCLE ( 'NONE', #25, 0.06250000000000002776 ) ;
#294 = PRESENTATION_STYLE_ASSIGNMENT (( #179 ) ) ;
#295 = CARTESIAN_POINT ( 'NONE',  ( 0.0000000000000000000, 0.0000000000000000000, 1.500000000000000222 ) ) ;
#296 =( LENGTH_UNIT ( ) NAMED_UNIT ( * ) SI_UNIT ( $, .METRE. ) );
#297 = UNCERTAINTY_MEASURE_WITH_UNIT (LENGTH_MEASURE( 1.000000000000000082E-05 ), #192, 'distance_accuracy_value', 'NONE');
#298 = PLANE ( 'NONE',  #190 ) ;
#299 = FACE_OUTER_BOUND ( 'NONE', #126, .T. ) ;
ENDSEC;
END-ISO-10303-21;
