ISO-10303-21;
HEADER;
FILE_DESCRIPTION (( 'STEP AP214' ),
    '1' );
FILE_NAME ('Micro_RNC-250-2X.STEP',
    '2021-09-03T17:37:00',
    ( '' ),
    ( '' ),
    'SwSTEP 2.0',
    'SolidWorks 2020',
    '' );
FILE_SCHEMA (( 'AUTOMOTIVE_DESIGN' ));
ENDSEC;

DATA;
#1 = EDGE_LOOP ( 'NONE', ( #211, #36, #197, #17 ) ) ;
#2 = DIRECTION ( 'NONE',  ( -1.000000000000000000, 0.0000000000000000000, 0.0000000000000000000 ) ) ;
#3 = FILL_AREA_STYLE_COLOUR ( '', #56 ) ;
#4 = DIRECTION ( 'NONE',  ( -1.000000000000000000, 0.0000000000000000000, 0.0000000000000000000 ) ) ;
#5 = CIRCLE ( 'NONE', #13, 0.1250000000000000000 ) ;
#6 = EDGE_LOOP ( 'NONE', ( #69, #76, #14, #190 ) ) ;
#7 = EDGE_CURVE ( 'NONE', #45, #175, #198, .T. ) ;
#8 = CARTESIAN_POINT ( 'NONE',  ( 0.0000000000000000000, 0.0000000000000000000, 0.0000000000000000000 ) ) ;
#9 = STYLED_ITEM ( 'NONE', ( #16 ), #109 ) ;
#10 = DIRECTION ( 'NONE',  ( 0.0000000000000000000, 0.0000000000000000000, 1.000000000000000000 ) ) ;
#11 = FACE_OUTER_BOUND ( 'NONE', #228, .T. ) ;
#12 = ORIENTED_EDGE ( 'NONE', *, *, #128, .F. ) ;
#13 = AXIS2_PLACEMENT_3D ( 'NONE', #64, #135, #220 ) ;
#14 = ORIENTED_EDGE ( 'NONE', *, *, #52, .T. ) ;
#15 = PRODUCT ( 'Micro_RNC-250-2X', 'Micro_RNC-250-2X', '', ( #46 ) ) ;
#16 = PRESENTATION_STYLE_ASSIGNMENT (( #54 ) ) ;
#17 = ORIENTED_EDGE ( 'NONE', *, *, #7, .F. ) ;
#18 = VECTOR ( 'NONE', #191, 39.37007874015748143 ) ;
#19 = CARTESIAN_POINT ( 'NONE',  ( 0.0000000000000000000, 0.0000000000000000000, 0.0000000000000000000 ) ) ;
#20 = ADVANCED_FACE ( 'NONE', ( #202 ), #107, .T. ) ;
#21 = CARTESIAN_POINT ( 'NONE',  ( 0.003999999999999999216, 0.0000000000000000000, 2.500000000000000000 ) ) ;
#22 = DIRECTION ( 'NONE',  ( -0.0000000000000000000, -0.0000000000000000000, -1.000000000000000000 ) ) ;
#23 = DIRECTION ( 'NONE',  ( 0.7071067811865490160, 0.0000000000000000000, -0.7071067811865460184 ) ) ;
#24 = PRESENTATION_LAYER_ASSIGNMENT (  '', '', ( #75 ) ) ;
#25 =( NAMED_UNIT ( * ) PLANE_ANGLE_UNIT ( ) SI_UNIT ( $, .RADIAN. ) );
#26 = DIRECTION ( 'NONE',  ( 1.000000000000000000, 0.0000000000000000000, 0.0000000000000000000 ) ) ;
#27 = PRODUCT_DEFINITION_CONTEXT ( 'detailed design', #172, 'design' ) ;
#28 =( NAMED_UNIT ( * ) SI_UNIT ( $, .STERADIAN. ) SOLID_ANGLE_UNIT ( ) );
#29 = APPLICATION_PROTOCOL_DEFINITION ( 'draft international standard', 'automotive_design', 1998, #160 ) ;
#30 = AXIS2_PLACEMENT_3D ( 'NONE', #222, #204, #51 ) ;
#31 = DIRECTION ( 'NONE',  ( 0.0000000000000000000, 0.0000000000000000000, -1.000000000000000000 ) ) ;
#32 = CLOSED_SHELL ( 'NONE', ( #34, #110, #200, #218, #20, #187, #195, #240 ) ) ;
#33 = DIRECTION ( 'NONE',  ( -0.0000000000000000000, -0.0000000000000000000, -1.000000000000000000 ) ) ;
#34 = ADVANCED_FACE ( 'NONE', ( #238 ), #50, .T. ) ;
#35 = VECTOR ( 'NONE', #186, 39.37007874015748143 ) ;
#36 = ORIENTED_EDGE ( 'NONE', *, *, #157, .T. ) ;
#37 = VECTOR ( 'NONE', #244, 39.37007874015748143 ) ;
#38 = VECTOR ( 'NONE', #23, 39.37007874015748143 ) ;
#39 = PRESENTATION_STYLE_ASSIGNMENT (( #183 ) ) ;
#40 = CARTESIAN_POINT ( 'NONE',  ( -0.003999999999999999216, 7.898971854500427644E-18, 0.0000000000000000000 ) ) ;
#41 = CARTESIAN_POINT ( 'NONE',  ( 0.0000000000000000000, 0.0000000000000000000, 2.500000000000000000 ) ) ;
#42 = DIRECTION ( 'NONE',  ( -0.0000000000000000000, -0.0000000000000000000, -1.000000000000000000 ) ) ;
#43 =( NAMED_UNIT ( * ) PLANE_ANGLE_UNIT ( ) SI_UNIT ( $, .RADIAN. ) );
#44 = ORIENTED_EDGE ( 'NONE', *, *, #128, .T. ) ;
#45 = VERTEX_POINT ( 'NONE', #177 ) ;
#46 = PRODUCT_CONTEXT ( 'NONE', #160, 'mechanical' ) ;
#47 = DIRECTION ( 'NONE',  ( -0.7071067811865490160, 8.659560562354951347E-17, 0.7071067811865460184 ) ) ;
#48 = SHAPE_DEFINITION_REPRESENTATION ( #208, #210 ) ;
#49 = PRESENTATION_LAYER_ASSIGNMENT (  '', '', ( #9 ) ) ;
#50 = CONICAL_SURFACE ( 'NONE', #176, 0.003999999999999999216, 0.7853981633974503884 ) ;
#51 = DIRECTION ( 'NONE',  ( 1.000000000000000000, 0.0000000000000000000, 0.0000000000000000000 ) ) ;
#52 = EDGE_CURVE ( 'NONE', #120, #192, #93, .T. ) ;
#53 = AXIS2_PLACEMENT_3D ( 'NONE', #68, #178, #2 ) ;
#54 = SURFACE_STYLE_USAGE ( .BOTH. , #127 ) ;
#55 = ORIENTED_EDGE ( 'NONE', *, *, #61, .T. ) ;
#56 = COLOUR_RGB ( '',0.7921568627450980005, 0.8196078431372548767, 0.9333333333333333481 ) ;
#57 = EDGE_LOOP ( 'NONE', ( #12, #55, #79, #119 ) ) ;
#58 = EDGE_CURVE ( 'NONE', #201, #175, #5, .T. ) ;
#59 = CIRCLE ( 'NONE', #167, 0.003999999999999999216 ) ;
#60 = DIRECTION ( 'NONE',  ( -1.000000000000000000, 0.0000000000000000000, 0.0000000000000000000 ) ) ;
#61 = EDGE_CURVE ( 'NONE', #175, #201, #77, .T. ) ;
#62 = CARTESIAN_POINT ( 'NONE',  ( 0.0000000000000000000, 0.0000000000000000000, 0.1209999999999995107 ) ) ;
#63 = CYLINDRICAL_SURFACE ( 'NONE', #65, 0.1250000000000000000 ) ;
#64 = CARTESIAN_POINT ( 'NONE',  ( 0.0000000000000000000, 0.0000000000000000000, 2.379000000000000448 ) ) ;
#65 = AXIS2_PLACEMENT_3D ( 'NONE', #67, #136, #248 ) ;
#66 = VERTEX_POINT ( 'NONE', #40 ) ;
#67 = CARTESIAN_POINT ( 'NONE',  ( 0.0000000000000000000, 0.0000000000000000000, 2.500000000000000000 ) ) ;
#68 = CARTESIAN_POINT ( 'NONE',  ( 0.0000000000000000000, 0.0000000000000000000, 2.500000000000000000 ) ) ;
#69 = ORIENTED_EDGE ( 'NONE', *, *, #239, .F. ) ;
#70 = DIRECTION ( 'NONE',  ( 1.000000000000000000, 0.0000000000000000000, -0.0000000000000000000 ) ) ;
#71 = EDGE_CURVE ( 'NONE', #130, #66, #241, .T. ) ;
#72 =( LENGTH_UNIT ( ) NAMED_UNIT ( * ) SI_UNIT ( $, .METRE. ) );
#73 = DIRECTION ( 'NONE',  ( -1.000000000000000000, 0.0000000000000000000, 0.0000000000000000000 ) ) ;
#74 = AXIS2_PLACEMENT_3D ( 'NONE', #101, #233, #84 ) ;
#75 = STYLED_ITEM ( 'NONE', ( #39 ), #210 ) ;
#76 = ORIENTED_EDGE ( 'NONE', *, *, #85, .T. ) ;
#77 = CIRCLE ( 'NONE', #145, 0.1250000000000000000 ) ;
#78 = FILL_AREA_STYLE_COLOUR ( '', #143 ) ;
#79 = ORIENTED_EDGE ( 'NONE', *, *, #114, .T. ) ;
#80 = SURFACE_SIDE_STYLE ('',( #134 ) ) ;
#81 = ORIENTED_EDGE ( 'NONE', *, *, #103, .T. ) ;
#82 = DIRECTION ( 'NONE',  ( -1.000000000000000000, 0.0000000000000000000, 0.0000000000000000000 ) ) ;
#83 = LINE ( 'NONE', #216, #231 ) ;
#84 = DIRECTION ( 'NONE',  ( 1.000000000000000000, 0.0000000000000000000, 0.0000000000000000000 ) ) ;
#85 = EDGE_CURVE ( 'NONE', #66, #120, #83, .T. ) ;
#86 = CARTESIAN_POINT ( 'NONE',  ( 0.0000000000000000000, 0.0000000000000000000, 0.0000000000000000000 ) ) ;
#87 = AXIS2_PLACEMENT_3D ( 'NONE', #62, #42, #141 ) ;
#88 = DIRECTION ( 'NONE',  ( 1.000000000000000000, 0.0000000000000000000, 0.0000000000000000000 ) ) ;
#89 = DIRECTION ( 'NONE',  ( 0.0000000000000000000, 0.0000000000000000000, 1.000000000000000000 ) ) ;
#90 = LINE ( 'NONE', #91, #37 ) ;
#91 = CARTESIAN_POINT ( 'NONE',  ( -0.1250000000000000000, 0.0000000000000000000, 2.500000000000000000 ) ) ;
#92 = FACE_OUTER_BOUND ( 'NONE', #6, .T. ) ;
#93 = CIRCLE ( 'NONE', #87, 0.1250000000000000000 ) ;
#94 = EDGE_LOOP ( 'NONE', ( #245, #44, #232, #235 ) ) ;
#95 = EDGE_CURVE ( 'NONE', #192, #120, #221, .T. ) ;
#96 = DIRECTION ( 'NONE',  ( 0.0000000000000000000, 0.0000000000000000000, 1.000000000000000000 ) ) ;
#97 = PRODUCT_DEFINITION_FORMATION_WITH_SPECIFIED_SOURCE ( 'ANY', '', #15, .NOT_KNOWN. ) ;
#98 = ORIENTED_EDGE ( 'NONE', *, *, #239, .T. ) ;
#99 = FACE_OUTER_BOUND ( 'NONE', #57, .T. ) ;
#100 = PRODUCT_DEFINITION ( 'UNKNOWN', '', #97, #27 ) ;
#101 = CARTESIAN_POINT ( 'NONE',  ( 0.0000000000000000000, 0.0000000000000000000, 0.0000000000000000000 ) ) ;
#102 = DIRECTION ( 'NONE',  ( -0.0000000000000000000, -0.0000000000000000000, -1.000000000000000000 ) ) ;
#103 = EDGE_CURVE ( 'NONE', #130, #192, #237, .T. ) ;
#104 = DIRECTION ( 'NONE',  ( -1.000000000000000000, 0.0000000000000000000, 0.0000000000000000000 ) ) ;
#105 =( LENGTH_UNIT ( ) NAMED_UNIT ( * ) SI_UNIT ( $, .METRE. ) );
#106 = CARTESIAN_POINT ( 'NONE',  ( 0.003999999999999999216, 0.0000000000000000000, 0.0000000000000000000 ) ) ;
#107 = CONICAL_SURFACE ( 'NONE', #74, 0.003999999999999999216, 0.7853981633974503884 ) ;
#108 = CIRCLE ( 'NONE', #129, 0.003999999999999999216 ) ;
#109 = MANIFOLD_SOLID_BREP ( 'Mirror1', #32 ) ;
#110 = ADVANCED_FACE ( 'NONE', ( #92 ), #188, .T. ) ;
#111 = ORIENTED_EDGE ( 'NONE', *, *, #236, .F. ) ;
#112 = EDGE_LOOP ( 'NONE', ( #152, #111 ) ) ;
#113 = VECTOR ( 'NONE', #33, 39.37007874015748143 ) ;
#114 = EDGE_CURVE ( 'NONE', #201, #120, #90, .T. ) ;
#115 = CARTESIAN_POINT ( 'NONE',  ( -0.1250000000000000000, 0.0000000000000000000, 2.379000000000000448 ) ) ;
#116 = DIRECTION ( 'NONE',  ( 0.0000000000000000000, 0.0000000000000000000, 1.000000000000000000 ) ) ;
#117 = DIRECTION ( 'NONE',  ( -1.000000000000000000, 0.0000000000000000000, 0.0000000000000000000 ) ) ;
#118 = LENGTH_MEASURE_WITH_UNIT ( LENGTH_MEASURE( 0.02539999999999999897 ), #161 );
#119 = ORIENTED_EDGE ( 'NONE', *, *, #95, .F. ) ;
#120 = VERTEX_POINT ( 'NONE', #171 ) ;
#121 = AXIS2_PLACEMENT_3D ( 'NONE', #123, #102, #117 ) ;
#122 = CARTESIAN_POINT ( 'NONE',  ( 0.0000000000000000000, 0.0000000000000000000, 0.0000000000000000000 ) ) ;
#123 = CARTESIAN_POINT ( 'NONE',  ( 0.0000000000000000000, 0.0000000000000000000, 0.1209999999999995107 ) ) ;
#124 = FACE_OUTER_BOUND ( 'NONE', #196, .T. ) ;
#125 = FACE_OUTER_BOUND ( 'NONE', #94, .T. ) ;
#126 = CIRCLE ( 'NONE', #53, 0.003999999999999999216 ) ;
#127 = SURFACE_SIDE_STYLE ('',( #206 ) ) ;
#128 = EDGE_CURVE ( 'NONE', #175, #192, #149, .T. ) ;
#129 = AXIS2_PLACEMENT_3D ( 'NONE', #225, #31, #73 ) ;
#130 = VERTEX_POINT ( 'NONE', #227 ) ;
#131 = CARTESIAN_POINT ( 'NONE',  ( 0.0000000000000000000, 0.0000000000000000000, 2.500000000000000000 ) ) ;
#132 = AXIS2_PLACEMENT_3D ( 'NONE', #131, #247, #60 ) ;
#133 = ORIENTED_EDGE ( 'NONE', *, *, #71, .T. ) ;
#134 = SURFACE_STYLE_FILL_AREA ( #219 ) ;
#135 = DIRECTION ( 'NONE',  ( 0.0000000000000000000, 0.0000000000000000000, -1.000000000000000000 ) ) ;
#136 = DIRECTION ( 'NONE',  ( -0.0000000000000000000, -0.0000000000000000000, -1.000000000000000000 ) ) ;
#137 = DIRECTION ( 'NONE',  ( 0.0000000000000000000, 0.0000000000000000000, -1.000000000000000000 ) ) ;
#138 = UNCERTAINTY_MEASURE_WITH_UNIT (LENGTH_MEASURE( 1.000000000000000082E-05 ), #203, 'distance_accuracy_value', 'NONE');
#139 = ORIENTED_EDGE ( 'NONE', *, *, #157, .F. ) ;
#140 = VERTEX_POINT ( 'NONE', #189 ) ;
#141 = DIRECTION ( 'NONE',  ( -1.000000000000000000, 0.0000000000000000000, 0.0000000000000000000 ) ) ;
#142 =( NAMED_UNIT ( * ) PLANE_ANGLE_UNIT ( ) SI_UNIT ( $, .RADIAN. ) );
#143 = COLOUR_RGB ( '',0.7921568627450980005, 0.8196078431372548767, 0.9333333333333333481 ) ;
#144 = CARTESIAN_POINT ( 'NONE',  ( 0.1250000000000000000, 1.530808498934191509E-17, 0.1209999999999995107 ) ) ;
#145 = AXIS2_PLACEMENT_3D ( 'NONE', #164, #137, #104 ) ;
#146 = DIMENSIONAL_EXPONENTS ( 1.000000000000000000, 0.0000000000000000000, 0.0000000000000000000, 0.0000000000000000000, 0.0000000000000000000, 0.0000000000000000000, 0.0000000000000000000 ) ;
#147 =( GEOMETRIC_REPRESENTATION_CONTEXT ( 3 ) GLOBAL_UNCERTAINTY_ASSIGNED_CONTEXT ( ( #138 ) ) GLOBAL_UNIT_ASSIGNED_CONTEXT ( ( #203, #142, #28 ) ) REPRESENTATION_CONTEXT ( 'NONE', 'WORKASPACE' ) );
#148 = DIMENSIONAL_EXPONENTS ( 1.000000000000000000, 0.0000000000000000000, 0.0000000000000000000, 0.0000000000000000000, 0.0000000000000000000, 0.0000000000000000000, 0.0000000000000000000 ) ;
#149 = LINE ( 'NONE', #209, #113 ) ;
#150 = UNCERTAINTY_MEASURE_WITH_UNIT (LENGTH_MEASURE( 1.000000000000000082E-05 ), #180, 'distance_accuracy_value', 'NONE');
#151 = DIMENSIONAL_EXPONENTS ( 1.000000000000000000, 0.0000000000000000000, 0.0000000000000000000, 0.0000000000000000000, 0.0000000000000000000, 0.0000000000000000000, 0.0000000000000000000 ) ;
#152 = ORIENTED_EDGE ( 'NONE', *, *, #169, .F. ) ;
#153 =( GEOMETRIC_REPRESENTATION_CONTEXT ( 3 ) GLOBAL_UNCERTAINTY_ASSIGNED_CONTEXT ( ( #150 ) ) GLOBAL_UNIT_ASSIGNED_CONTEXT ( ( #180, #25, #156 ) ) REPRESENTATION_CONTEXT ( 'NONE', 'WORKASPACE' ) );
#154 = FACE_OUTER_BOUND ( 'NONE', #112, .T. ) ;
#155 = ORIENTED_EDGE ( 'NONE', *, *, #58, .F. ) ;
#157 = EDGE_CURVE ( 'NONE', #140, #201, #170, .T. ) ;
#156 =( NAMED_UNIT ( * ) SI_UNIT ( $, .STERADIAN. ) SOLID_ANGLE_UNIT ( ) );
#158 = DIRECTION ( 'NONE',  ( 0.0000000000000000000, 0.0000000000000000000, -1.000000000000000000 ) ) ;
#159 = CARTESIAN_POINT ( 'NONE',  ( -0.003999999999999999216, -4.898587196589411612E-19, 2.500000000000000000 ) ) ;
#160 = APPLICATION_CONTEXT ( 'automotive_design' ) ;
#161 =( LENGTH_UNIT ( ) NAMED_UNIT ( * ) SI_UNIT ( $, .METRE. ) );
#162 = AXIS2_PLACEMENT_3D ( 'NONE', #8, #96, #212 ) ;
#163 =( CONVERSION_BASED_UNIT ( 'INCH', #217 ) LENGTH_UNIT ( ) NAMED_UNIT ( #148 ) );
#164 = CARTESIAN_POINT ( 'NONE',  ( 0.0000000000000000000, 0.0000000000000000000, 2.379000000000000448 ) ) ;
#165 = CARTESIAN_POINT ( 'NONE',  ( 0.0000000000000000000, 0.0000000000000000000, 2.500000000000000000 ) ) ;
#166 = APPLICATION_PROTOCOL_DEFINITION ( 'draft international standard', 'automotive_design', 1998, #172 ) ;
#167 = AXIS2_PLACEMENT_3D ( 'NONE', #19, #234, #82 ) ;
#168 = CARTESIAN_POINT ( 'NONE',  ( 0.1250000000000000000, 1.530808498934191509E-17, 2.379000000000000448 ) ) ;
#169 = EDGE_CURVE ( 'NONE', #45, #140, #108, .T. ) ;
#170 = LINE ( 'NONE', #159, #18 ) ;
#171 = CARTESIAN_POINT ( 'NONE',  ( -0.1250000000000000000, 0.0000000000000000000, 0.1209999999999995107 ) ) ;
#172 = APPLICATION_CONTEXT ( 'automotive_design' ) ;
#173 =( GEOMETRIC_REPRESENTATION_CONTEXT ( 3 ) GLOBAL_UNCERTAINTY_ASSIGNED_CONTEXT ( ( #246 ) ) GLOBAL_UNIT_ASSIGNED_CONTEXT ( ( #163, #43, #199 ) ) REPRESENTATION_CONTEXT ( 'NONE', 'WORKASPACE' ) );
#174 = ORIENTED_EDGE ( 'NONE', *, *, #236, .T. ) ;
#175 = VERTEX_POINT ( 'NONE', #168 ) ;
#176 = AXIS2_PLACEMENT_3D ( 'NONE', #165, #158, #26 ) ;
#177 = CARTESIAN_POINT ( 'NONE',  ( 0.003999999999999999216, 0.0000000000000000000, 2.500000000000000000 ) ) ;
#178 = DIRECTION ( 'NONE',  ( 0.0000000000000000000, 0.0000000000000000000, -1.000000000000000000 ) ) ;
#179 = ORIENTED_EDGE ( 'NONE', *, *, #7, .T. ) ;
#180 =( CONVERSION_BASED_UNIT ( 'INCH', #118 ) LENGTH_UNIT ( ) NAMED_UNIT ( #146 ) );
#181 = CARTESIAN_POINT ( 'NONE',  ( 0.0000000000000000000, 0.0000000000000000000, 0.0000000000000000000 ) ) ;
#182 = AXIS2_PLACEMENT_3D ( 'NONE', #86, #89, #70 ) ;
#183 = SURFACE_STYLE_USAGE ( .BOTH. , #80 ) ;
#184 = ORIENTED_EDGE ( 'NONE', *, *, #85, .F. ) ;
#185 = LENGTH_MEASURE_WITH_UNIT ( LENGTH_MEASURE( 0.02539999999999999897 ), #72 );
#186 = DIRECTION ( 'NONE',  ( 0.7071067811865490160, 0.0000000000000000000, 0.7071067811865460184 ) ) ;
#187 = ADVANCED_FACE ( 'NONE', ( #11 ), #226, .F. ) ;
#188 = CONICAL_SURFACE ( 'NONE', #162, 0.003999999999999999216, 0.7853981633974503884 ) ;
#189 = CARTESIAN_POINT ( 'NONE',  ( -0.003999999999999999216, -7.898971854500427644E-18, 2.500000000000000000 ) ) ;
#190 = ORIENTED_EDGE ( 'NONE', *, *, #103, .F. ) ;
#191 = DIRECTION ( 'NONE',  ( -0.7071067811865490160, -8.659560562354951347E-17, -0.7071067811865460184 ) ) ;
#192 = VERTEX_POINT ( 'NONE', #144 ) ;
#193 = MECHANICAL_DESIGN_GEOMETRIC_PRESENTATION_REPRESENTATION (  '', ( #75 ), #153 ) ;
#194 = ORIENTED_EDGE ( 'NONE', *, *, #95, .T. ) ;
#195 = ADVANCED_FACE ( 'NONE', ( #124 ), #249, .T. ) ;
#196 = EDGE_LOOP ( 'NONE', ( #139, #174, #179, #155 ) ) ;
#197 = ORIENTED_EDGE ( 'NONE', *, *, #61, .F. ) ;
#198 = LINE ( 'NONE', #21, #38 ) ;
#200 = ADVANCED_FACE ( 'NONE', ( #125 ), #205, .T. ) ;
#199 =( NAMED_UNIT ( * ) SI_UNIT ( $, .STERADIAN. ) SOLID_ANGLE_UNIT ( ) );
#201 = VERTEX_POINT ( 'NONE', #115 ) ;
#202 = FACE_OUTER_BOUND ( 'NONE', #243, .T. ) ;
#203 =( CONVERSION_BASED_UNIT ( 'INCH', #185 ) LENGTH_UNIT ( ) NAMED_UNIT ( #151 ) );
#204 = DIRECTION ( 'NONE',  ( 0.0000000000000000000, 0.0000000000000000000, -1.000000000000000000 ) ) ;
#205 = CYLINDRICAL_SURFACE ( 'NONE', #132, 0.1250000000000000000 ) ;
#206 = SURFACE_STYLE_FILL_AREA ( #223 ) ;
#207 = AXIS2_PLACEMENT_3D ( 'NONE', #122, #10, #88 ) ;
#208 = PRODUCT_DEFINITION_SHAPE ( 'NONE', 'NONE',  #100 ) ;
#209 = CARTESIAN_POINT ( 'NONE',  ( 0.1250000000000000000, 1.530808498934191509E-17, 2.500000000000000000 ) ) ;
#210 = ADVANCED_BREP_SHAPE_REPRESENTATION ( 'Micro_RNC-250-2X', ( #109, #207 ), #173 ) ;
#211 = ORIENTED_EDGE ( 'NONE', *, *, #169, .T. ) ;
#212 = DIRECTION ( 'NONE',  ( 1.000000000000000000, 0.0000000000000000000, 0.0000000000000000000 ) ) ;
#213 = DIRECTION ( 'NONE',  ( 1.000000000000000000, 0.0000000000000000000, -0.0000000000000000000 ) ) ;
#214 = PRODUCT_RELATED_PRODUCT_CATEGORY ( 'part', '', ( #15 ) ) ;
#215 = PLANE ( 'NONE',  #242 ) ;
#216 = CARTESIAN_POINT ( 'NONE',  ( -0.003999999999999999216, 4.898587196589411612E-19, 0.0000000000000000000 ) ) ;
#217 = LENGTH_MEASURE_WITH_UNIT ( LENGTH_MEASURE( 0.02539999999999999897 ), #105 );
#218 = ADVANCED_FACE ( 'NONE', ( #99 ), #63, .T. ) ;
#219 = FILL_AREA_STYLE ('',( #78 ) ) ;
#220 = DIRECTION ( 'NONE',  ( -1.000000000000000000, 0.0000000000000000000, 0.0000000000000000000 ) ) ;
#221 = CIRCLE ( 'NONE', #121, 0.1250000000000000000 ) ;
#222 = CARTESIAN_POINT ( 'NONE',  ( 0.0000000000000000000, 0.0000000000000000000, 2.500000000000000000 ) ) ;
#223 = FILL_AREA_STYLE ('',( #3 ) ) ;
#224 = MECHANICAL_DESIGN_GEOMETRIC_PRESENTATION_REPRESENTATION (  '', ( #9 ), #147 ) ;
#225 = CARTESIAN_POINT ( 'NONE',  ( 0.0000000000000000000, 0.0000000000000000000, 2.500000000000000000 ) ) ;
#226 = PLANE ( 'NONE',  #182 ) ;
#227 = CARTESIAN_POINT ( 'NONE',  ( 0.003999999999999999216, 0.0000000000000000000, 0.0000000000000000000 ) ) ;
#228 = EDGE_LOOP ( 'NONE', ( #133, #98 ) ) ;
#229 = AXIS2_PLACEMENT_3D ( 'NONE', #181, #22, #4 ) ;
#230 = ORIENTED_EDGE ( 'NONE', *, *, #71, .F. ) ;
#231 = VECTOR ( 'NONE', #47, 39.37007874015748143 ) ;
#232 = ORIENTED_EDGE ( 'NONE', *, *, #52, .F. ) ;
#233 = DIRECTION ( 'NONE',  ( 0.0000000000000000000, 0.0000000000000000000, 1.000000000000000000 ) ) ;
#234 = DIRECTION ( 'NONE',  ( -0.0000000000000000000, -0.0000000000000000000, -1.000000000000000000 ) ) ;
#235 = ORIENTED_EDGE ( 'NONE', *, *, #114, .F. ) ;
#236 = EDGE_CURVE ( 'NONE', #140, #45, #126, .T. ) ;
#237 = LINE ( 'NONE', #106, #35 ) ;
#238 = FACE_OUTER_BOUND ( 'NONE', #1, .T. ) ;
#239 = EDGE_CURVE ( 'NONE', #66, #130, #59, .T. ) ;
#240 = ADVANCED_FACE ( 'NONE', ( #154 ), #215, .T. ) ;
#241 = CIRCLE ( 'NONE', #229, 0.003999999999999999216 ) ;
#242 = AXIS2_PLACEMENT_3D ( 'NONE', #41, #116, #213 ) ;
#243 = EDGE_LOOP ( 'NONE', ( #184, #230, #81, #194 ) ) ;
#244 = DIRECTION ( 'NONE',  ( -0.0000000000000000000, -0.0000000000000000000, -1.000000000000000000 ) ) ;
#245 = ORIENTED_EDGE ( 'NONE', *, *, #58, .T. ) ;
#246 = UNCERTAINTY_MEASURE_WITH_UNIT (LENGTH_MEASURE( 1.000000000000000082E-05 ), #163, 'distance_accuracy_value', 'NONE');
#247 = DIRECTION ( 'NONE',  ( -0.0000000000000000000, -0.0000000000000000000, -1.000000000000000000 ) ) ;
#248 = DIRECTION ( 'NONE',  ( -1.000000000000000000, 0.0000000000000000000, 0.0000000000000000000 ) ) ;
#249 = CONICAL_SURFACE ( 'NONE', #30, 0.003999999999999999216, 0.7853981633974503884 ) ;
ENDSEC;
END-ISO-10303-21;
