ISO-10303-21;
HEADER;
FILE_DESCRIPTION (( 'STEP AP214' ),
    '1' );
FILE_NAME ('49076.STEP',
    '2023-06-30T21:57:15',
    ( '' ),
    ( '' ),
    'SwSTEP 2.0',
    'SolidWorks 2023',
    '' );
FILE_SCHEMA (( 'AUTOMOTIVE_DESIGN' ));
ENDSEC;

DATA;
#1 = FACE_OUTER_BOUND ( 'NONE', #209, .T. ) ;
#2 = ORIENTED_EDGE ( 'NONE', *, *, #275, .F. ) ;
#3 = CARTESIAN_POINT ( 'NONE',  ( 1.530808498934190893E-17, 0.3749999999999999445, 0.1249999999999999445 ) ) ;
#4 = EDGE_LOOP ( 'NONE', ( #117, #9, #122, #186 ) ) ;
#5 = CIRCLE ( 'NONE', #14, 0.1249999999999996253 ) ;
#6 = EDGE_LOOP ( 'NONE', ( #131, #141, #211, #59 ) ) ;
#7 = FILL_AREA_STYLE_COLOUR ( '', #356 ) ;
#8 =( LENGTH_UNIT ( ) NAMED_UNIT ( * ) SI_UNIT ( $, .METRE. ) );
#9 = ORIENTED_EDGE ( 'NONE', *, *, #208, .T. ) ;
#10 = SURFACE_STYLE_USAGE ( .BOTH. , #312 ) ;
#11 = CARTESIAN_POINT ( 'NONE',  ( 0.000000000000000000, 0.1250000000000000278, 0.000000000000000000 ) ) ;
#12 = ORIENTED_EDGE ( 'NONE', *, *, #133, .T. ) ;
#13 = ADVANCED_FACE ( 'NONE', ( #1 ), #127, .T. ) ;
#14 = AXIS2_PLACEMENT_3D ( 'NONE', #54, #170, #111 ) ;
#15 = ORIENTED_EDGE ( 'NONE', *, *, #146, .F. ) ;
#16 = PRESENTATION_STYLE_ASSIGNMENT (( #62 ) ) ;
#17 = FILL_AREA_STYLE_COLOUR ( '', #42 ) ;
#18 = CARTESIAN_POINT ( 'NONE',  ( 3.202894195553161790E-16, 0.3749999999999999445, 0.000000000000000000 ) ) ;
#19 = CYLINDRICAL_SURFACE ( 'NONE', #299, 0.1249999999999997224 ) ;
#20 = AXIS2_PLACEMENT_3D ( 'NONE', #228, #194, #138 ) ;
#21 =( NAMED_UNIT ( * ) SI_UNIT ( $, .STERADIAN. ) SOLID_ANGLE_UNIT ( ) );
#22 = EDGE_CURVE ( 'NONE', #176, #317, #338, .T. ) ;
#23 = UNCERTAINTY_MEASURE_WITH_UNIT (LENGTH_MEASURE( 1.000000000000000082E-05 ), #140, 'distance_accuracy_value', 'NONE');
#24 = DIRECTION ( 'NONE',  ( 0.000000000000000000, 0.000000000000000000, 1.000000000000000000 ) ) ;
#25 = FILL_AREA_STYLE ('',( #109 ) ) ;
#26 = STYLED_ITEM ( 'NONE', ( #329 ), #265 ) ;
#27 = CARTESIAN_POINT ( 'NONE',  ( 3.202894195553161790E-16, 0.3749999999999999445, 0.000000000000000000 ) ) ;
#28 =( GEOMETRIC_REPRESENTATION_CONTEXT ( 3 ) GLOBAL_UNCERTAINTY_ASSIGNED_CONTEXT ( ( #78 ) ) GLOBAL_UNIT_ASSIGNED_CONTEXT ( ( #270, #52, #341 ) ) REPRESENTATION_CONTEXT ( 'NONE', 'WORKASPACE' ) );
#29 = ORIENTED_EDGE ( 'NONE', *, *, #275, .T. ) ;
#30 = SURFACE_STYLE_USAGE ( .BOTH. , #313 ) ;
#31 = DIRECTION ( 'NONE',  ( -1.000000000000000000, 0.000000000000000000, 0.000000000000000000 ) ) ;
#32 =( LENGTH_UNIT ( ) NAMED_UNIT ( * ) SI_UNIT ( $, .METRE. ) );
#33 =( GEOMETRIC_REPRESENTATION_CONTEXT ( 3 ) GLOBAL_UNCERTAINTY_ASSIGNED_CONTEXT ( ( #225 ) ) GLOBAL_UNIT_ASSIGNED_CONTEXT ( ( #222, #227, #21 ) ) REPRESENTATION_CONTEXT ( 'NONE', 'WORKASPACE' ) );
#34 = VERTEX_POINT ( 'NONE', #98 ) ;
#35 = ADVANCED_FACE ( 'NONE', ( #330 ), #73, .F. ) ;
#36 = LENGTH_MEASURE_WITH_UNIT ( LENGTH_MEASURE( 0.02539999999999999897 ), #8 );
#37 = DIMENSIONAL_EXPONENTS ( 1.000000000000000000, 0.000000000000000000, 0.000000000000000000, 0.000000000000000000, 0.000000000000000000, 0.000000000000000000, 0.000000000000000000 ) ;
#38 = DIRECTION ( 'NONE',  ( 0.000000000000000000, 0.000000000000000000, -1.000000000000000000 ) ) ;
#39 = VERTEX_POINT ( 'NONE', #44 ) ;
#40 = FACE_OUTER_BOUND ( 'NONE', #70, .T. ) ;
#41 = CIRCLE ( 'NONE', #20, 0.1250000000000000000 ) ;
#42 = COLOUR_RGB ( '',1.000000000000000000, 0.000000000000000000, 0.000000000000000000 ) ;
#43 = ADVANCED_BREP_SHAPE_REPRESENTATION ( '49076', ( #193, #74, #173 ), #344 ) ;
#44 = CARTESIAN_POINT ( 'NONE',  ( -7.654042494670957545E-18, 0.000000000000000000, 0.000000000000000000 ) ) ;
#45 = LENGTH_MEASURE_WITH_UNIT ( LENGTH_MEASURE( 0.02539999999999999897 ), #60 );
#46 = DIRECTION ( 'NONE',  ( -1.217383013172805092E-16, 1.000000000000000000, -0.000000000000000000 ) ) ;
#47 = CARTESIAN_POINT ( 'NONE',  ( 0.000000000000000000, 0.000000000000000000, 0.000000000000000000 ) ) ;
#48 = SURFACE_STYLE_USAGE ( .BOTH. , #302 ) ;
#49 = CARTESIAN_POINT ( 'NONE',  ( 0.000000000000000000, 0.1250000000000000278, -0.1250000000000000000 ) ) ;
#50 = AXIS2_PLACEMENT_3D ( 'NONE', #307, #51, #197 ) ;
#51 = DIRECTION ( 'NONE',  ( -1.217383013172805092E-16, 1.000000000000000000, -0.000000000000000000 ) ) ;
#52 =( NAMED_UNIT ( * ) PLANE_ANGLE_UNIT ( ) SI_UNIT ( $, .RADIAN. ) );
#53 = DIRECTION ( 'NONE',  ( -0.000000000000000000, -1.000000000000000000, -0.000000000000000000 ) ) ;
#54 = CARTESIAN_POINT ( 'NONE',  ( 3.202894195553161790E-16, 0.3749999999999999445, 0.000000000000000000 ) ) ;
#55 = CIRCLE ( 'NONE', #58, 0.1250000000000000000 ) ;
#56 = PRODUCT_DEFINITION ( 'UNKNOWN', '', #280, #340 ) ;
#57 = PRESENTATION_LAYER_ASSIGNMENT (  '', '', ( #239 ) ) ;
#58 = AXIS2_PLACEMENT_3D ( 'NONE', #11, #246, #187 ) ;
#59 = ORIENTED_EDGE ( 'NONE', *, *, #281, .F. ) ;
#60 =( LENGTH_UNIT ( ) NAMED_UNIT ( * ) SI_UNIT ( $, .METRE. ) );
#61 = ORIENTED_EDGE ( 'NONE', *, *, #281, .T. ) ;
#62 = SURFACE_STYLE_USAGE ( .BOTH. , #90 ) ;
#63 = EDGE_CURVE ( 'NONE', #176, #156, #252, .T. ) ;
#64 = DIRECTION ( 'NONE',  ( 0.000000000000000000, 0.000000000000000000, -1.000000000000000000 ) ) ;
#65 =( GEOMETRIC_REPRESENTATION_CONTEXT ( 3 ) GLOBAL_UNCERTAINTY_ASSIGNED_CONTEXT ( ( #364 ) ) GLOBAL_UNIT_ASSIGNED_CONTEXT ( ( #181, #348, #269 ) ) REPRESENTATION_CONTEXT ( 'NONE', 'WORKASPACE' ) );
#66 = COLOUR_RGB ( '',1.000000000000000000, 0.000000000000000000, 0.000000000000000000 ) ;
#67 = PRESENTATION_STYLE_ASSIGNMENT (( #253 ) ) ;
#68 = ORIENTED_EDGE ( 'NONE', *, *, #233, .F. ) ;
#69 = SPHERICAL_SURFACE ( 'NONE', #75, 0.1250000000000000000 ) ;
#70 = EDGE_LOOP ( 'NONE', ( #315, #242, #95, #87, #263 ) ) ;
#71 = DIRECTION ( 'NONE',  ( -0.000000000000000000, -1.000000000000000000, -0.000000000000000000 ) ) ;
#72 = CARTESIAN_POINT ( 'NONE',  ( -1.530808498934191509E-17, 0.1250000000000000000, 0.000000000000000000 ) ) ;
#73 = PLANE ( 'NONE',  #177 ) ;
#74 = MANIFOLD_SOLID_BREP ( 'Revolve - Tool Body (Straight Shanked)', #287 ) ;
#75 = AXIS2_PLACEMENT_3D ( 'NONE', #124, #134, #220 ) ;
#76 = FILL_AREA_STYLE ('',( #17 ) ) ;
#77 =( NAMED_UNIT ( * ) PLANE_ANGLE_UNIT ( ) SI_UNIT ( $, .RADIAN. ) );
#78 = UNCERTAINTY_MEASURE_WITH_UNIT (LENGTH_MEASURE( 1.000000000000000082E-05 ), #270, 'distance_accuracy_value', 'NONE');
#79 = CARTESIAN_POINT ( 'NONE',  ( 0.000000000000000000, 0.000000000000000000, 0.000000000000000000 ) ) ;
#80 = EDGE_CURVE ( 'NONE', #317, #201, #309, .T. ) ;
#81 = CLOSED_SHELL ( 'NONE', ( #345, #265, #13, #373, #359 ) ) ;
#82 = AXIS2_PLACEMENT_3D ( 'NONE', #294, #38, #155 ) ;
#83 = DIRECTION ( 'NONE',  ( 0.000000000000000000, 0.000000000000000000, -1.000000000000000000 ) ) ;
#84 = SURFACE_STYLE_FILL_AREA ( #25 ) ;
#85 = STYLED_ITEM ( 'NONE', ( #16 ), #193 ) ;
#86 = MECHANICAL_DESIGN_GEOMETRIC_PRESENTATION_REPRESENTATION (  '', ( #147 ), #300 ) ;
#87 = ORIENTED_EDGE ( 'NONE', *, *, #311, .F. ) ;
#88 = COLOUR_RGB ( '',1.000000000000000000, 0.000000000000000000, 0.000000000000000000 ) ;
#89 = ORIENTED_EDGE ( 'NONE', *, *, #63, .T. ) ;
#90 = SURFACE_SIDE_STYLE ('',( #352 ) ) ;
#91 = EDGE_LOOP ( 'NONE', ( #354, #212, #203, #116 ) ) ;
#92 = DIRECTION ( 'NONE',  ( -1.217383013172805092E-16, 1.000000000000000000, -0.000000000000000000 ) ) ;
#93 =( GEOMETRIC_REPRESENTATION_CONTEXT ( 3 ) GLOBAL_UNCERTAINTY_ASSIGNED_CONTEXT ( ( #308 ) ) GLOBAL_UNIT_ASSIGNED_CONTEXT ( ( #135, #77, #157 ) ) REPRESENTATION_CONTEXT ( 'NONE', 'WORKASPACE' ) );
#94 = SURFACE_SIDE_STYLE ('',( #161 ) ) ;
#95 = ORIENTED_EDGE ( 'NONE', *, *, #121, .F. ) ;
#96 = CARTESIAN_POINT ( 'NONE',  ( 0.000000000000000000, 0.3749999999999999445, 0.000000000000000000 ) ) ;
#97 = CARTESIAN_POINT ( 'NONE',  ( 0.1249999999999999445, 2.000000000000000000, 0.000000000000000000 ) ) ;
#98 = CARTESIAN_POINT ( 'NONE',  ( -0.1250000000000000000, 0.1250000000000000278, 1.530808498934191201E-17 ) ) ;
#99 = FILL_AREA_STYLE ('',( #363 ) ) ;
#100 = MECHANICAL_DESIGN_GEOMETRIC_PRESENTATION_REPRESENTATION (  '', ( #316 ), #190 ) ;
#101 = SURFACE_STYLE_FILL_AREA ( #76 ) ;
#102 = FILL_AREA_STYLE_COLOUR ( '', #369 ) ;
#103 = LINE ( 'NONE', #226, #142 ) ;
#104 = FACE_OUTER_BOUND ( 'NONE', #6, .T. ) ;
#105 = AXIS2_PLACEMENT_3D ( 'NONE', #268, #355, #319 ) ;
#106 =( NAMED_UNIT ( * ) PLANE_ANGLE_UNIT ( ) SI_UNIT ( $, .RADIAN. ) );
#107 = CIRCLE ( 'NONE', #216, 0.1249999999999996253 ) ;
#108 = UNCERTAINTY_MEASURE_WITH_UNIT (LENGTH_MEASURE( 1.000000000000000082E-05 ), #199, 'distance_accuracy_value', 'NONE');
#109 = FILL_AREA_STYLE_COLOUR ( '', #232 ) ;
#110 = VERTEX_POINT ( 'NONE', #310 ) ;
#111 = DIRECTION ( 'NONE',  ( -1.000000000000000000, 0.000000000000000000, 0.000000000000000000 ) ) ;
#112 = SURFACE_STYLE_FILL_AREA ( #291 ) ;
#113 = COLOUR_RGB ( '',1.000000000000000000, 0.000000000000000000, 0.000000000000000000 ) ;
#114 = CYLINDRICAL_SURFACE ( 'NONE', #165, 0.1249999999999997224 ) ;
#115 = DIRECTION ( 'NONE',  ( -1.217383013172805092E-16, 1.000000000000000000, -0.000000000000000000 ) ) ;
#116 = ORIENTED_EDGE ( 'NONE', *, *, #121, .T. ) ;
#117 = ORIENTED_EDGE ( 'NONE', *, *, #215, .F. ) ;
#118 = CIRCLE ( 'NONE', #333, 0.1250000000000000000 ) ;
#119 = CARTESIAN_POINT ( 'NONE',  ( 0.000000000000000000, 0.3749999999999999445, -0.1249999999999999445 ) ) ;
#120 = MECHANICAL_DESIGN_GEOMETRIC_PRESENTATION_REPRESENTATION (  '', ( #239 ), #28 ) ;
#121 = EDGE_CURVE ( 'NONE', #178, #201, #41, .T. ) ;
#122 = ORIENTED_EDGE ( 'NONE', *, *, #311, .T. ) ;
#123 = FILL_AREA_STYLE ('',( #7 ) ) ;
#124 = CARTESIAN_POINT ( 'NONE',  ( -1.530808498934191509E-17, 0.1250000000000000000, 0.000000000000000000 ) ) ;
#125 = ORIENTED_EDGE ( 'NONE', *, *, #231, .T. ) ;
#126 = PRESENTATION_STYLE_ASSIGNMENT (( #10 ) ) ;
#127 = PLANE ( 'NONE',  #343 ) ;
#128 = DIRECTION ( 'NONE',  ( 0.000000000000000000, 0.000000000000000000, -1.000000000000000000 ) ) ;
#129 = DIMENSIONAL_EXPONENTS ( 1.000000000000000000, 0.000000000000000000, 0.000000000000000000, 0.000000000000000000, 0.000000000000000000, 0.000000000000000000, 0.000000000000000000 ) ;
#130 = AXIS2_PLACEMENT_3D ( 'NONE', #96, #71, #362 ) ;
#131 = ORIENTED_EDGE ( 'NONE', *, *, #231, .F. ) ;
#132 = LINE ( 'NONE', #250, #204 ) ;
#133 = EDGE_CURVE ( 'NONE', #110, #320, #5, .T. ) ;
#134 = DIRECTION ( 'NONE',  ( 0.000000000000000000, 0.000000000000000000, 1.000000000000000000 ) ) ;
#135 =( CONVERSION_BASED_UNIT ( 'INCH', #218 ) LENGTH_UNIT ( ) NAMED_UNIT ( #229 ) );
#136 = LENGTH_MEASURE_WITH_UNIT ( LENGTH_MEASURE( 0.02539999999999999897 ), #185 );
#137 = AXIS2_PLACEMENT_3D ( 'NONE', #368, #336, #198 ) ;
#138 = DIRECTION ( 'NONE',  ( 0.000000000000000000, 0.000000000000000000, -1.000000000000000000 ) ) ;
#139 = SURFACE_STYLE_USAGE ( .BOTH. , #277 ) ;
#140 =( CONVERSION_BASED_UNIT ( 'INCH', #337 ) LENGTH_UNIT ( ) NAMED_UNIT ( #219 ) );
#141 = ORIENTED_EDGE ( 'NONE', *, *, #328, .T. ) ;
#142 = VECTOR ( 'NONE', #304, 39.37007874015748143 ) ;
#143 = AXIS2_PLACEMENT_3D ( 'NONE', #72, #249, #191 ) ;
#144 = ADVANCED_FACE ( 'NONE', ( #104 ), #19, .T. ) ;
#145 = DIRECTION ( 'NONE',  ( -1.217383013172805092E-16, 1.000000000000000000, -0.000000000000000000 ) ) ;
#146 = EDGE_CURVE ( 'NONE', #110, #326, #103, .T. ) ;
#147 = STYLED_ITEM ( 'NONE', ( #334 ), #345 ) ;
#148 = FILL_AREA_STYLE ('',( #235 ) ) ;
#149 = AXIS2_PLACEMENT_3D ( 'NONE', #97, #217, #295 ) ;
#150 = MECHANICAL_DESIGN_GEOMETRIC_PRESENTATION_REPRESENTATION (  '', ( #371 ), #243 ) ;
#151 = PRESENTATION_STYLE_ASSIGNMENT (( #274 ) ) ;
#152 = PRODUCT ( '49076', '49076', '', ( #285 ) ) ;
#153 = EDGE_LOOP ( 'NONE', ( #361, #29, #89, #290, #68 ) ) ;
#154 = LENGTH_MEASURE_WITH_UNIT ( LENGTH_MEASURE( 0.02539999999999999897 ), #32 );
#155 = DIRECTION ( 'NONE',  ( -1.000000000000000000, 0.000000000000000000, 0.000000000000000000 ) ) ;
#156 = VERTEX_POINT ( 'NONE', #49 ) ;
#157 =( NAMED_UNIT ( * ) SI_UNIT ( $, .STERADIAN. ) SOLID_ANGLE_UNIT ( ) );
#158 = EDGE_CURVE ( 'NONE', #326, #370, #346, .T. ) ;
#159 = CARTESIAN_POINT ( 'NONE',  ( 0.000000000000000000, 0.1250000000000000278, 0.000000000000000000 ) ) ;
#160 = CYLINDRICAL_SURFACE ( 'NONE', #288, 0.1249999999999999584 ) ;
#161 = SURFACE_STYLE_FILL_AREA ( #99 ) ;
#162 = DIRECTION ( 'NONE',  ( 0.000000000000000000, 1.000000000000000000, 0.000000000000000000 ) ) ;
#163 =( NAMED_UNIT ( * ) SI_UNIT ( $, .STERADIAN. ) SOLID_ANGLE_UNIT ( ) );
#164 = PRESENTATION_LAYER_ASSIGNMENT (  '', '', ( #26 ) ) ;
#165 = AXIS2_PLACEMENT_3D ( 'NONE', #175, #115, #31 ) ;
#166 = CARTESIAN_POINT ( 'NONE',  ( 1.224646799147353700E-16, 2.000000000000000000, 0.000000000000000000 ) ) ;
#167 = CYLINDRICAL_SURFACE ( 'NONE', #292, 0.1249999999999999584 ) ;
#168 = UNCERTAINTY_MEASURE_WITH_UNIT (LENGTH_MEASURE( 1.000000000000000082E-05 ), #271, 'distance_accuracy_value', 'NONE');
#169 = APPLICATION_PROTOCOL_DEFINITION ( 'draft international standard', 'automotive_design', 1998, #240 ) ;
#170 = DIRECTION ( 'NONE',  ( -1.217383013172805092E-16, 1.000000000000000000, -0.000000000000000000 ) ) ;
#171 = VECTOR ( 'NONE', #254, 39.37007874015748143 ) ;
#172 = APPLICATION_PROTOCOL_DEFINITION ( 'draft international standard', 'automotive_design', 1998, #188 ) ;
#173 = AXIS2_PLACEMENT_3D ( 'NONE', #259, #24, #339 ) ;
#174 = CARTESIAN_POINT ( 'NONE',  ( -0.1249999999999997086, 2.000000000000000000, 0.000000000000000000 ) ) ;
#175 = CARTESIAN_POINT ( 'NONE',  ( 1.224646799147353700E-16, 2.000000000000000000, 0.000000000000000000 ) ) ;
#176 = VERTEX_POINT ( 'NONE', #119 ) ;
#177 = AXIS2_PLACEMENT_3D ( 'NONE', #18, #189, #298 ) ;
#178 = VERTEX_POINT ( 'NONE', #293 ) ;
#179 = FILL_AREA_STYLE_COLOUR ( '', #113 ) ;
#180 = ORIENTED_EDGE ( 'NONE', *, *, #328, .F. ) ;
#181 =( CONVERSION_BASED_UNIT ( 'INCH', #154 ) LENGTH_UNIT ( ) NAMED_UNIT ( #289 ) );
#182 = VECTOR ( 'NONE', #53, 39.37007874015748143 ) ;
#183 = DIMENSIONAL_EXPONENTS ( 1.000000000000000000, 0.000000000000000000, 0.000000000000000000, 0.000000000000000000, 0.000000000000000000, 0.000000000000000000, 0.000000000000000000 ) ;
#184 =( LENGTH_UNIT ( ) NAMED_UNIT ( * ) SI_UNIT ( $, .METRE. ) );
#185 =( LENGTH_UNIT ( ) NAMED_UNIT ( * ) SI_UNIT ( $, .METRE. ) );
#186 = ORIENTED_EDGE ( 'NONE', *, *, #372, .T. ) ;
#187 = DIRECTION ( 'NONE',  ( 0.000000000000000000, 0.000000000000000000, -1.000000000000000000 ) ) ;
#188 = APPLICATION_CONTEXT ( 'automotive_design' ) ;
#189 = DIRECTION ( 'NONE',  ( -1.217383013172805092E-16, 1.000000000000000000, 0.000000000000000000 ) ) ;
#190 =( GEOMETRIC_REPRESENTATION_CONTEXT ( 3 ) GLOBAL_UNCERTAINTY_ASSIGNED_CONTEXT ( ( #108 ) ) GLOBAL_UNIT_ASSIGNED_CONTEXT ( ( #199, #262, #256 ) ) REPRESENTATION_CONTEXT ( 'NONE', 'WORKASPACE' ) );
#191 = DIRECTION ( 'NONE',  ( 1.000000000000000000, 0.000000000000000000, 0.000000000000000000 ) ) ;
#192 = PRESENTATION_STYLE_ASSIGNMENT (( #48 ) ) ;
#193 = MANIFOLD_SOLID_BREP ( 'Revolve - Cutting Edge', #81 ) ;
#194 = DIRECTION ( 'NONE',  ( -0.000000000000000000, -1.000000000000000000, -0.000000000000000000 ) ) ;
#195 = DIRECTION ( 'NONE',  ( -0.000000000000000000, -1.000000000000000000, -0.000000000000000000 ) ) ;
#196 = SHAPE_DEFINITION_REPRESENTATION ( #323, #43 ) ;
#197 = DIRECTION ( 'NONE',  ( -1.000000000000000000, 0.000000000000000000, 0.000000000000000000 ) ) ;
#198 = DIRECTION ( 'NONE',  ( 0.000000000000000000, 0.000000000000000000, -1.000000000000000000 ) ) ;
#199 =( CONVERSION_BASED_UNIT ( 'INCH', #202 ) LENGTH_UNIT ( ) NAMED_UNIT ( #260 ) );
#200 = UNCERTAINTY_MEASURE_WITH_UNIT (LENGTH_MEASURE( 1.000000000000000082E-05 ), #296, 'distance_accuracy_value', 'NONE');
#201 = VERTEX_POINT ( 'NONE', #244 ) ;
#202 = LENGTH_MEASURE_WITH_UNIT ( LENGTH_MEASURE( 0.02539999999999999897 ), #335 );
#203 = ORIENTED_EDGE ( 'NONE', *, *, #372, .F. ) ;
#204 = VECTOR ( 'NONE', #92, 39.37007874015748143 ) ;
#205 = ORIENTED_EDGE ( 'NONE', *, *, #158, .F. ) ;
#206 = PRESENTATION_LAYER_ASSIGNMENT (  '', '', ( #316 ) ) ;
#207 = PRESENTATION_LAYER_ASSIGNMENT (  '', '', ( #371 ) ) ;
#208 = EDGE_CURVE ( 'NONE', #34, #156, #55, .T. ) ;
#209 = EDGE_LOOP ( 'NONE', ( #318, #2 ) ) ;
#210 = CARTESIAN_POINT ( 'NONE',  ( 0.000000000000000000, 0.1250000000000000278, 0.000000000000000000 ) ) ;
#211 = ORIENTED_EDGE ( 'NONE', *, *, #146, .T. ) ;
#212 = ORIENTED_EDGE ( 'NONE', *, *, #215, .T. ) ;
#213 = DIRECTION ( 'NONE',  ( -0.000000000000000000, -1.000000000000000000, -0.000000000000000000 ) ) ;
#214 = CIRCLE ( 'NONE', #50, 0.1249999999999998335 ) ;
#215 = EDGE_CURVE ( 'NONE', #34, #39, #272, .T. ) ;
#216 = AXIS2_PLACEMENT_3D ( 'NONE', #27, #145, #286 ) ;
#217 = DIRECTION ( 'NONE',  ( 1.217383013172805092E-16, -1.000000000000000000, 0.000000000000000000 ) ) ;
#218 = LENGTH_MEASURE_WITH_UNIT ( LENGTH_MEASURE( 0.02539999999999999897 ), #184 );
#219 = DIMENSIONAL_EXPONENTS ( 1.000000000000000000, 0.000000000000000000, 0.000000000000000000, 0.000000000000000000, 0.000000000000000000, 0.000000000000000000, 0.000000000000000000 ) ;
#220 = DIRECTION ( 'NONE',  ( 1.000000000000000000, 0.000000000000000000, 0.000000000000000000 ) ) ;
#221 = STYLED_ITEM ( 'NONE', ( #126 ), #13 ) ;
#222 =( CONVERSION_BASED_UNIT ( 'INCH', #366 ) LENGTH_UNIT ( ) NAMED_UNIT ( #37 ) );
#223 =( NAMED_UNIT ( * ) PLANE_ANGLE_UNIT ( ) SI_UNIT ( $, .RADIAN. ) );
#224 = FILL_AREA_STYLE ('',( #102 ) ) ;
#225 = UNCERTAINTY_MEASURE_WITH_UNIT (LENGTH_MEASURE( 1.000000000000000082E-05 ), #222, 'distance_accuracy_value', 'NONE');
#226 = CARTESIAN_POINT ( 'NONE',  ( -0.1249999999999996114, 2.000000000000000000, 0.000000000000000000 ) ) ;
#227 =( NAMED_UNIT ( * ) PLANE_ANGLE_UNIT ( ) SI_UNIT ( $, .RADIAN. ) );
#228 = CARTESIAN_POINT ( 'NONE',  ( 0.000000000000000000, 0.1250000000000000278, 0.000000000000000000 ) ) ;
#229 = DIMENSIONAL_EXPONENTS ( 1.000000000000000000, 0.000000000000000000, 0.000000000000000000, 0.000000000000000000, 0.000000000000000000, 0.000000000000000000, 0.000000000000000000 ) ;
#230 =( LENGTH_UNIT ( ) NAMED_UNIT ( * ) SI_UNIT ( $, .METRE. ) );
#231 = EDGE_CURVE ( 'NONE', #320, #370, #132, .T. ) ;
#232 = COLOUR_RGB ( '',1.000000000000000000, 0.000000000000000000, 0.000000000000000000 ) ;
#233 = EDGE_CURVE ( 'NONE', #201, #34, #118, .T. ) ;
#234 = PRESENTATION_LAYER_ASSIGNMENT (  '', '', ( #85 ) ) ;
#235 = FILL_AREA_STYLE_COLOUR ( '', #88 ) ;
#236 = CARTESIAN_POINT ( 'NONE',  ( 0.1249999999999999445, 0.3749999999999999445, 1.530808498934188736E-17 ) ) ;
#237 = ADVANCED_FACE ( 'NONE', ( #327 ), #358, .F. ) ;
#238 = EDGE_LOOP ( 'NONE', ( #12, #125, #205, #15 ) ) ;
#239 = STYLED_ITEM ( 'NONE', ( #67 ), #373 ) ;
#240 = APPLICATION_CONTEXT ( 'automotive_design' ) ;
#241 = MECHANICAL_DESIGN_GEOMETRIC_PRESENTATION_REPRESENTATION (  '', ( #26 ), #33 ) ;
#242 = ORIENTED_EDGE ( 'NONE', *, *, #80, .T. ) ;
#243 =( GEOMETRIC_REPRESENTATION_CONTEXT ( 3 ) GLOBAL_UNCERTAINTY_ASSIGNED_CONTEXT ( ( #200 ) ) GLOBAL_UNIT_ASSIGNED_CONTEXT ( ( #296, #223, #353 ) ) REPRESENTATION_CONTEXT ( 'NONE', 'WORKASPACE' ) );
#244 = CARTESIAN_POINT ( 'NONE',  ( 1.530808498934191509E-17, 0.1250000000000000278, 0.1250000000000000000 ) ) ;
#245 = FACE_OUTER_BOUND ( 'NONE', #91, .T. ) ;
#246 = DIRECTION ( 'NONE',  ( -0.000000000000000000, -1.000000000000000000, -0.000000000000000000 ) ) ;
#247 = CARTESIAN_POINT ( 'NONE',  ( 0.000000000000000000, 0.3749999999999999445, 0.000000000000000000 ) ) ;
#248 = MECHANICAL_DESIGN_GEOMETRIC_PRESENTATION_REPRESENTATION (  '', ( #85 ), #65 ) ;
#249 = DIRECTION ( 'NONE',  ( 0.000000000000000000, 0.000000000000000000, 1.000000000000000000 ) ) ;
#250 = CARTESIAN_POINT ( 'NONE',  ( 0.1249999999999998473, 2.000000000000000000, 1.530808498934188119E-17 ) ) ;
#251 = FACE_OUTER_BOUND ( 'NONE', #153, .T. ) ;
#252 = LINE ( 'NONE', #332, #171 ) ;
#253 = SURFACE_STYLE_USAGE ( .BOTH. , #94 ) ;
#254 = DIRECTION ( 'NONE',  ( -0.000000000000000000, -1.000000000000000000, -0.000000000000000000 ) ) ;
#255 = CIRCLE ( 'NONE', #137, 0.1249999999999999445 ) ;
#256 =( NAMED_UNIT ( * ) SI_UNIT ( $, .STERADIAN. ) SOLID_ANGLE_UNIT ( ) );
#257 =( LENGTH_UNIT ( ) NAMED_UNIT ( * ) SI_UNIT ( $, .METRE. ) );
#258 = CARTESIAN_POINT ( 'NONE',  ( 1.224646799147353700E-16, 2.000000000000000000, 0.000000000000000000 ) ) ;
#259 = CARTESIAN_POINT ( 'NONE',  ( 0.000000000000000000, 0.000000000000000000, 0.000000000000000000 ) ) ;
#260 = DIMENSIONAL_EXPONENTS ( 1.000000000000000000, 0.000000000000000000, 0.000000000000000000, 0.000000000000000000, 0.000000000000000000, 0.000000000000000000, 0.000000000000000000 ) ;
#261 = DIRECTION ( 'NONE',  ( -0.000000000000000000, -1.000000000000000000, -0.000000000000000000 ) ) ;
#262 =( NAMED_UNIT ( * ) PLANE_ANGLE_UNIT ( ) SI_UNIT ( $, .RADIAN. ) );
#263 = ORIENTED_EDGE ( 'NONE', *, *, #63, .F. ) ;
#264 = EDGE_LOOP ( 'NONE', ( #314, #61 ) ) ;
#265 = ADVANCED_FACE ( 'NONE', ( #40 ), #167, .T. ) ;
#266 = MECHANICAL_DESIGN_GEOMETRIC_PRESENTATION_REPRESENTATION (  '', ( #221 ), #93 ) ;
#267 = EDGE_LOOP ( 'NONE', ( #350, #180 ) ) ;
#268 = CARTESIAN_POINT ( 'NONE',  ( -1.530808498934191509E-17, 0.1250000000000000000, 0.000000000000000000 ) ) ;
#269 =( NAMED_UNIT ( * ) SI_UNIT ( $, .STERADIAN. ) SOLID_ANGLE_UNIT ( ) );
#270 =( CONVERSION_BASED_UNIT ( 'INCH', #36 ) LENGTH_UNIT ( ) NAMED_UNIT ( #129 ) );
#271 =( CONVERSION_BASED_UNIT ( 'INCH', #45 ) LENGTH_UNIT ( ) NAMED_UNIT ( #351 ) );
#272 = CIRCLE ( 'NONE', #105, 0.1250000000000000000 ) ;
#273 = PRESENTATION_LAYER_ASSIGNMENT (  '', '', ( #147 ) ) ;
#274 = SURFACE_STYLE_USAGE ( .BOTH. , #360 ) ;
#275 = EDGE_CURVE ( 'NONE', #317, #176, #255, .T. ) ;
#276 = SPHERICAL_SURFACE ( 'NONE', #143, 0.1250000000000000000 ) ;
#277 = SURFACE_SIDE_STYLE ('',( #112 ) ) ;
#278 = SURFACE_STYLE_FILL_AREA ( #224 ) ;
#279 = PRESENTATION_LAYER_ASSIGNMENT (  '', '', ( #221 ) ) ;
#280 = PRODUCT_DEFINITION_FORMATION_WITH_SPECIFIED_SOURCE ( 'ANY', '', #152, .NOT_KNOWN. ) ;
#281 = EDGE_CURVE ( 'NONE', #370, #326, #214, .T. ) ;
#282 = DIRECTION ( 'NONE',  ( 0.000000000000000000, 0.000000000000000000, -1.000000000000000000 ) ) ;
#283 = CARTESIAN_POINT ( 'NONE',  ( 1.530808498934191201E-17, 0.000000000000000000, 0.1249999999999999584 ) ) ;
#284 = CIRCLE ( 'NONE', #82, 0.1250000000000000000 ) ;
#285 = PRODUCT_CONTEXT ( 'NONE', #188, 'mechanical' ) ;
#286 = DIRECTION ( 'NONE',  ( -1.000000000000000000, 0.000000000000000000, 0.000000000000000000 ) ) ;
#287 = CLOSED_SHELL ( 'NONE', ( #303, #35, #144, #237 ) ) ;
#288 = AXIS2_PLACEMENT_3D ( 'NONE', #47, #261, #83 ) ;
#289 = DIMENSIONAL_EXPONENTS ( 1.000000000000000000, 0.000000000000000000, 0.000000000000000000, 0.000000000000000000, 0.000000000000000000, 0.000000000000000000, 0.000000000000000000 ) ;
#290 = ORIENTED_EDGE ( 'NONE', *, *, #208, .F. ) ;
#291 = FILL_AREA_STYLE ('',( #179 ) ) ;
#292 = AXIS2_PLACEMENT_3D ( 'NONE', #79, #195, #282 ) ;
#293 = CARTESIAN_POINT ( 'NONE',  ( 0.1250000000000000000, 0.1250000000000000278, 0.000000000000000000 ) ) ;
#294 = CARTESIAN_POINT ( 'NONE',  ( -1.530808498934191509E-17, 0.1250000000000000000, 0.000000000000000000 ) ) ;
#295 = DIRECTION ( 'NONE',  ( 1.000000000000000000, 1.217383013172805092E-16, 0.000000000000000000 ) ) ;
#296 =( CONVERSION_BASED_UNIT ( 'INCH', #136 ) LENGTH_UNIT ( ) NAMED_UNIT ( #183 ) );
#297 = PRODUCT_RELATED_PRODUCT_CATEGORY ( 'part', '', ( #152 ) ) ;
#298 = DIRECTION ( 'NONE',  ( -1.000000000000000000, -1.217383013172805092E-16, 0.000000000000000000 ) ) ;
#299 = AXIS2_PLACEMENT_3D ( 'NONE', #166, #46, #365 ) ;
#300 =( GEOMETRIC_REPRESENTATION_CONTEXT ( 3 ) GLOBAL_UNCERTAINTY_ASSIGNED_CONTEXT ( ( #168 ) ) GLOBAL_UNIT_ASSIGNED_CONTEXT ( ( #271, #325, #301 ) ) REPRESENTATION_CONTEXT ( 'NONE', 'WORKASPACE' ) );
#301 =( NAMED_UNIT ( * ) SI_UNIT ( $, .STERADIAN. ) SOLID_ANGLE_UNIT ( ) );
#302 = SURFACE_SIDE_STYLE ('',( #278 ) ) ;
#303 = ADVANCED_FACE ( 'NONE', ( #305 ), #114, .T. ) ;
#304 = DIRECTION ( 'NONE',  ( -1.217383013172805092E-16, 1.000000000000000000, -0.000000000000000000 ) ) ;
#305 = FACE_OUTER_BOUND ( 'NONE', #238, .T. ) ;
#306 = AXIS2_PLACEMENT_3D ( 'NONE', #258, #367, #349 ) ;
#307 = CARTESIAN_POINT ( 'NONE',  ( 1.224646799147353700E-16, 2.000000000000000000, 0.000000000000000000 ) ) ;
#308 = UNCERTAINTY_MEASURE_WITH_UNIT (LENGTH_MEASURE( 1.000000000000000082E-05 ), #135, 'distance_accuracy_value', 'NONE');
#309 = LINE ( 'NONE', #283, #182 ) ;
#310 = CARTESIAN_POINT ( 'NONE',  ( -0.1249999999999992922, 0.3749999999999999445, 0.000000000000000000 ) ) ;
#311 = EDGE_CURVE ( 'NONE', #156, #178, #347, .T. ) ;
#312 = SURFACE_SIDE_STYLE ('',( #84 ) ) ;
#313 = SURFACE_SIDE_STYLE ('',( #342 ) ) ;
#314 = ORIENTED_EDGE ( 'NONE', *, *, #158, .T. ) ;
#315 = ORIENTED_EDGE ( 'NONE', *, *, #22, .T. ) ;
#316 = STYLED_ITEM ( 'NONE', ( #192 ), #74 ) ;
#317 = VERTEX_POINT ( 'NONE', #3 ) ;
#318 = ORIENTED_EDGE ( 'NONE', *, *, #22, .F. ) ;
#319 = DIRECTION ( 'NONE',  ( 1.000000000000000000, 0.000000000000000000, -1.224646799147353207E-16 ) ) ;
#320 = VERTEX_POINT ( 'NONE', #236 ) ;
#321 = DIRECTION ( 'NONE',  ( -0.000000000000000000, -1.000000000000000000, -0.000000000000000000 ) ) ;
#322 = CARTESIAN_POINT ( 'NONE',  ( 0.1249999999999999445, 2.000000000000000000, 1.530808498934188736E-17 ) ) ;
#323 = PRODUCT_DEFINITION_SHAPE ( 'NONE', 'NONE',  #56 ) ;
#324 = AXIS2_PLACEMENT_3D ( 'NONE', #210, #321, #64 ) ;
#325 =( NAMED_UNIT ( * ) PLANE_ANGLE_UNIT ( ) SI_UNIT ( $, .RADIAN. ) );
#326 = VERTEX_POINT ( 'NONE', #174 ) ;
#327 = FACE_OUTER_BOUND ( 'NONE', #264, .T. ) ;
#328 = EDGE_CURVE ( 'NONE', #320, #110, #107, .T. ) ;
#329 = PRESENTATION_STYLE_ASSIGNMENT (( #139 ) ) ;
#330 = FACE_OUTER_BOUND ( 'NONE', #267, .T. ) ;
#331 = FACE_OUTER_BOUND ( 'NONE', #4, .T. ) ;
#332 = CARTESIAN_POINT ( 'NONE',  ( 0.000000000000000000, 0.000000000000000000, -0.1249999999999999584 ) ) ;
#333 = AXIS2_PLACEMENT_3D ( 'NONE', #159, #213, #128 ) ;
#334 = PRESENTATION_STYLE_ASSIGNMENT (( #30 ) ) ;
#335 =( LENGTH_UNIT ( ) NAMED_UNIT ( * ) SI_UNIT ( $, .METRE. ) );
#336 = DIRECTION ( 'NONE',  ( -0.000000000000000000, -1.000000000000000000, -0.000000000000000000 ) ) ;
#337 = LENGTH_MEASURE_WITH_UNIT ( LENGTH_MEASURE( 0.02539999999999999897 ), #257 );
#338 = CIRCLE ( 'NONE', #130, 0.1249999999999999445 ) ;
#339 = DIRECTION ( 'NONE',  ( 1.000000000000000000, 0.000000000000000000, 0.000000000000000000 ) ) ;
#340 = PRODUCT_DEFINITION_CONTEXT ( 'detailed design', #240, 'design' ) ;
#341 =( NAMED_UNIT ( * ) SI_UNIT ( $, .STERADIAN. ) SOLID_ANGLE_UNIT ( ) );
#342 = SURFACE_STYLE_FILL_AREA ( #148 ) ;
#343 = AXIS2_PLACEMENT_3D ( 'NONE', #247, #162, #357 ) ;
#344 =( GEOMETRIC_REPRESENTATION_CONTEXT ( 3 ) GLOBAL_UNCERTAINTY_ASSIGNED_CONTEXT ( ( #23 ) ) GLOBAL_UNIT_ASSIGNED_CONTEXT ( ( #140, #106, #163 ) ) REPRESENTATION_CONTEXT ( 'NONE', 'WORKASPACE' ) );
#345 = ADVANCED_FACE ( 'NONE', ( #245 ), #276, .T. ) ;
#346 = CIRCLE ( 'NONE', #306, 0.1249999999999998335 ) ;
#347 = CIRCLE ( 'NONE', #324, 0.1250000000000000000 ) ;
#348 =( NAMED_UNIT ( * ) PLANE_ANGLE_UNIT ( ) SI_UNIT ( $, .RADIAN. ) );
#349 = DIRECTION ( 'NONE',  ( -1.000000000000000000, 0.000000000000000000, 0.000000000000000000 ) ) ;
#350 = ORIENTED_EDGE ( 'NONE', *, *, #133, .F. ) ;
#351 = DIMENSIONAL_EXPONENTS ( 1.000000000000000000, 0.000000000000000000, 0.000000000000000000, 0.000000000000000000, 0.000000000000000000, 0.000000000000000000, 0.000000000000000000 ) ;
#352 = SURFACE_STYLE_FILL_AREA ( #123 ) ;
#353 =( NAMED_UNIT ( * ) SI_UNIT ( $, .STERADIAN. ) SOLID_ANGLE_UNIT ( ) );
#354 = ORIENTED_EDGE ( 'NONE', *, *, #233, .T. ) ;
#355 = DIRECTION ( 'NONE',  ( 1.224646799147353207E-16, -0.000000000000000000, 1.000000000000000000 ) ) ;
#356 = COLOUR_RGB ( '',0.7921568627450980005, 0.8196078431372548767, 0.9333333333333333481 ) ;
#357 = DIRECTION ( 'NONE',  ( 0.000000000000000000, -0.000000000000000000, 1.000000000000000000 ) ) ;
#358 = PLANE ( 'NONE',  #149 ) ;
#359 = ADVANCED_FACE ( 'NONE', ( #331 ), #69, .T. ) ;
#360 = SURFACE_SIDE_STYLE ('',( #101 ) ) ;
#361 = ORIENTED_EDGE ( 'NONE', *, *, #80, .F. ) ;
#362 = DIRECTION ( 'NONE',  ( 0.000000000000000000, 0.000000000000000000, -1.000000000000000000 ) ) ;
#363 = FILL_AREA_STYLE_COLOUR ( '', #66 ) ;
#364 = UNCERTAINTY_MEASURE_WITH_UNIT (LENGTH_MEASURE( 1.000000000000000082E-05 ), #181, 'distance_accuracy_value', 'NONE');
#365 = DIRECTION ( 'NONE',  ( -1.000000000000000000, 0.000000000000000000, 0.000000000000000000 ) ) ;
#366 = LENGTH_MEASURE_WITH_UNIT ( LENGTH_MEASURE( 0.02539999999999999897 ), #230 );
#367 = DIRECTION ( 'NONE',  ( -1.217383013172805092E-16, 1.000000000000000000, -0.000000000000000000 ) ) ;
#368 = CARTESIAN_POINT ( 'NONE',  ( 0.000000000000000000, 0.3749999999999999445, 0.000000000000000000 ) ) ;
#369 = COLOUR_RGB ( '',0.7921568627450980005, 0.8196078431372548767, 0.9333333333333333481 ) ;
#370 = VERTEX_POINT ( 'NONE', #322 ) ;
#371 = STYLED_ITEM ( 'NONE', ( #151 ), #359 ) ;
#372 = EDGE_CURVE ( 'NONE', #178, #39, #284, .T. ) ;
#373 = ADVANCED_FACE ( 'NONE', ( #251 ), #160, .T. ) ;
ENDSEC;
END-ISO-10303-21;
