ISO-10303-21;
HEADER;
FILE_DESCRIPTION (( 'STEP AP214' ),
    '1' );
FILE_NAME ('44467.STEP',
    '2023-06-22T20:43:44',
    ( '' ),
    ( '' ),
    'SwSTEP 2.0',
    'SolidWorks 2023',
    '' );
FILE_SCHEMA (( 'AUTOMOTIVE_DESIGN' ));
ENDSEC;

DATA;
#1 = DIRECTION ( 'NONE',  ( 1.224646799147352961E-16, 1.000000000000000000, -0.000000000000000000 ) ) ;
#2 = APPLICATION_CONTEXT ( 'automotive_design' ) ;
#3 = DIRECTION ( 'NONE',  ( 0.000000000000000000, 0.000000000000000000, -1.000000000000000000 ) ) ;
#4 = ADVANCED_FACE ( 'NONE', ( #50 ), #167, .T. ) ;
#5 =( LENGTH_UNIT ( ) NAMED_UNIT ( * ) SI_UNIT ( $, .METRE. ) );
#6 =( NAMED_UNIT ( * ) PLANE_ANGLE_UNIT ( ) SI_UNIT ( $, .RADIAN. ) );
#7 = SURFACE_STYLE_FILL_AREA ( #140 ) ;
#8 = DIRECTION ( 'NONE',  ( -1.000000000000000000, 0.000000000000000000, 0.000000000000000000 ) ) ;
#9 = AXIS2_PLACEMENT_3D ( 'NONE', #26, #93, #193 ) ;
#10 = AXIS2_PLACEMENT_3D ( 'NONE', #47, #166, #241 ) ;
#11 = MECHANICAL_DESIGN_GEOMETRIC_PRESENTATION_REPRESENTATION (  '', ( #286 ), #248 ) ;
#12 = EDGE_LOOP ( 'NONE', ( #151, #229, #27, #242 ) ) ;
#13 = CARTESIAN_POINT ( 'NONE',  ( 0.000000000000000000, 2.000000000000000000, 0.000000000000000000 ) ) ;
#14 = LENGTH_MEASURE_WITH_UNIT ( LENGTH_MEASURE( 0.02539999999999999897 ), #184 );
#15 =( NAMED_UNIT ( * ) PLANE_ANGLE_UNIT ( ) SI_UNIT ( $, .RADIAN. ) );
#16 = COLOUR_RGB ( '',1.000000000000000000, 0.000000000000000000, 0.000000000000000000 ) ;
#17 = PRESENTATION_LAYER_ASSIGNMENT (  '', '', ( #154 ) ) ;
#18 = ORIENTED_EDGE ( 'NONE', *, *, #227, .F. ) ;
#19 = VERTEX_POINT ( 'NONE', #195 ) ;
#20 = PRODUCT_DEFINITION_CONTEXT ( 'detailed design', #2, 'design' ) ;
#21 = LINE ( 'NONE', #117, #187 ) ;
#22 = UNCERTAINTY_MEASURE_WITH_UNIT (LENGTH_MEASURE( 1.000000000000000082E-05 ), #251, 'distance_accuracy_value', 'NONE');
#23 = MECHANICAL_DESIGN_GEOMETRIC_PRESENTATION_REPRESENTATION (  '', ( #154 ), #277 ) ;
#24 = FILL_AREA_STYLE ('',( #91 ) ) ;
#25 = FILL_AREA_STYLE_COLOUR ( '', #52 ) ;
#26 = CARTESIAN_POINT ( 'NONE',  ( 0.000000000000000000, 0.000000000000000000, 0.000000000000000000 ) ) ;
#27 = ORIENTED_EDGE ( 'NONE', *, *, #172, .T. ) ;
#28 = DIRECTION ( 'NONE',  ( 0.000000000000000000, 0.000000000000000000, -1.000000000000000000 ) ) ;
#29 = DIRECTION ( 'NONE',  ( -1.000000000000000000, 0.000000000000000000, 0.000000000000000000 ) ) ;
#30 = AXIS2_PLACEMENT_3D ( 'NONE', #146, #113, #170 ) ;
#31 = DIRECTION ( 'NONE',  ( 0.000000000000000000, 0.000000000000000000, -1.000000000000000000 ) ) ;
#32 = DIRECTION ( 'NONE',  ( -1.000000000000000000, 1.224646799147352961E-16, 0.000000000000000000 ) ) ;
#33 = AXIS2_PLACEMENT_3D ( 'NONE', #13, #155, #129 ) ;
#34 = CLOSED_SHELL ( 'NONE', ( #305, #39, #4, #122 ) ) ;
#35 = SURFACE_STYLE_USAGE ( .BOTH. , #58 ) ;
#36 =( NAMED_UNIT ( * ) SI_UNIT ( $, .STERADIAN. ) SOLID_ANGLE_UNIT ( ) );
#37 = ORIENTED_EDGE ( 'NONE', *, *, #270, .T. ) ;
#38 = CARTESIAN_POINT ( 'NONE',  ( 0.6250000000000000000, 4.500000000000000000, 7.654042494670955388E-17 ) ) ;
#39 = ADVANCED_FACE ( 'NONE', ( #292 ), #236, .F. ) ;
#40 =( CONVERSION_BASED_UNIT ( 'INCH', #14 ) LENGTH_UNIT ( ) NAMED_UNIT ( #259 ) );
#41 =( GEOMETRIC_REPRESENTATION_CONTEXT ( 3 ) GLOBAL_UNCERTAINTY_ASSIGNED_CONTEXT ( ( #134 ) ) GLOBAL_UNIT_ASSIGNED_CONTEXT ( ( #66, #244, #186 ) ) REPRESENTATION_CONTEXT ( 'NONE', 'WORKASPACE' ) );
#42 = DIMENSIONAL_EXPONENTS ( 1.000000000000000000, 0.000000000000000000, 0.000000000000000000, 0.000000000000000000, 0.000000000000000000, 0.000000000000000000, 0.000000000000000000 ) ;
#43 = ORIENTED_EDGE ( 'NONE', *, *, #88, .T. ) ;
#44 = CYLINDRICAL_SURFACE ( 'NONE', #174, 0.6249999999999998890 ) ;
#45 = CARTESIAN_POINT ( 'NONE',  ( 0.000000000000000000, 0.000000000000000000, 0.000000000000000000 ) ) ;
#46 = SURFACE_STYLE_USAGE ( .BOTH. , #125 ) ;
#47 = CARTESIAN_POINT ( 'NONE',  ( 0.6250000000000000000, 4.500000000000000000, 0.000000000000000000 ) ) ;
#48 = MECHANICAL_DESIGN_GEOMETRIC_PRESENTATION_REPRESENTATION (  '', ( #73 ), #149 ) ;
#49 = DIRECTION ( 'NONE',  ( 0.000000000000000000, 0.000000000000000000, -1.000000000000000000 ) ) ;
#50 = FACE_OUTER_BOUND ( 'NONE', #12, .T. ) ;
#51 = DIRECTION ( 'NONE',  ( 1.224646799147352961E-16, 1.000000000000000000, -0.000000000000000000 ) ) ;
#52 = COLOUR_RGB ( '',0.7921568627450980005, 0.8196078431372548767, 0.9333333333333333481 ) ;
#53 = COLOUR_RGB ( '',1.000000000000000000, 0.000000000000000000, 0.000000000000000000 ) ;
#54 =( CONVERSION_BASED_UNIT ( 'INCH', #273 ) LENGTH_UNIT ( ) NAMED_UNIT ( #111 ) );
#55 = SURFACE_STYLE_USAGE ( .BOTH. , #271 ) ;
#56 = ORIENTED_EDGE ( 'NONE', *, *, #88, .F. ) ;
#57 = SURFACE_STYLE_FILL_AREA ( #24 ) ;
#58 = SURFACE_SIDE_STYLE ('',( #279 ) ) ;
#59 = SURFACE_STYLE_USAGE ( .BOTH. , #183 ) ;
#60 = DIMENSIONAL_EXPONENTS ( 1.000000000000000000, 0.000000000000000000, 0.000000000000000000, 0.000000000000000000, 0.000000000000000000, 0.000000000000000000, 0.000000000000000000 ) ;
#61 = STYLED_ITEM ( 'NONE', ( #231 ), #284 ) ;
#62 =( NAMED_UNIT ( * ) PLANE_ANGLE_UNIT ( ) SI_UNIT ( $, .RADIAN. ) );
#63 = PRESENTATION_STYLE_ASSIGNMENT (( #114 ) ) ;
#64 = EDGE_CURVE ( 'NONE', #225, #300, #94, .T. ) ;
#65 =( GEOMETRIC_REPRESENTATION_CONTEXT ( 3 ) GLOBAL_UNCERTAINTY_ASSIGNED_CONTEXT ( ( #22 ) ) GLOBAL_UNIT_ASSIGNED_CONTEXT ( ( #251, #15, #36 ) ) REPRESENTATION_CONTEXT ( 'NONE', 'WORKASPACE' ) );
#66 =( CONVERSION_BASED_UNIT ( 'INCH', #215 ) LENGTH_UNIT ( ) NAMED_UNIT ( #42 ) );
#67 = LENGTH_MEASURE_WITH_UNIT ( LENGTH_MEASURE( 0.02539999999999999897 ), #5 );
#68 = VERTEX_POINT ( 'NONE', #247 ) ;
#69 = EDGE_CURVE ( 'NONE', #68, #19, #209, .T. ) ;
#70 = PRESENTATION_LAYER_ASSIGNMENT (  '', '', ( #61 ) ) ;
#71 = EDGE_CURVE ( 'NONE', #72, #19, #179, .T. ) ;
#72 = VERTEX_POINT ( 'NONE', #232 ) ;
#73 = STYLED_ITEM ( 'NONE', ( #84 ), #81 ) ;
#74 = CIRCLE ( 'NONE', #233, 0.6250000000000000000 ) ;
#75 = CARTESIAN_POINT ( 'NONE',  ( 0.000000000000000000, 2.000000000000000000, 0.000000000000000000 ) ) ;
#76 = CARTESIAN_POINT ( 'NONE',  ( 0.000000000000000000, 2.000000000000000000, 0.000000000000000000 ) ) ;
#77 = PRESENTATION_STYLE_ASSIGNMENT (( #55 ) ) ;
#78 = PRESENTATION_STYLE_ASSIGNMENT (( #46 ) ) ;
#79 = ORIENTED_EDGE ( 'NONE', *, *, #71, .T. ) ;
#80 = CYLINDRICAL_SURFACE ( 'NONE', #103, 0.6250000000000000000 ) ;
#81 = ADVANCED_FACE ( 'NONE', ( #158 ), #80, .T. ) ;
#82 = FILL_AREA_STYLE ('',( #206 ) ) ;
#83 = PRODUCT_DEFINITION_SHAPE ( 'NONE', 'NONE',  #293 ) ;
#84 = PRESENTATION_STYLE_ASSIGNMENT (( #35 ) ) ;
#85 = LINE ( 'NONE', #198, #123 ) ;
#86 = CIRCLE ( 'NONE', #285, 0.6250000000000000000 ) ;
#87 = CIRCLE ( 'NONE', #119, 0.6249999999999997780 ) ;
#88 = EDGE_CURVE ( 'NONE', #19, #72, #86, .T. ) ;
#89 = ORIENTED_EDGE ( 'NONE', *, *, #64, .F. ) ;
#90 = CARTESIAN_POINT ( 'NONE',  ( 0.000000000000000000, 2.000000000000000000, 0.000000000000000000 ) ) ;
#91 = FILL_AREA_STYLE_COLOUR ( '', #133 ) ;
#92 = EDGE_LOOP ( 'NONE', ( #98, #124, #56, #101 ) ) ;
#93 = DIRECTION ( 'NONE',  ( 0.000000000000000000, 0.000000000000000000, 1.000000000000000000 ) ) ;
#94 = CIRCLE ( 'NONE', #276, 0.6249999999999997780 ) ;
#95 = DIRECTION ( 'NONE',  ( -1.000000000000000000, 0.000000000000000000, 0.000000000000000000 ) ) ;
#96 =( GEOMETRIC_REPRESENTATION_CONTEXT ( 3 ) GLOBAL_UNCERTAINTY_ASSIGNED_CONTEXT ( ( #148 ) ) GLOBAL_UNIT_ASSIGNED_CONTEXT ( ( #264, #6, #102 ) ) REPRESENTATION_CONTEXT ( 'NONE', 'WORKASPACE' ) );
#97 = CARTESIAN_POINT ( 'NONE',  ( 0.000000000000000000, 0.000000000000000000, 0.000000000000000000 ) ) ;
#98 = ORIENTED_EDGE ( 'NONE', *, *, #227, .T. ) ;
#99 = CARTESIAN_POINT ( 'NONE',  ( 3.061616997868382155E-16, 4.500000000000000000, 0.000000000000000000 ) ) ;
#100 = PRESENTATION_LAYER_ASSIGNMENT (  '', '', ( #164 ) ) ;
#101 = ORIENTED_EDGE ( 'NONE', *, *, #69, .F. ) ;
#102 =( NAMED_UNIT ( * ) SI_UNIT ( $, .STERADIAN. ) SOLID_ANGLE_UNIT ( ) );
#103 = AXIS2_PLACEMENT_3D ( 'NONE', #97, #142, #31 ) ;
#104 = PRESENTATION_LAYER_ASSIGNMENT (  '', '', ( #286 ) ) ;
#105 = FILL_AREA_STYLE_COLOUR ( '', #282 ) ;
#106 = CARTESIAN_POINT ( 'NONE',  ( -0.6249999999999994449, 4.500000000000000000, 0.000000000000000000 ) ) ;
#107 = DIMENSIONAL_EXPONENTS ( 1.000000000000000000, 0.000000000000000000, 0.000000000000000000, 0.000000000000000000, 0.000000000000000000, 0.000000000000000000, 0.000000000000000000 ) ;
#108 = CARTESIAN_POINT ( 'NONE',  ( 0.000000000000000000, 0.000000000000000000, -0.6250000000000000000 ) ) ;
#109 = MECHANICAL_DESIGN_GEOMETRIC_PRESENTATION_REPRESENTATION (  '', ( #230 ), #250 ) ;
#110 = DIRECTION ( 'NONE',  ( 0.000000000000000000, 0.000000000000000000, -1.000000000000000000 ) ) ;
#111 = DIMENSIONAL_EXPONENTS ( 1.000000000000000000, 0.000000000000000000, 0.000000000000000000, 0.000000000000000000, 0.000000000000000000, 0.000000000000000000, 0.000000000000000000 ) ;
#112 =( CONVERSION_BASED_UNIT ( 'INCH', #145 ) LENGTH_UNIT ( ) NAMED_UNIT ( #107 ) );
#113 = DIRECTION ( 'NONE',  ( -0.000000000000000000, -1.000000000000000000, -0.000000000000000000 ) ) ;
#114 = SURFACE_STYLE_USAGE ( .BOTH. , #189 ) ;
#115 = EDGE_LOOP ( 'NONE', ( #43, #79 ) ) ;
#116 = PRESENTATION_STYLE_ASSIGNMENT (( #159 ) ) ;
#117 = CARTESIAN_POINT ( 'NONE',  ( 7.654042494670957853E-17, 0.000000000000000000, 0.6250000000000000000 ) ) ;
#118 = PRESENTATION_LAYER_ASSIGNMENT (  '', '', ( #73 ) ) ;
#119 = AXIS2_PLACEMENT_3D ( 'NONE', #275, #249, #205 ) ;
#120 = PRODUCT ( '44467', '44467', '', ( #261 ) ) ;
#121 = SURFACE_STYLE_FILL_AREA ( #199 ) ;
#122 = ADVANCED_FACE ( 'NONE', ( #235 ), #260, .F. ) ;
#123 = VECTOR ( 'NONE', #1, 39.37007874015748143 ) ;
#124 = ORIENTED_EDGE ( 'NONE', *, *, #178, .T. ) ;
#125 = SURFACE_SIDE_STYLE ('',( #57 ) ) ;
#126 = CIRCLE ( 'NONE', #188, 0.6250000000000000000 ) ;
#127 =( LENGTH_UNIT ( ) NAMED_UNIT ( * ) SI_UNIT ( $, .METRE. ) );
#128 = DIRECTION ( 'NONE',  ( 0.000000000000000000, 1.000000000000000000, 0.000000000000000000 ) ) ;
#129 = DIRECTION ( 'NONE',  ( -1.000000000000000000, 0.000000000000000000, 0.000000000000000000 ) ) ;
#130 = VERTEX_POINT ( 'NONE', #212 ) ;
#131 = PLANE ( 'NONE',  #309 ) ;
#132 = AXIS2_PLACEMENT_3D ( 'NONE', #208, #176, #110 ) ;
#133 = COLOUR_RGB ( '',1.000000000000000000, 0.000000000000000000, 0.000000000000000000 ) ;
#134 = UNCERTAINTY_MEASURE_WITH_UNIT (LENGTH_MEASURE( 1.000000000000000082E-05 ), #66, 'distance_accuracy_value', 'NONE');
#135 = FILL_AREA_STYLE_COLOUR ( '', #16 ) ;
#136 = EDGE_LOOP ( 'NONE', ( #18, #289 ) ) ;
#137 = LENGTH_MEASURE_WITH_UNIT ( LENGTH_MEASURE( 0.02539999999999999897 ), #127 );
#138 = FILL_AREA_STYLE ('',( #105 ) ) ;
#139 =( NAMED_UNIT ( * ) SI_UNIT ( $, .STERADIAN. ) SOLID_ANGLE_UNIT ( ) );
#140 = FILL_AREA_STYLE ('',( #25 ) ) ;
#141 = DIRECTION ( 'NONE',  ( 1.224646799147352961E-16, 1.000000000000000000, -0.000000000000000000 ) ) ;
#142 = DIRECTION ( 'NONE',  ( -0.000000000000000000, -1.000000000000000000, -0.000000000000000000 ) ) ;
#143 = CARTESIAN_POINT ( 'NONE',  ( 3.061616997868382155E-16, 4.500000000000000000, 0.000000000000000000 ) ) ;
#144 = SHAPE_DEFINITION_REPRESENTATION ( #83, #252 ) ;
#145 = LENGTH_MEASURE_WITH_UNIT ( LENGTH_MEASURE( 0.02539999999999999897 ), #288 );
#146 = CARTESIAN_POINT ( 'NONE',  ( 0.000000000000000000, 0.000000000000000000, 0.000000000000000000 ) ) ;
#147 = EDGE_LOOP ( 'NONE', ( #150, #185, #175, #308 ) ) ;
#148 = UNCERTAINTY_MEASURE_WITH_UNIT (LENGTH_MEASURE( 1.000000000000000082E-05 ), #264, 'distance_accuracy_value', 'NONE');
#149 =( GEOMETRIC_REPRESENTATION_CONTEXT ( 3 ) GLOBAL_UNCERTAINTY_ASSIGNED_CONTEXT ( ( #258 ) ) GLOBAL_UNIT_ASSIGNED_CONTEXT ( ( #40, #156, #190 ) ) REPRESENTATION_CONTEXT ( 'NONE', 'WORKASPACE' ) );
#150 = ORIENTED_EDGE ( 'NONE', *, *, #178, .F. ) ;
#151 = ORIENTED_EDGE ( 'NONE', *, *, #157, .F. ) ;
#152 = LENGTH_MEASURE_WITH_UNIT ( LENGTH_MEASURE( 0.02539999999999999897 ), #153 );
#153 =( LENGTH_UNIT ( ) NAMED_UNIT ( * ) SI_UNIT ( $, .METRE. ) );
#154 = STYLED_ITEM ( 'NONE', ( #116 ), #303 ) ;
#155 = DIRECTION ( 'NONE',  ( 1.224646799147352961E-16, 1.000000000000000000, -0.000000000000000000 ) ) ;
#156 =( NAMED_UNIT ( * ) PLANE_ANGLE_UNIT ( ) SI_UNIT ( $, .RADIAN. ) );
#157 = EDGE_CURVE ( 'NONE', #304, #300, #85, .T. ) ;
#158 = FACE_OUTER_BOUND ( 'NONE', #147, .T. ) ;
#159 = SURFACE_STYLE_USAGE ( .BOTH. , #191 ) ;
#160 = PRODUCT_RELATED_PRODUCT_CATEGORY ( 'part', '', ( #120 ) ) ;
#161 = APPLICATION_CONTEXT ( 'automotive_design' ) ;
#162 = DIRECTION ( 'NONE',  ( 1.224646799147352961E-16, 1.000000000000000000, -0.000000000000000000 ) ) ;
#163 = DIRECTION ( 'NONE',  ( -0.000000000000000000, -1.000000000000000000, -0.000000000000000000 ) ) ;
#164 = STYLED_ITEM ( 'NONE', ( #63 ), #200 ) ;
#165 = CARTESIAN_POINT ( 'NONE',  ( 0.6250000000000000000, 2.000000000000000000, 7.654042494670955388E-17 ) ) ;
#166 = DIRECTION ( 'NONE',  ( -1.224646799147352961E-16, -1.000000000000000000, 0.000000000000000000 ) ) ;
#167 = CYLINDRICAL_SURFACE ( 'NONE', #256, 0.6249999999999998890 ) ;
#168 = DIRECTION ( 'NONE',  ( 1.224646799147352961E-16, 1.000000000000000000, -0.000000000000000000 ) ) ;
#169 = MECHANICAL_DESIGN_GEOMETRIC_PRESENTATION_REPRESENTATION (  '', ( #164 ), #96 ) ;
#170 = DIRECTION ( 'NONE',  ( 0.000000000000000000, 0.000000000000000000, -1.000000000000000000 ) ) ;
#171 = UNCERTAINTY_MEASURE_WITH_UNIT (LENGTH_MEASURE( 1.000000000000000082E-05 ), #112, 'distance_accuracy_value', 'NONE');
#172 = EDGE_CURVE ( 'NONE', #130, #225, #243, .T. ) ;
#173 = ORIENTED_EDGE ( 'NONE', *, *, #172, .F. ) ;
#174 = AXIS2_PLACEMENT_3D ( 'NONE', #196, #141, #29 ) ;
#175 = ORIENTED_EDGE ( 'NONE', *, *, #69, .T. ) ;
#176 = DIRECTION ( 'NONE',  ( -0.000000000000000000, -1.000000000000000000, -0.000000000000000000 ) ) ;
#177 =( CONVERSION_BASED_UNIT ( 'INCH', #137 ) LENGTH_UNIT ( ) NAMED_UNIT ( #239 ) );
#178 = EDGE_CURVE ( 'NONE', #203, #72, #21, .T. ) ;
#179 = CIRCLE ( 'NONE', #132, 0.6250000000000000000 ) ;
#180 = PRODUCT_DEFINITION_FORMATION_WITH_SPECIFIED_SOURCE ( 'ANY', '', #120, .NOT_KNOWN. ) ;
#181 =( NAMED_UNIT ( * ) SI_UNIT ( $, .STERADIAN. ) SOLID_ANGLE_UNIT ( ) );
#182 = FILL_AREA_STYLE ('',( #135 ) ) ;
#183 = SURFACE_SIDE_STYLE ('',( #302 ) ) ;
#184 =( LENGTH_UNIT ( ) NAMED_UNIT ( * ) SI_UNIT ( $, .METRE. ) );
#185 = ORIENTED_EDGE ( 'NONE', *, *, #237, .T. ) ;
#186 =( NAMED_UNIT ( * ) SI_UNIT ( $, .STERADIAN. ) SOLID_ANGLE_UNIT ( ) );
#187 = VECTOR ( 'NONE', #224, 39.37007874015748143 ) ;
#188 = AXIS2_PLACEMENT_3D ( 'NONE', #76, #283, #3 ) ;
#189 = SURFACE_SIDE_STYLE ('',( #7 ) ) ;
#190 =( NAMED_UNIT ( * ) SI_UNIT ( $, .STERADIAN. ) SOLID_ANGLE_UNIT ( ) );
#191 = SURFACE_SIDE_STYLE ('',( #217 ) ) ;
#192 =( NAMED_UNIT ( * ) PLANE_ANGLE_UNIT ( ) SI_UNIT ( $, .RADIAN. ) );
#193 = DIRECTION ( 'NONE',  ( 1.000000000000000000, 0.000000000000000000, 0.000000000000000000 ) ) ;
#194 = COLOUR_RGB ( '',1.000000000000000000, 0.000000000000000000, 0.000000000000000000 ) ;
#195 = CARTESIAN_POINT ( 'NONE',  ( 0.000000000000000000, 0.000000000000000000, -0.6250000000000000000 ) ) ;
#196 = CARTESIAN_POINT ( 'NONE',  ( 3.061616997868382155E-16, 4.500000000000000000, 0.000000000000000000 ) ) ;
#197 = ORIENTED_EDGE ( 'NONE', *, *, #157, .T. ) ;
#198 = CARTESIAN_POINT ( 'NONE',  ( 0.6250000000000001110, 4.500000000000000000, 7.654042494670955388E-17 ) ) ;
#199 = FILL_AREA_STYLE ('',( #226 ) ) ;
#200 = MANIFOLD_SOLID_BREP ( 'Revolve - Tool Body (Straight Shanked)', #34 ) ;
#201 = DIRECTION ( 'NONE',  ( 1.224646799147352961E-16, 1.000000000000000000, -0.000000000000000000 ) ) ;
#202 = ADVANCED_FACE ( 'NONE', ( #287 ), #131, .T. ) ;
#203 = VERTEX_POINT ( 'NONE', #301 ) ;
#204 = ORIENTED_EDGE ( 'NONE', *, *, #270, .F. ) ;
#205 = DIRECTION ( 'NONE',  ( -1.000000000000000000, 0.000000000000000000, 0.000000000000000000 ) ) ;
#206 = FILL_AREA_STYLE_COLOUR ( '', #194 ) ;
#207 = PLANE ( 'NONE',  #296 ) ;
#208 = CARTESIAN_POINT ( 'NONE',  ( 0.000000000000000000, 0.000000000000000000, 0.000000000000000000 ) ) ;
#209 = LINE ( 'NONE', #108, #263 ) ;
#210 = AXIS2_PLACEMENT_3D ( 'NONE', #269, #168, #32 ) ;
#211 = CIRCLE ( 'NONE', #33, 0.6250000000000000000 ) ;
#212 = CARTESIAN_POINT ( 'NONE',  ( -0.6250000000000000000, 2.000000000000000000, 0.000000000000000000 ) ) ;
#213 = EDGE_LOOP ( 'NONE', ( #278, #253 ) ) ;
#214 = DIMENSIONAL_EXPONENTS ( 1.000000000000000000, 0.000000000000000000, 0.000000000000000000, 0.000000000000000000, 0.000000000000000000, 0.000000000000000000, 0.000000000000000000 ) ;
#215 = LENGTH_MEASURE_WITH_UNIT ( LENGTH_MEASURE( 0.02539999999999999897 ), #219 );
#216 = DIRECTION ( 'NONE',  ( 0.000000000000000000, -1.000000000000000000, -0.000000000000000000 ) ) ;
#217 = SURFACE_STYLE_FILL_AREA ( #138 ) ;
#218 = EDGE_CURVE ( 'NONE', #304, #130, #211, .T. ) ;
#219 =( LENGTH_UNIT ( ) NAMED_UNIT ( * ) SI_UNIT ( $, .METRE. ) );
#220 = CYLINDRICAL_SURFACE ( 'NONE', #30, 0.6250000000000000000 ) ;
#221 = CARTESIAN_POINT ( 'NONE',  ( -0.6249999999999996669, 4.500000000000000000, 0.000000000000000000 ) ) ;
#222 = ORIENTED_EDGE ( 'NONE', *, *, #218, .F. ) ;
#223 =( NAMED_UNIT ( * ) SI_UNIT ( $, .STERADIAN. ) SOLID_ANGLE_UNIT ( ) );
#224 = DIRECTION ( 'NONE',  ( -0.000000000000000000, -1.000000000000000000, -0.000000000000000000 ) ) ;
#225 = VERTEX_POINT ( 'NONE', #106 ) ;
#226 = FILL_AREA_STYLE_COLOUR ( '', #53 ) ;
#227 = EDGE_CURVE ( 'NONE', #68, #203, #126, .T. ) ;
#228 = DIRECTION ( 'NONE',  ( 1.224646799147352961E-16, 1.000000000000000000, -0.000000000000000000 ) ) ;
#229 = ORIENTED_EDGE ( 'NONE', *, *, #218, .T. ) ;
#230 = STYLED_ITEM ( 'NONE', ( #77 ), #268 ) ;
#231 = PRESENTATION_STYLE_ASSIGNMENT (( #59 ) ) ;
#232 = CARTESIAN_POINT ( 'NONE',  ( 7.654042494670957853E-17, 0.000000000000000000, 0.6250000000000000000 ) ) ;
#233 = AXIS2_PLACEMENT_3D ( 'NONE', #90, #262, #49 ) ;
#234 = FACE_OUTER_BOUND ( 'NONE', #254, .T. ) ;
#235 = FACE_OUTER_BOUND ( 'NONE', #213, .T. ) ;
#236 = PLANE ( 'NONE',  #210 ) ;
#237 = EDGE_CURVE ( 'NONE', #203, #68, #74, .T. ) ;
#238 = CARTESIAN_POINT ( 'NONE',  ( 0.000000000000000000, 0.000000000000000000, 0.000000000000000000 ) ) ;
#239 = DIMENSIONAL_EXPONENTS ( 1.000000000000000000, 0.000000000000000000, 0.000000000000000000, 0.000000000000000000, 0.000000000000000000, 0.000000000000000000, 0.000000000000000000 ) ;
#240 = PRESENTATION_LAYER_ASSIGNMENT (  '', '', ( #230 ) ) ;
#241 = DIRECTION ( 'NONE',  ( 1.000000000000000000, -1.224646799147352961E-16, 0.000000000000000000 ) ) ;
#242 = ORIENTED_EDGE ( 'NONE', *, *, #274, .F. ) ;
#243 = LINE ( 'NONE', #221, #307 ) ;
#244 =( NAMED_UNIT ( * ) PLANE_ANGLE_UNIT ( ) SI_UNIT ( $, .RADIAN. ) );
#245 = CLOSED_SHELL ( 'NONE', ( #268, #284, #81, #202 ) ) ;
#246 = FACE_OUTER_BOUND ( 'NONE', #92, .T. ) ;
#247 = CARTESIAN_POINT ( 'NONE',  ( 0.000000000000000000, 2.000000000000000000, -0.6250000000000000000 ) ) ;
#248 =( GEOMETRIC_REPRESENTATION_CONTEXT ( 3 ) GLOBAL_UNCERTAINTY_ASSIGNED_CONTEXT ( ( #267 ) ) GLOBAL_UNIT_ASSIGNED_CONTEXT ( ( #177, #192, #181 ) ) REPRESENTATION_CONTEXT ( 'NONE', 'WORKASPACE' ) );
#249 = DIRECTION ( 'NONE',  ( 1.224646799147352961E-16, 1.000000000000000000, -0.000000000000000000 ) ) ;
#250 =( GEOMETRIC_REPRESENTATION_CONTEXT ( 3 ) GLOBAL_UNCERTAINTY_ASSIGNED_CONTEXT ( ( #295 ) ) GLOBAL_UNIT_ASSIGNED_CONTEXT ( ( #54, #297, #139 ) ) REPRESENTATION_CONTEXT ( 'NONE', 'WORKASPACE' ) );
#251 =( CONVERSION_BASED_UNIT ( 'INCH', #152 ) LENGTH_UNIT ( ) NAMED_UNIT ( #60 ) );
#252 = ADVANCED_BREP_SHAPE_REPRESENTATION ( '44467', ( #303, #200, #9 ), #41 ) ;
#253 = ORIENTED_EDGE ( 'NONE', *, *, #274, .T. ) ;
#254 = EDGE_LOOP ( 'NONE', ( #37, #197, #89, #173 ) ) ;
#255 = DIRECTION ( 'NONE',  ( 0.000000000000000000, -0.000000000000000000, 1.000000000000000000 ) ) ;
#256 = AXIS2_PLACEMENT_3D ( 'NONE', #143, #162, #95 ) ;
#257 = MECHANICAL_DESIGN_GEOMETRIC_PRESENTATION_REPRESENTATION (  '', ( #61 ), #65 ) ;
#258 = UNCERTAINTY_MEASURE_WITH_UNIT (LENGTH_MEASURE( 1.000000000000000082E-05 ), #40, 'distance_accuracy_value', 'NONE');
#259 = DIMENSIONAL_EXPONENTS ( 1.000000000000000000, 0.000000000000000000, 0.000000000000000000, 0.000000000000000000, 0.000000000000000000, 0.000000000000000000, 0.000000000000000000 ) ;
#260 = PLANE ( 'NONE',  #10 ) ;
#261 = PRODUCT_CONTEXT ( 'NONE', #161, 'mechanical' ) ;
#262 = DIRECTION ( 'NONE',  ( -0.000000000000000000, -1.000000000000000000, -0.000000000000000000 ) ) ;
#263 = VECTOR ( 'NONE', #306, 39.37007874015748143 ) ;
#264 =( CONVERSION_BASED_UNIT ( 'INCH', #67 ) LENGTH_UNIT ( ) NAMED_UNIT ( #214 ) );
#265 =( LENGTH_UNIT ( ) NAMED_UNIT ( * ) SI_UNIT ( $, .METRE. ) );
#266 = APPLICATION_PROTOCOL_DEFINITION ( 'draft international standard', 'automotive_design', 1998, #2 ) ;
#267 = UNCERTAINTY_MEASURE_WITH_UNIT (LENGTH_MEASURE( 1.000000000000000082E-05 ), #177, 'distance_accuracy_value', 'NONE');
#268 = ADVANCED_FACE ( 'NONE', ( #246 ), #220, .T. ) ;
#269 = CARTESIAN_POINT ( 'NONE',  ( 4.686749320818303656E-33, 2.000000000000000000, 0.000000000000000000 ) ) ;
#270 = EDGE_CURVE ( 'NONE', #130, #304, #272, .T. ) ;
#271 = SURFACE_SIDE_STYLE ('',( #121 ) ) ;
#272 = CIRCLE ( 'NONE', #291, 0.6250000000000000000 ) ;
#273 = LENGTH_MEASURE_WITH_UNIT ( LENGTH_MEASURE( 0.02539999999999999897 ), #265 );
#274 = EDGE_CURVE ( 'NONE', #300, #225, #87, .T. ) ;
#275 = CARTESIAN_POINT ( 'NONE',  ( 3.061616997868382155E-16, 4.500000000000000000, 0.000000000000000000 ) ) ;
#276 = AXIS2_PLACEMENT_3D ( 'NONE', #99, #201, #294 ) ;
#277 =( GEOMETRIC_REPRESENTATION_CONTEXT ( 3 ) GLOBAL_UNCERTAINTY_ASSIGNED_CONTEXT ( ( #171 ) ) GLOBAL_UNIT_ASSIGNED_CONTEXT ( ( #112, #62, #223 ) ) REPRESENTATION_CONTEXT ( 'NONE', 'WORKASPACE' ) );
#278 = ORIENTED_EDGE ( 'NONE', *, *, #64, .T. ) ;
#279 = SURFACE_STYLE_FILL_AREA ( #182 ) ;
#280 = FACE_OUTER_BOUND ( 'NONE', #136, .T. ) ;
#281 = DIRECTION ( 'NONE',  ( 0.000000000000000000, 0.000000000000000000, -1.000000000000000000 ) ) ;
#282 = COLOUR_RGB ( '',0.7921568627450980005, 0.8196078431372548767, 0.9333333333333333481 ) ;
#283 = DIRECTION ( 'NONE',  ( -0.000000000000000000, -1.000000000000000000, -0.000000000000000000 ) ) ;
#284 = ADVANCED_FACE ( 'NONE', ( #280 ), #207, .T. ) ;
#285 = AXIS2_PLACEMENT_3D ( 'NONE', #45, #163, #28 ) ;
#286 = STYLED_ITEM ( 'NONE', ( #78 ), #202 ) ;
#287 = FACE_OUTER_BOUND ( 'NONE', #115, .T. ) ;
#288 =( LENGTH_UNIT ( ) NAMED_UNIT ( * ) SI_UNIT ( $, .METRE. ) );
#289 = ORIENTED_EDGE ( 'NONE', *, *, #237, .F. ) ;
#290 = APPLICATION_PROTOCOL_DEFINITION ( 'draft international standard', 'automotive_design', 1998, #161 ) ;
#291 = AXIS2_PLACEMENT_3D ( 'NONE', #299, #228, #8 ) ;
#292 = FACE_OUTER_BOUND ( 'NONE', #298, .T. ) ;
#293 = PRODUCT_DEFINITION ( 'UNKNOWN', '', #180, #20 ) ;
#294 = DIRECTION ( 'NONE',  ( -1.000000000000000000, 0.000000000000000000, 0.000000000000000000 ) ) ;
#295 = UNCERTAINTY_MEASURE_WITH_UNIT (LENGTH_MEASURE( 1.000000000000000082E-05 ), #54, 'distance_accuracy_value', 'NONE');
#296 = AXIS2_PLACEMENT_3D ( 'NONE', #75, #128, #255 ) ;
#297 =( NAMED_UNIT ( * ) PLANE_ANGLE_UNIT ( ) SI_UNIT ( $, .RADIAN. ) );
#298 = EDGE_LOOP ( 'NONE', ( #204, #222 ) ) ;
#299 = CARTESIAN_POINT ( 'NONE',  ( 0.000000000000000000, 2.000000000000000000, 0.000000000000000000 ) ) ;
#300 = VERTEX_POINT ( 'NONE', #38 ) ;
#301 = CARTESIAN_POINT ( 'NONE',  ( 7.654042494670957853E-17, 2.000000000000000000, 0.6250000000000000000 ) ) ;
#302 = SURFACE_STYLE_FILL_AREA ( #82 ) ;
#303 = MANIFOLD_SOLID_BREP ( 'Revolve - Cutting Edge', #245 ) ;
#304 = VERTEX_POINT ( 'NONE', #165 ) ;
#305 = ADVANCED_FACE ( 'NONE', ( #234 ), #44, .T. ) ;
#306 = DIRECTION ( 'NONE',  ( -0.000000000000000000, -1.000000000000000000, -0.000000000000000000 ) ) ;
#307 = VECTOR ( 'NONE', #51, 39.37007874015748143 ) ;
#308 = ORIENTED_EDGE ( 'NONE', *, *, #71, .F. ) ;
#309 = AXIS2_PLACEMENT_3D ( 'NONE', #238, #216, #281 ) ;
ENDSEC;
END-ISO-10303-21;
