ISO-10303-21;
HEADER;
FILE_DESCRIPTION (( 'STEP AP214' ),
    '1' );
FILE_NAME ('Micro_RME-012-2X.STEP',
    '2021-09-01T22:26:23',
    ( '' ),
    ( '' ),
    'SwSTEP 2.0',
    'SolidWorks 2020',
    '' );
FILE_SCHEMA (( 'AUTOMOTIVE_DESIGN' ));
ENDSEC;

DATA;
#1 = FACE_OUTER_BOUND ( 'NONE', #15, .T. ) ;
#2 = VECTOR ( 'NONE', #191, 39.37007874015748143 ) ;
#3 = DIRECTION ( 'NONE',  ( -0.0000000000000000000, -0.0000000000000000000, -1.000000000000000000 ) ) ;
#4 = CARTESIAN_POINT ( 'NONE',  ( 0.04750000000000064587, 5.817072295950006528E-18, 1.500000000000000222 ) ) ;
#5 = ORIENTED_EDGE ( 'NONE', *, *, #246, .T. ) ;
#6 = CARTESIAN_POINT ( 'NONE',  ( -0.06250000000000002776, 0.0000000000000000000, 1.500000000000000222 ) ) ;
#7 = CARTESIAN_POINT ( 'NONE',  ( 0.0000000000000000000, 0.0000000000000000000, 1.500000000000000222 ) ) ;
#8 = AXIS2_PLACEMENT_3D ( 'NONE', #87, #292, #129 ) ;
#9 = ORIENTED_EDGE ( 'NONE', *, *, #278, .T. ) ;
#10 = EDGE_CURVE ( 'NONE', #29, #54, #146, .T. ) ;
#11 =( CONVERSION_BASED_UNIT ( 'INCH', #31 ) LENGTH_UNIT ( ) NAMED_UNIT ( #53 ) );
#12 = VERTEX_POINT ( 'NONE', #263 ) ;
#13 = ORIENTED_EDGE ( 'NONE', *, *, #85, .F. ) ;
#14 = VECTOR ( 'NONE', #3, 39.37007874015748143 ) ;
#15 = EDGE_LOOP ( 'NONE', ( #123, #9 ) ) ;
#16 = FILL_AREA_STYLE ('',( #208 ) ) ;
#17 = ORIENTED_EDGE ( 'NONE', *, *, #194, .F. ) ;
#18 = CARTESIAN_POINT ( 'NONE',  ( -0.005993999999999994992, 4.194047893039942847E-18, 0.03599999999999999728 ) ) ;
#19 = CIRCLE ( 'NONE', #8, 0.04750000000000064587 ) ;
#20 = CONICAL_SURFACE ( 'NONE', #182, 0.04750000000000064587, 0.7853981633974466137 ) ;
#21 = DIRECTION ( 'NONE',  ( -1.000000000000000000, 0.0000000000000000000, 1.224646799147353700E-16 ) ) ;
#22 = UNCERTAINTY_MEASURE_WITH_UNIT (LENGTH_MEASURE( 1.000000000000000082E-05 ), #89, 'distance_accuracy_value', 'NONE');
#23 = CARTESIAN_POINT ( 'NONE',  ( 0.0000000000000000000, 0.0000000000000000000, 1.500000000000000222 ) ) ;
#24 = CARTESIAN_POINT ( 'NONE',  ( 0.0000000000000000000, 0.0000000000000000000, 1.500000000000000222 ) ) ;
#25 = FACE_OUTER_BOUND ( 'NONE', #196, .T. ) ;
#26 = APPLICATION_CONTEXT ( 'automotive_design' ) ;
#27 = CIRCLE ( 'NONE', #291, 0.06250000000000002776 ) ;
#28 = PRODUCT_DEFINITION_FORMATION_WITH_SPECIFIED_SOURCE ( 'ANY', '', #297, .NOT_KNOWN. ) ;
#29 = VERTEX_POINT ( 'NONE', #52 ) ;
#30 = EDGE_LOOP ( 'NONE', ( #78, #5, #256, #195 ) ) ;
#31 = LENGTH_MEASURE_WITH_UNIT ( LENGTH_MEASURE( 0.02539999999999999897 ), #143 );
#32 = EDGE_LOOP ( 'NONE', ( #186, #69, #173, #100 ) ) ;
#33 = AXIS2_PLACEMENT_3D ( 'NONE', #199, #39, #62 ) ;
#34 = DIRECTION ( 'NONE',  ( -0.0000000000000000000, -0.0000000000000000000, -1.000000000000000000 ) ) ;
#35 = SURFACE_STYLE_USAGE ( .BOTH. , #151 ) ;
#36 = EDGE_CURVE ( 'NONE', #145, #218, #192, .T. ) ;
#37 = FILL_AREA_STYLE_COLOUR ( '', #176 ) ;
#38 = CIRCLE ( 'NONE', #238, 0.005993999999999999329 ) ;
#39 = DIRECTION ( 'NONE',  ( -1.224646799147353454E-16, -0.0000000000000000000, -1.000000000000000000 ) ) ;
#40 = DIRECTION ( 'NONE',  ( -1.000000000000000000, 0.0000000000000000000, 0.0000000000000000000 ) ) ;
#41 = CLOSED_SHELL ( 'NONE', ( #104, #293, #107, #136, #49, #299, #273, #254, #67, #152 ) ) ;
#42 = MECHANICAL_DESIGN_GEOMETRIC_PRESENTATION_REPRESENTATION (  '', ( #117 ), #64 ) ;
#43 = DIRECTION ( 'NONE',  ( -1.224646799147353454E-16, -0.0000000000000000000, -1.000000000000000000 ) ) ;
#44 = EDGE_CURVE ( 'NONE', #218, #145, #38, .T. ) ;
#45 = ORIENTED_EDGE ( 'NONE', *, *, #174, .T. ) ;
#46 = LINE ( 'NONE', #6, #14 ) ;
#47 = DIRECTION ( 'NONE',  ( 1.224646799147353454E-16, 0.0000000000000000000, 1.000000000000000000 ) ) ;
#48 = FACE_OUTER_BOUND ( 'NONE', #216, .T. ) ;
#49 = ADVANCED_FACE ( 'NONE', ( #147 ), #98, .T. ) ;
#50 = CONICAL_SURFACE ( 'NONE', #160, 0.005993999999999999329, 0.1745329251994338637 ) ;
#51 = FACE_OUTER_BOUND ( 'NONE', #169, .T. ) ;
#52 = CARTESIAN_POINT ( 'NONE',  ( -0.06249999999999997918, 0.0000000000000000000, 0.3564614504993167121 ) ) ;
#53 = DIMENSIONAL_EXPONENTS ( 1.000000000000000000, 0.0000000000000000000, 0.0000000000000000000, 0.0000000000000000000, 0.0000000000000000000, 0.0000000000000000000, 0.0000000000000000000 ) ;
#54 = VERTEX_POINT ( 'NONE', #284 ) ;
#55 = DIMENSIONAL_EXPONENTS ( 1.000000000000000000, 0.0000000000000000000, 0.0000000000000000000, 0.0000000000000000000, 0.0000000000000000000, 0.0000000000000000000, 0.0000000000000000000 ) ;
#56 = DIRECTION ( 'NONE',  ( -1.000000000000000000, 0.0000000000000000000, 0.0000000000000000000 ) ) ;
#57 = VERTEX_POINT ( 'NONE', #76 ) ;
#58 = CARTESIAN_POINT ( 'NONE',  ( 8.989560137275184424E-35, 0.0000000000000000000, 7.340532914089242004E-19 ) ) ;
#59 = DIRECTION ( 'NONE',  ( -1.224646799147353454E-16, -0.0000000000000000000, -1.000000000000000000 ) ) ;
#60 =( GEOMETRIC_REPRESENTATION_CONTEXT ( 3 ) GLOBAL_UNCERTAINTY_ASSIGNED_CONTEXT ( ( #257 ) ) GLOBAL_UNIT_ASSIGNED_CONTEXT ( ( #86, #125, #127 ) ) REPRESENTATION_CONTEXT ( 'NONE', 'WORKASPACE' ) );
#61 = DIRECTION ( 'NONE',  ( 0.1736481776669313581, 0.0000000000000000000, 0.9848077530122077983 ) ) ;
#62 = DIRECTION ( 'NONE',  ( -1.000000000000000000, 0.0000000000000000000, 1.224646799147353207E-16 ) ) ;
#63 = DIRECTION ( 'NONE',  ( -0.0000000000000000000, -0.0000000000000000000, -1.000000000000000000 ) ) ;
#64 =( GEOMETRIC_REPRESENTATION_CONTEXT ( 3 ) GLOBAL_UNCERTAINTY_ASSIGNED_CONTEXT ( ( #130 ) ) GLOBAL_UNIT_ASSIGNED_CONTEXT ( ( #11, #122, #170 ) ) REPRESENTATION_CONTEXT ( 'NONE', 'WORKASPACE' ) );
#65 = DIRECTION ( 'NONE',  ( 0.0000000000000000000, 0.0000000000000000000, -1.000000000000000000 ) ) ;
#66 = ORIENTED_EDGE ( 'NONE', *, *, #230, .T. ) ;
#67 = ADVANCED_FACE ( 'NONE', ( #51 ), #164, .T. ) ;
#68 = CARTESIAN_POINT ( 'NONE',  ( 0.0000000000000000000, 0.0000000000000000000, 1.500000000000000222 ) ) ;
#69 = ORIENTED_EDGE ( 'NONE', *, *, #134, .T. ) ;
#70 = VECTOR ( 'NONE', #260, 39.37007874015748143 ) ;
#71 =( NAMED_UNIT ( * ) SI_UNIT ( $, .STERADIAN. ) SOLID_ANGLE_UNIT ( ) );
#72 = EDGE_LOOP ( 'NONE', ( #45, #287 ) ) ;
#73 = EDGE_CURVE ( 'NONE', #265, #54, #264, .T. ) ;
#74 = CARTESIAN_POINT ( 'NONE',  ( -0.005994000000000001931, 0.0000000000000000000, 7.340532914089238152E-19 ) ) ;
#75 = DIMENSIONAL_EXPONENTS ( 1.000000000000000000, 0.0000000000000000000, 0.0000000000000000000, 0.0000000000000000000, 0.0000000000000000000, 0.0000000000000000000, 0.0000000000000000000 ) ;
#76 = CARTESIAN_POINT ( 'NONE',  ( 0.005994000000000003665, 7.340532914089238152E-19, -1.184750211852384294E-34 ) ) ;
#77 = AXIS2_PLACEMENT_3D ( 'NONE', #7, #155, #255 ) ;
#78 = ORIENTED_EDGE ( 'NONE', *, *, #278, .F. ) ;
#79 = DIRECTION ( 'NONE',  ( -1.000000000000000000, 0.0000000000000000000, 1.224646799147353207E-16 ) ) ;
#80 = DIRECTION ( 'NONE',  ( 0.0000000000000000000, 0.0000000000000000000, 1.000000000000000000 ) ) ;
#81 = CARTESIAN_POINT ( 'NONE',  ( 4.365393743734110901E-17, 0.0000000000000000000, 0.3564614504993167121 ) ) ;
#82 = VERTEX_POINT ( 'NONE', #298 ) ;
#83 = CARTESIAN_POINT ( 'NONE',  ( 0.0000000000000000000, 0.0000000000000000000, 0.0000000000000000000 ) ) ;
#84 = FACE_OUTER_BOUND ( 'NONE', #30, .T. ) ;
#85 = EDGE_CURVE ( 'NONE', #265, #115, #27, .T. ) ;
#86 =( CONVERSION_BASED_UNIT ( 'INCH', #248 ) LENGTH_UNIT ( ) NAMED_UNIT ( #75 ) );
#87 = CARTESIAN_POINT ( 'NONE',  ( 0.0000000000000000000, 0.0000000000000000000, 1.500000000000000222 ) ) ;
#88 = FILL_AREA_STYLE ('',( #37 ) ) ;
#89 =( CONVERSION_BASED_UNIT ( 'INCH', #116 ) LENGTH_UNIT ( ) NAMED_UNIT ( #55 ) );
#90 = AXIS2_PLACEMENT_3D ( 'NONE', #23, #63, #109 ) ;
#91 = ORIENTED_EDGE ( 'NONE', *, *, #134, .F. ) ;
#92 = DIRECTION ( 'NONE',  ( 0.0000000000000000000, 0.0000000000000000000, -1.000000000000000000 ) ) ;
#93 = DIRECTION ( 'NONE',  ( 1.000000000000000000, 0.0000000000000000000, 0.0000000000000000000 ) ) ;
#94 = ORIENTED_EDGE ( 'NONE', *, *, #201, .F. ) ;
#95 = CONICAL_SURFACE ( 'NONE', #239, 0.005993999999999999329, 0.1745329251994338637 ) ;
#96 = COLOUR_RGB ( '',0.7921568627450980005, 0.8196078431372548767, 0.9333333333333333481 ) ;
#97 = DIRECTION ( 'NONE',  ( 0.7071067811865462405, 8.659560562354916834E-17, -0.7071067811865486830 ) ) ;
#98 = CYLINDRICAL_SURFACE ( 'NONE', #141, 0.06250000000000002776 ) ;
#99 = EDGE_CURVE ( 'NONE', #218, #54, #111, .T. ) ;
#100 = ORIENTED_EDGE ( 'NONE', *, *, #99, .F. ) ;
#101 = CIRCLE ( 'NONE', #281, 0.06250000000000002776 ) ;
#102 = DIRECTION ( 'NONE',  ( -1.224646799147353454E-16, -0.0000000000000000000, -1.000000000000000000 ) ) ;
#103 = ORIENTED_EDGE ( 'NONE', *, *, #73, .F. ) ;
#104 = ADVANCED_FACE ( 'NONE', ( #222 ), #296, .T. ) ;
#105 = ORIENTED_EDGE ( 'NONE', *, *, #10, .F. ) ;
#106 = FACE_OUTER_BOUND ( 'NONE', #72, .T. ) ;
#107 = ADVANCED_FACE ( 'NONE', ( #84 ), #20, .T. ) ;
#108 = SURFACE_STYLE_FILL_AREA ( #88 ) ;
#109 = DIRECTION ( 'NONE',  ( -1.000000000000000000, 0.0000000000000000000, 0.0000000000000000000 ) ) ;
#110 = AXIS2_PLACEMENT_3D ( 'NONE', #177, #43, #274 ) ;
#111 = LINE ( 'NONE', #272, #198 ) ;
#112 = DIRECTION ( 'NONE',  ( 1.000000000000000000, 0.0000000000000000000, 0.0000000000000000000 ) ) ;
#113 = DIRECTION ( 'NONE',  ( -1.000000000000000000, 0.0000000000000000000, 0.0000000000000000000 ) ) ;
#114 = AXIS2_PLACEMENT_3D ( 'NONE', #171, #118, #243 ) ;
#115 = VERTEX_POINT ( 'NONE', #150 ) ;
#116 = LENGTH_MEASURE_WITH_UNIT ( LENGTH_MEASURE( 0.02539999999999999897 ), #205 );
#117 = STYLED_ITEM ( 'NONE', ( #213 ), #128 ) ;
#118 = DIRECTION ( 'NONE',  ( -1.224646799147353454E-16, -0.0000000000000000000, -1.000000000000000000 ) ) ;
#119 = ORIENTED_EDGE ( 'NONE', *, *, #44, .F. ) ;
#120 = EDGE_CURVE ( 'NONE', #12, #167, #19, .T. ) ;
#121 = DIRECTION ( 'NONE',  ( -1.224646799147353454E-16, -0.0000000000000000000, -1.000000000000000000 ) ) ;
#122 =( NAMED_UNIT ( * ) PLANE_ANGLE_UNIT ( ) SI_UNIT ( $, .RADIAN. ) );
#123 = ORIENTED_EDGE ( 'NONE', *, *, #120, .T. ) ;
#124 = DIRECTION ( 'NONE',  ( -1.000000000000000000, 0.0000000000000000000, 0.0000000000000000000 ) ) ;
#125 =( NAMED_UNIT ( * ) PLANE_ANGLE_UNIT ( ) SI_UNIT ( $, .RADIAN. ) );
#126 = AXIS2_PLACEMENT_3D ( 'NONE', #83, #226, #225 ) ;
#127 =( NAMED_UNIT ( * ) SI_UNIT ( $, .STERADIAN. ) SOLID_ANGLE_UNIT ( ) );
#128 = ADVANCED_BREP_SHAPE_REPRESENTATION ( 'Micro_RME-012-2X', ( #179, #233 ), #193 ) ;
#129 = DIRECTION ( 'NONE',  ( 1.000000000000000000, 0.0000000000000000000, 0.0000000000000000000 ) ) ;
#130 = UNCERTAINTY_MEASURE_WITH_UNIT (LENGTH_MEASURE( 1.000000000000000082E-05 ), #11, 'distance_accuracy_value', 'NONE');
#131 = PLANE ( 'NONE',  #126 ) ;
#132 = PRODUCT_DEFINITION_SHAPE ( 'NONE', 'NONE',  #168 ) ;
#133 = DIRECTION ( 'NONE',  ( -0.1736481776669311639, 2.126576849575783008E-17, 0.9848077530122080203 ) ) ;
#134 = EDGE_CURVE ( 'NONE', #145, #29, #268, .T. ) ;
#135 = CARTESIAN_POINT ( 'NONE',  ( 4.408728476930471799E-18, 0.0000000000000000000, 0.03599999999999999728 ) ) ;
#136 = ADVANCED_FACE ( 'NONE', ( #200 ), #251, .T. ) ;
#137 = VECTOR ( 'NONE', #277, 39.37007874015748854 ) ;
#138 =( NAMED_UNIT ( * ) PLANE_ANGLE_UNIT ( ) SI_UNIT ( $, .RADIAN. ) );
#139 = DIRECTION ( 'NONE',  ( -1.224646799147353454E-16, -0.0000000000000000000, -1.000000000000000000 ) ) ;
#140 = SHAPE_DEFINITION_REPRESENTATION ( #132, #128 ) ;
#141 = AXIS2_PLACEMENT_3D ( 'NONE', #245, #34, #124 ) ;
#142 = ORIENTED_EDGE ( 'NONE', *, *, #36, .T. ) ;
#143 =( LENGTH_UNIT ( ) NAMED_UNIT ( * ) SI_UNIT ( $, .METRE. ) );
#144 = CARTESIAN_POINT ( 'NONE',  ( 0.0000000000000000000, 0.0000000000000000000, 0.0000000000000000000 ) ) ;
#145 = VERTEX_POINT ( 'NONE', #18 ) ;
#146 = CIRCLE ( 'NONE', #295, 0.06250000000000002776 ) ;
#147 = FACE_OUTER_BOUND ( 'NONE', #289, .T. ) ;
#148 = DIRECTION ( 'NONE',  ( -1.224646799147353454E-16, -0.0000000000000000000, -1.000000000000000000 ) ) ;
#149 = PRESENTATION_LAYER_ASSIGNMENT (  '', '', ( #117 ) ) ;
#150 = CARTESIAN_POINT ( 'NONE',  ( -0.06250000000000002776, 0.0000000000000000000, 1.485000000000000764 ) ) ;
#151 = SURFACE_SIDE_STYLE ('',( #108 ) ) ;
#152 = ADVANCED_FACE ( 'NONE', ( #106 ), #131, .F. ) ;
#153 = DIRECTION ( 'NONE',  ( -1.224646799147353454E-16, -0.0000000000000000000, -1.000000000000000000 ) ) ;
#154 = PRODUCT_DEFINITION_CONTEXT ( 'detailed design', #26, 'design' ) ;
#155 = DIRECTION ( 'NONE',  ( 0.0000000000000000000, 0.0000000000000000000, 1.000000000000000000 ) ) ;
#156 = DIRECTION ( 'NONE',  ( 1.000000000000000000, 0.0000000000000000000, 0.0000000000000000000 ) ) ;
#157 = PLANE ( 'NONE',  #77 ) ;
#158 = ORIENTED_EDGE ( 'NONE', *, *, #73, .T. ) ;
#159 = VECTOR ( 'NONE', #133, 39.37007874015747433 ) ;
#160 = AXIS2_PLACEMENT_3D ( 'NONE', #206, #47, #112 ) ;
#161 = LINE ( 'NONE', #74, #70 ) ;
#162 = EDGE_LOOP ( 'NONE', ( #247, #158, #105, #276 ) ) ;
#163 = PRODUCT_RELATED_PRODUCT_CATEGORY ( 'part', '', ( #297 ) ) ;
#164 = CYLINDRICAL_SURFACE ( 'NONE', #249, 0.005994000000000001931 ) ;
#165 = AXIS2_PLACEMENT_3D ( 'NONE', #58, #153, #21 ) ;
#166 = SURFACE_STYLE_USAGE ( .BOTH. , #261 ) ;
#167 = VERTEX_POINT ( 'NONE', #178 ) ;
#168 = PRODUCT_DEFINITION ( 'UNKNOWN', '', #28, #154 ) ;
#169 = EDGE_LOOP ( 'NONE', ( #286, #237, #279, #94 ) ) ;
#170 =( NAMED_UNIT ( * ) SI_UNIT ( $, .STERADIAN. ) SOLID_ANGLE_UNIT ( ) );
#171 = CARTESIAN_POINT ( 'NONE',  ( 4.408728476930471799E-18, 0.0000000000000000000, 0.03599999999999999728 ) ) ;
#172 = STYLED_ITEM ( 'NONE', ( #204 ), #179 ) ;
#173 = ORIENTED_EDGE ( 'NONE', *, *, #10, .T. ) ;
#174 = EDGE_CURVE ( 'NONE', #82, #57, #266, .T. ) ;
#175 = DIRECTION ( 'NONE',  ( 1.000000000000000000, 0.0000000000000000000, 0.0000000000000000000 ) ) ;
#176 = COLOUR_RGB ( '',0.7921568627450980005, 0.8196078431372548767, 0.9333333333333333481 ) ;
#177 = CARTESIAN_POINT ( 'NONE',  ( 8.989560137275184424E-35, 0.0000000000000000000, 7.340532914089242004E-19 ) ) ;
#178 = CARTESIAN_POINT ( 'NONE',  ( 0.04750000000000064587, 6.735557395310483192E-18, 1.500000000000000222 ) ) ;
#179 = MANIFOLD_SOLID_BREP ( 'Cut-Revolve1', #41 ) ;
#180 = CARTESIAN_POINT ( 'NONE',  ( 0.06250000000000002776, 7.654042494670959086E-18, 1.485000000000000764 ) ) ;
#181 = ORIENTED_EDGE ( 'NONE', *, *, #174, .F. ) ;
#182 = AXIS2_PLACEMENT_3D ( 'NONE', #221, #271, #40 ) ;
#183 = AXIS2_PLACEMENT_3D ( 'NONE', #68, #280, #210 ) ;
#184 = ORIENTED_EDGE ( 'NONE', *, *, #288, .T. ) ;
#185 = FACE_OUTER_BOUND ( 'NONE', #32, .T. ) ;
#186 = ORIENTED_EDGE ( 'NONE', *, *, #36, .F. ) ;
#187 = DIRECTION ( 'NONE',  ( 1.224646799147353454E-16, 0.0000000000000000000, 1.000000000000000000 ) ) ;
#188 = CIRCLE ( 'NONE', #110, 0.005994000000000003665 ) ;
#189 = CARTESIAN_POINT ( 'NONE',  ( -0.04750000000000064587, 0.0000000000000000000, 1.500000000000000222 ) ) ;
#190 = ORIENTED_EDGE ( 'NONE', *, *, #246, .F. ) ;
#191 = DIRECTION ( 'NONE',  ( -0.0000000000000000000, -0.0000000000000000000, -1.000000000000000000 ) ) ;
#192 = CIRCLE ( 'NONE', #114, 0.005993999999999999329 ) ;
#193 =( GEOMETRIC_REPRESENTATION_CONTEXT ( 3 ) GLOBAL_UNCERTAINTY_ASSIGNED_CONTEXT ( ( #22 ) ) GLOBAL_UNIT_ASSIGNED_CONTEXT ( ( #89, #138, #71 ) ) REPRESENTATION_CONTEXT ( 'NONE', 'WORKASPACE' ) );
#194 = EDGE_CURVE ( 'NONE', #54, #29, #232, .T. ) ;
#195 = ORIENTED_EDGE ( 'NONE', *, *, #230, .F. ) ;
#196 = EDGE_LOOP ( 'NONE', ( #190, #290, #66, #13 ) ) ;
#197 = ORIENTED_EDGE ( 'NONE', *, *, #234, .T. ) ;
#198 = VECTOR ( 'NONE', #61, 39.37007874015748143 ) ;
#199 = CARTESIAN_POINT ( 'NONE',  ( 0.0000000000000000000, 0.0000000000000000000, 0.0000000000000000000 ) ) ;
#200 = FACE_OUTER_BOUND ( 'NONE', #162, .T. ) ;
#201 = EDGE_CURVE ( 'NONE', #57, #82, #188, .T. ) ;
#202 = AXIS2_PLACEMENT_3D ( 'NONE', #294, #59, #175 ) ;
#203 =( LENGTH_UNIT ( ) NAMED_UNIT ( * ) SI_UNIT ( $, .METRE. ) );
#204 = PRESENTATION_STYLE_ASSIGNMENT (( #35 ) ) ;
#205 =( LENGTH_UNIT ( ) NAMED_UNIT ( * ) SI_UNIT ( $, .METRE. ) );
#206 = CARTESIAN_POINT ( 'NONE',  ( 4.408728476930471799E-18, 0.0000000000000000000, 0.03599999999999999728 ) ) ;
#207 = PRESENTATION_LAYER_ASSIGNMENT (  '', '', ( #172 ) ) ;
#208 = FILL_AREA_STYLE_COLOUR ( '', #96 ) ;
#209 = ORIENTED_EDGE ( 'NONE', *, *, #194, .T. ) ;
#210 = DIRECTION ( 'NONE',  ( 1.000000000000000000, 0.0000000000000000000, 0.0000000000000000000 ) ) ;
#211 = CONICAL_SURFACE ( 'NONE', #244, 0.04750000000000064587, 0.7853981633974466137 ) ;
#212 = CARTESIAN_POINT ( 'NONE',  ( 4.408728476930471799E-18, 0.0000000000000000000, 0.03599999999999999728 ) ) ;
#213 = PRESENTATION_STYLE_ASSIGNMENT (( #166 ) ) ;
#214 = DIRECTION ( 'NONE',  ( 1.000000000000000000, 0.0000000000000000000, 0.0000000000000000000 ) ) ;
#215 = SURFACE_STYLE_FILL_AREA ( #16 ) ;
#216 = EDGE_LOOP ( 'NONE', ( #91, #119, #240, #209 ) ) ;
#217 = MECHANICAL_DESIGN_GEOMETRIC_PRESENTATION_REPRESENTATION (  '', ( #172 ), #60 ) ;
#218 = VERTEX_POINT ( 'NONE', #228 ) ;
#219 = ORIENTED_EDGE ( 'NONE', *, *, #220, .F. ) ;
#220 = EDGE_CURVE ( 'NONE', #145, #82, #161, .T. ) ;
#221 = CARTESIAN_POINT ( 'NONE',  ( 0.0000000000000000000, 0.0000000000000000000, 1.500000000000000222 ) ) ;
#222 = FACE_OUTER_BOUND ( 'NONE', #267, .T. ) ;
#223 = CARTESIAN_POINT ( 'NONE',  ( -0.005993999999999994992, 7.340532914089234300E-19, 0.03599999999999999728 ) ) ;
#224 = EDGE_CURVE ( 'NONE', #115, #265, #101, .T. ) ;
#225 = DIRECTION ( 'NONE',  ( 1.000000000000000000, 0.0000000000000000000, -0.0000000000000000000 ) ) ;
#226 = DIRECTION ( 'NONE',  ( 0.0000000000000000000, 0.0000000000000000000, 1.000000000000000000 ) ) ;
#227 = CARTESIAN_POINT ( 'NONE',  ( 0.0000000000000000000, 0.0000000000000000000, 1.485000000000000764 ) ) ;
#228 = CARTESIAN_POINT ( 'NONE',  ( 0.005994000000000003665, 0.0000000000000000000, 0.03599999999999999728 ) ) ;
#229 = APPLICATION_CONTEXT ( 'automotive_design' ) ;
#230 = EDGE_CURVE ( 'NONE', #12, #115, #253, .T. ) ;
#231 = LINE ( 'NONE', #258, #275 ) ;
#232 = CIRCLE ( 'NONE', #202, 0.06250000000000002776 ) ;
#233 = AXIS2_PLACEMENT_3D ( 'NONE', #283, #80, #241 ) ;
#234 = EDGE_CURVE ( 'NONE', #115, #29, #46, .T. ) ;
#235 = APPLICATION_PROTOCOL_DEFINITION ( 'draft international standard', 'automotive_design', 1998, #229 ) ;
#236 = PRODUCT_CONTEXT ( 'NONE', #229, 'mechanical' ) ;
#237 = ORIENTED_EDGE ( 'NONE', *, *, #44, .T. ) ;
#238 = AXIS2_PLACEMENT_3D ( 'NONE', #212, #102, #56 ) ;
#239 = AXIS2_PLACEMENT_3D ( 'NONE', #135, #187, #156 ) ;
#240 = ORIENTED_EDGE ( 'NONE', *, *, #99, .T. ) ;
#241 = DIRECTION ( 'NONE',  ( 1.000000000000000000, 0.0000000000000000000, 0.0000000000000000000 ) ) ;
#242 = ORIENTED_EDGE ( 'NONE', *, *, #85, .T. ) ;
#243 = DIRECTION ( 'NONE',  ( -1.000000000000000000, 0.0000000000000000000, 0.0000000000000000000 ) ) ;
#244 = AXIS2_PLACEMENT_3D ( 'NONE', #24, #92, #113 ) ;
#245 = CARTESIAN_POINT ( 'NONE',  ( 0.0000000000000000000, 0.0000000000000000000, 1.500000000000000222 ) ) ;
#246 = EDGE_CURVE ( 'NONE', #167, #265, #282, .T. ) ;
#247 = ORIENTED_EDGE ( 'NONE', *, *, #224, .T. ) ;
#248 = LENGTH_MEASURE_WITH_UNIT ( LENGTH_MEASURE( 0.02539999999999999897 ), #203 );
#249 = AXIS2_PLACEMENT_3D ( 'NONE', #144, #121, #79 ) ;
#250 = CIRCLE ( 'NONE', #183, 0.04750000000000064587 ) ;
#251 = CYLINDRICAL_SURFACE ( 'NONE', #90, 0.06250000000000002776 ) ;
#252 = DIRECTION ( 'NONE',  ( 1.000000000000000000, 0.0000000000000000000, 0.0000000000000000000 ) ) ;
#253 = LINE ( 'NONE', #189, #137 ) ;
#254 = ADVANCED_FACE ( 'NONE', ( #48 ), #95, .T. ) ;
#255 = DIRECTION ( 'NONE',  ( 1.000000000000000000, 0.0000000000000000000, -0.0000000000000000000 ) ) ;
#256 = ORIENTED_EDGE ( 'NONE', *, *, #224, .F. ) ;
#257 = UNCERTAINTY_MEASURE_WITH_UNIT (LENGTH_MEASURE( 1.000000000000000082E-05 ), #86, 'distance_accuracy_value', 'NONE');
#258 = CARTESIAN_POINT ( 'NONE',  ( 0.005994000000000001931, 7.340532914089237189E-19, -7.340532914089238152E-19 ) ) ;
#259 = VECTOR ( 'NONE', #97, 39.37007874015748854 ) ;
#260 = DIRECTION ( 'NONE',  ( -1.224646799147353454E-16, -0.0000000000000000000, -1.000000000000000000 ) ) ;
#261 = SURFACE_SIDE_STYLE ('',( #215 ) ) ;
#262 = CARTESIAN_POINT ( 'NONE',  ( 0.06250000000000002776, 7.654042494670959086E-18, 1.500000000000000222 ) ) ;
#263 = CARTESIAN_POINT ( 'NONE',  ( -0.04750000000000064587, 0.0000000000000000000, 1.500000000000000222 ) ) ;
#264 = LINE ( 'NONE', #262, #2 ) ;
#265 = VERTEX_POINT ( 'NONE', #180 ) ;
#266 = CIRCLE ( 'NONE', #165, 0.005994000000000003665 ) ;
#267 = EDGE_LOOP ( 'NONE', ( #142, #184, #181, #219 ) ) ;
#268 = LINE ( 'NONE', #223, #159 ) ;
#269 = DIRECTION ( 'NONE',  ( 0.0000000000000000000, 0.0000000000000000000, -1.000000000000000000 ) ) ;
#270 = CARTESIAN_POINT ( 'NONE',  ( 0.0000000000000000000, 0.0000000000000000000, 1.485000000000000764 ) ) ;
#271 = DIRECTION ( 'NONE',  ( 0.0000000000000000000, 0.0000000000000000000, -1.000000000000000000 ) ) ;
#272 = CARTESIAN_POINT ( 'NONE',  ( 0.005994000000000003665, 0.0000000000000000000, 0.03599999999999999728 ) ) ;
#273 = ADVANCED_FACE ( 'NONE', ( #25 ), #211, .T. ) ;
#274 = DIRECTION ( 'NONE',  ( -1.000000000000000000, 0.0000000000000000000, 1.224646799147353700E-16 ) ) ;
#275 = VECTOR ( 'NONE', #139, 39.37007874015748143 ) ;
#276 = ORIENTED_EDGE ( 'NONE', *, *, #234, .F. ) ;
#277 = DIRECTION ( 'NONE',  ( -0.7071067811865462405, 0.0000000000000000000, -0.7071067811865486830 ) ) ;
#278 = EDGE_CURVE ( 'NONE', #167, #12, #250, .T. ) ;
#279 = ORIENTED_EDGE ( 'NONE', *, *, #220, .T. ) ;
#280 = DIRECTION ( 'NONE',  ( 0.0000000000000000000, 0.0000000000000000000, 1.000000000000000000 ) ) ;
#281 = AXIS2_PLACEMENT_3D ( 'NONE', #227, #65, #93 ) ;
#282 = LINE ( 'NONE', #4, #259 ) ;
#283 = CARTESIAN_POINT ( 'NONE',  ( 0.0000000000000000000, 0.0000000000000000000, 0.0000000000000000000 ) ) ;
#284 = CARTESIAN_POINT ( 'NONE',  ( 0.06250000000000006939, 7.654042494670963708E-18, 0.3564614504993167121 ) ) ;
#285 = APPLICATION_PROTOCOL_DEFINITION ( 'draft international standard', 'automotive_design', 1998, #26 ) ;
#286 = ORIENTED_EDGE ( 'NONE', *, *, #288, .F. ) ;
#287 = ORIENTED_EDGE ( 'NONE', *, *, #201, .T. ) ;
#288 = EDGE_CURVE ( 'NONE', #218, #57, #231, .T. ) ;
#289 = EDGE_LOOP ( 'NONE', ( #103, #242, #197, #17 ) ) ;
#290 = ORIENTED_EDGE ( 'NONE', *, *, #120, .F. ) ;
#291 = AXIS2_PLACEMENT_3D ( 'NONE', #270, #269, #252 ) ;
#292 = DIRECTION ( 'NONE',  ( 0.0000000000000000000, 0.0000000000000000000, 1.000000000000000000 ) ) ;
#293 = ADVANCED_FACE ( 'NONE', ( #185 ), #50, .T. ) ;
#294 = CARTESIAN_POINT ( 'NONE',  ( 4.365393743734110901E-17, 0.0000000000000000000, 0.3564614504993167121 ) ) ;
#295 = AXIS2_PLACEMENT_3D ( 'NONE', #81, #148, #214 ) ;
#296 = CYLINDRICAL_SURFACE ( 'NONE', #33, 0.005994000000000001931 ) ;
#297 = PRODUCT ( 'Micro_RME-012-2X', 'Micro_RME-012-2X', '', ( #236 ) ) ;
#298 = CARTESIAN_POINT ( 'NONE',  ( -0.005994000000000003665, 0.0000000000000000000, 1.468106582817848401E-18 ) ) ;
#299 = ADVANCED_FACE ( 'NONE', ( #1 ), #157, .T. ) ;
ENDSEC;
END-ISO-10303-21;
