ISO-10303-21;
HEADER;
FILE_DESCRIPTION (( 'STEP AP214' ),
    '1' );
FILE_NAME ('Micro_MMBM-004-3X.STEP',
    '2021-09-03T16:22:00',
    ( '' ),
    ( '' ),
    'SwSTEP 2.0',
    'SolidWorks 2020',
    '' );
FILE_SCHEMA (( 'AUTOMOTIVE_DESIGN' ));
ENDSEC;

DATA;
#1 = DIRECTION ( 'NONE',  ( -1.000000000000000000, 0.0000000000000000000, 0.0000000000000000000 ) ) ;
#2 = VECTOR ( 'NONE', #166, 39.37007874015748143 ) ;
#3 = LINE ( 'NONE', #227, #62 ) ;
#4 = DIRECTION ( 'NONE',  ( -0.7071067811865507924, 0.0000000000000000000, -0.7071067811865443531 ) ) ;
#5 = ORIENTED_EDGE ( 'NONE', *, *, #93, .F. ) ;
#6 = EDGE_CURVE ( 'NONE', #355, #192, #14, .T. ) ;
#7 = DIRECTION ( 'NONE',  ( -0.0000000000000000000, -0.0000000000000000000, -1.000000000000000000 ) ) ;
#8 = DIRECTION ( 'NONE',  ( 0.0000000000000000000, 0.0000000000000000000, -1.000000000000000000 ) ) ;
#9 = DIRECTION ( 'NONE',  ( 0.1736481776669308030, 2.126576849575777153E-17, -0.9848077530122077983 ) ) ;
#10 = DIRECTION ( 'NONE',  ( -0.0000000000000000000, -0.0000000000000000000, -1.000000000000000000 ) ) ;
#11 = CIRCLE ( 'NONE', #330, 0.007480500000000001905 ) ;
#12 = DIRECTION ( 'NONE',  ( -0.0000000000000000000, -0.0000000000000000000, -1.000000000000000000 ) ) ;
#13 = FACE_OUTER_BOUND ( 'NONE', #305, .T. ) ;
#14 = LINE ( 'NONE', #375, #317 ) ;
#15 = ADVANCED_FACE ( 'NONE', ( #274 ), #282, .T. ) ;
#16 = CARTESIAN_POINT ( 'NONE',  ( -0.07874000000000001831, 0.0000000000000000000, 1.953504000000000129 ) ) ;
#17 = ORIENTED_EDGE ( 'NONE', *, *, #135, .F. ) ;
#18 = VECTOR ( 'NONE', #358, 39.37007874015748143 ) ;
#19 = CARTESIAN_POINT ( 'NONE',  ( 0.0000000000000000000, 0.0000000000000000000, 0.01797518382871478304 ) ) ;
#20 = ORIENTED_EDGE ( 'NONE', *, *, #6, .F. ) ;
#21 = CARTESIAN_POINT ( 'NONE',  ( 0.0000000000000000000, 0.0000000000000000000, 1.968503999999999809 ) ) ;
#22 = ORIENTED_EDGE ( 'NONE', *, *, #319, .F. ) ;
#23 = EDGE_CURVE ( 'NONE', #192, #329, #100, .T. ) ;
#24 = DIRECTION ( 'NONE',  ( 1.000000000000000000, 0.0000000000000000000, 0.0000000000000000000 ) ) ;
#25 =( NAMED_UNIT ( * ) SI_UNIT ( $, .STERADIAN. ) SOLID_ANGLE_UNIT ( ) );
#26 = CIRCLE ( 'NONE', #34, 0.007873212599999998562 ) ;
#27 = DIRECTION ( 'NONE',  ( -0.1736481776669308030, 0.0000000000000000000, -0.9848077530122077983 ) ) ;
#28 = PRODUCT_DEFINITION ( 'UNKNOWN', '', #292, #128 ) ;
#29 = CIRCLE ( 'NONE', #356, 0.07874000000000001831 ) ;
#30 = CARTESIAN_POINT ( 'NONE',  ( 0.0000000000000000000, 0.0000000000000000000, 1.968503999999999809 ) ) ;
#31 = DIRECTION ( 'NONE',  ( -0.0000000000000000000, 0.0000000000000000000, -1.000000000000000000 ) ) ;
#32 = ORIENTED_EDGE ( 'NONE', *, *, #357, .F. ) ;
#33 = DIRECTION ( 'NONE',  ( 0.0000000000000000000, 0.0000000000000000000, 1.000000000000000000 ) ) ;
#34 = AXIS2_PLACEMENT_3D ( 'NONE', #85, #318, #289 ) ;
#35 = CARTESIAN_POINT ( 'NONE',  ( 0.0000000000000000000, 0.0000000000000000000, 1.968503999999999809 ) ) ;
#36 = EDGE_LOOP ( 'NONE', ( #81, #187 ) ) ;
#37 = LINE ( 'NONE', #143, #349 ) ;
#38 = ORIENTED_EDGE ( 'NONE', *, *, #284, .F. ) ;
#39 = DIRECTION ( 'NONE',  ( -0.0000000000000000000, -0.0000000000000000000, -1.000000000000000000 ) ) ;
#40 = CARTESIAN_POINT ( 'NONE',  ( -0.07874000000000001831, 0.0000000000000000000, 0.1181100000000002287 ) ) ;
#41 = AXIS2_PLACEMENT_3D ( 'NONE', #117, #263, #327 ) ;
#42 = CIRCLE ( 'NONE', #287, 0.007480500000000001905 ) ;
#43 = DIRECTION ( 'NONE',  ( 0.0000000000000000000, 0.0000000000000000000, -1.000000000000000000 ) ) ;
#44 = VERTEX_POINT ( 'NONE', #40 ) ;
#45 = ADVANCED_FACE ( 'NONE', ( #46 ), #153, .T. ) ;
#46 = FACE_OUTER_BOUND ( 'NONE', #97, .T. ) ;
#47 = CARTESIAN_POINT ( 'NONE',  ( 0.0000000000000000000, 0.0000000000000000000, 0.1181100000000000066 ) ) ;
#48 = VERTEX_POINT ( 'NONE', #127 ) ;
#49 = CARTESIAN_POINT ( 'NONE',  ( 0.0000000000000000000, 0.0000000000000000000, 0.0000000000000000000 ) ) ;
#50 = VERTEX_POINT ( 'NONE', #258 ) ;
#51 = CARTESIAN_POINT ( 'NONE',  ( 0.007480500000000007976, 9.160970381021785549E-19, 0.0000000000000000000 ) ) ;
#52 = CARTESIAN_POINT ( 'NONE',  ( 0.07874000000000001831, 9.642868896486260050E-18, 1.953504000000000129 ) ) ;
#53 = CARTESIAN_POINT ( 'NONE',  ( 0.0000000000000000000, 0.0000000000000000000, 0.0000000000000000000 ) ) ;
#54 = AXIS2_PLACEMENT_3D ( 'NONE', #35, #8, #267 ) ;
#55 = FACE_OUTER_BOUND ( 'NONE', #296, .T. ) ;
#56 = AXIS2_PLACEMENT_3D ( 'NONE', #221, #376, #223 ) ;
#57 =( NAMED_UNIT ( * ) PLANE_ANGLE_UNIT ( ) SI_UNIT ( $, .RADIAN. ) );
#58 = DIMENSIONAL_EXPONENTS ( 1.000000000000000000, 0.0000000000000000000, 0.0000000000000000000, 0.0000000000000000000, 0.0000000000000000000, 0.0000000000000000000, 0.0000000000000000000 ) ;
#59 = DIRECTION ( 'NONE',  ( -0.0000000000000000000, -0.0000000000000000000, -1.000000000000000000 ) ) ;
#60 = CIRCLE ( 'NONE', #272, 0.007480500000000014915 ) ;
#61 = DIRECTION ( 'NONE',  ( -1.000000000000000000, 0.0000000000000000000, 0.0000000000000000000 ) ) ;
#62 = VECTOR ( 'NONE', #142, 39.37007874015748143 ) ;
#63 = AXIS2_PLACEMENT_3D ( 'NONE', #145, #328, #67 ) ;
#64 = CARTESIAN_POINT ( 'NONE',  ( 0.007873212599999998562, 9.641904609596609667E-19, 0.01574800000000000158 ) ) ;
#65 = ORIENTED_EDGE ( 'NONE', *, *, #181, .F. ) ;
#66 = DIRECTION ( 'NONE',  ( 1.000000000000000000, 0.0000000000000000000, 0.0000000000000000000 ) ) ;
#67 = DIRECTION ( 'NONE',  ( -1.000000000000000000, 0.0000000000000000000, 0.0000000000000000000 ) ) ;
#68 = ORIENTED_EDGE ( 'NONE', *, *, #160, .T. ) ;
#69 = EDGE_CURVE ( 'NONE', #115, #77, #11, .T. ) ;
#70 = CYLINDRICAL_SURFACE ( 'NONE', #266, 0.007480500000000007976 ) ;
#71 = ORIENTED_EDGE ( 'NONE', *, *, #69, .T. ) ;
#72 = ORIENTED_EDGE ( 'NONE', *, *, #213, .F. ) ;
#73 = EDGE_CURVE ( 'NONE', #312, #48, #241, .T. ) ;
#74 = ORIENTED_EDGE ( 'NONE', *, *, #160, .F. ) ;
#75 =( GEOMETRIC_REPRESENTATION_CONTEXT ( 3 ) GLOBAL_UNCERTAINTY_ASSIGNED_CONTEXT ( ( #151 ) ) GLOBAL_UNIT_ASSIGNED_CONTEXT ( ( #260, #57, #25 ) ) REPRESENTATION_CONTEXT ( 'NONE', 'WORKASPACE' ) );
#76 = DIRECTION ( 'NONE',  ( -1.000000000000000000, 0.0000000000000000000, 0.0000000000000000000 ) ) ;
#77 = VERTEX_POINT ( 'NONE', #140 ) ;
#78 = DIRECTION ( 'NONE',  ( -1.000000000000000000, 0.0000000000000000000, 0.0000000000000000000 ) ) ;
#79 = ORIENTED_EDGE ( 'NONE', *, *, #365, .T. ) ;
#80 = SURFACE_STYLE_FILL_AREA ( #273 ) ;
#81 = ORIENTED_EDGE ( 'NONE', *, *, #365, .F. ) ;
#82 = CONICAL_SURFACE ( 'NONE', #200, 0.06374000000000018540, 0.7853981633974528309 ) ;
#83 = SURFACE_SIDE_STYLE ('',( #199 ) ) ;
#84 = DIRECTION ( 'NONE',  ( -0.0000000000000000000, -0.0000000000000000000, -1.000000000000000000 ) ) ;
#85 = CARTESIAN_POINT ( 'NONE',  ( 0.0000000000000000000, 0.0000000000000000000, 0.0000000000000000000 ) ) ;
#86 = STYLED_ITEM ( 'NONE', ( #351 ), #108 ) ;
#87 = ADVANCED_FACE ( 'NONE', ( #110 ), #229, .T. ) ;
#88 = DIRECTION ( 'NONE',  ( -0.0000000000000000000, -0.0000000000000000000, -1.000000000000000000 ) ) ;
#89 =( GEOMETRIC_REPRESENTATION_CONTEXT ( 3 ) GLOBAL_UNCERTAINTY_ASSIGNED_CONTEXT ( ( #180 ) ) GLOBAL_UNIT_ASSIGNED_CONTEXT ( ( #367, #252, #132 ) ) REPRESENTATION_CONTEXT ( 'NONE', 'WORKASPACE' ) );
#90 = DIRECTION ( 'NONE',  ( -1.000000000000000000, 0.0000000000000000000, 0.0000000000000000000 ) ) ;
#91 = DIRECTION ( 'NONE',  ( 1.000000000000000000, 0.0000000000000000000, -0.0000000000000000000 ) ) ;
#92 = CARTESIAN_POINT ( 'NONE',  ( 0.0000000000000000000, 0.0000000000000000000, 0.01574800000000000158 ) ) ;
#93 = EDGE_CURVE ( 'NONE', #332, #121, #26, .T. ) ;
#94 = DIRECTION ( 'NONE',  ( -0.0000000000000000000, -0.0000000000000000000, -1.000000000000000000 ) ) ;
#95 = CIRCLE ( 'NONE', #141, 0.007480500000000014915 ) ;
#96 = ORIENTED_EDGE ( 'NONE', *, *, #222, .F. ) ;
#97 = EDGE_LOOP ( 'NONE', ( #38, #243, #179, #5 ) ) ;
#98 = ORIENTED_EDGE ( 'NONE', *, *, #181, .T. ) ;
#99 = ORIENTED_EDGE ( 'NONE', *, *, #357, .T. ) ;
#100 = CIRCLE ( 'NONE', #173, 0.07874000000000001831 ) ;
#101 = FILL_AREA_STYLE_COLOUR ( '', #324 ) ;
#102 = ORIENTED_EDGE ( 'NONE', *, *, #73, .F. ) ;
#103 = DIRECTION ( 'NONE',  ( 0.7071067811865507924, 8.659560562354973534E-17, -0.7071067811865443531 ) ) ;
#104 = ORIENTED_EDGE ( 'NONE', *, *, #262, .F. ) ;
#105 =( GEOMETRIC_REPRESENTATION_CONTEXT ( 3 ) GLOBAL_UNCERTAINTY_ASSIGNED_CONTEXT ( ( #359 ) ) GLOBAL_UNIT_ASSIGNED_CONTEXT ( ( #220, #374, #311 ) ) REPRESENTATION_CONTEXT ( 'NONE', 'WORKASPACE' ) );
#106 = AXIS2_PLACEMENT_3D ( 'NONE', #209, #146, #66 ) ;
#107 = LINE ( 'NONE', #198, #364 ) ;
#108 = MANIFOLD_SOLID_BREP ( 'Cut-Revolve1', #196 ) ;
#109 = SURFACE_STYLE_USAGE ( .BOTH. , #83 ) ;
#110 = FACE_OUTER_BOUND ( 'NONE', #215, .T. ) ;
#111 = DIRECTION ( 'NONE',  ( -1.000000000000000000, 0.0000000000000000000, 0.0000000000000000000 ) ) ;
#112 = ADVANCED_FACE ( 'NONE', ( #55 ), #203, .T. ) ;
#113 =( LENGTH_UNIT ( ) NAMED_UNIT ( * ) SI_UNIT ( $, .METRE. ) );
#114 = CARTESIAN_POINT ( 'NONE',  ( 0.0000000000000000000, 0.0000000000000000000, 0.1181100000000002287 ) ) ;
#115 = VERTEX_POINT ( 'NONE', #231 ) ;
#116 = CARTESIAN_POINT ( 'NONE',  ( 0.0000000000000000000, 0.0000000000000000000, 0.0000000000000000000 ) ) ;
#117 = CARTESIAN_POINT ( 'NONE',  ( 0.0000000000000000000, 0.0000000000000000000, 0.01574800000000000158 ) ) ;
#118 = DIRECTION ( 'NONE',  ( -0.0000000000000000000, -0.0000000000000000000, -1.000000000000000000 ) ) ;
#119 = DIRECTION ( 'NONE',  ( -0.0000000000000000000, -0.0000000000000000000, -1.000000000000000000 ) ) ;
#120 = AXIS2_PLACEMENT_3D ( 'NONE', #126, #43, #158 ) ;
#121 = VERTEX_POINT ( 'NONE', #171 ) ;
#122 = PRESENTATION_STYLE_ASSIGNMENT (( #366 ) ) ;
#123 = DIRECTION ( 'NONE',  ( -1.000000000000000000, 0.0000000000000000000, 0.0000000000000000000 ) ) ;
#124 = CARTESIAN_POINT ( 'NONE',  ( 0.0000000000000000000, 0.0000000000000000000, 0.1181100000000000066 ) ) ;
#125 = DIRECTION ( 'NONE',  ( 1.000000000000000000, 0.0000000000000000000, 0.0000000000000000000 ) ) ;
#126 = CARTESIAN_POINT ( 'NONE',  ( 0.0000000000000000000, 0.0000000000000000000, 1.953504000000000129 ) ) ;
#127 = CARTESIAN_POINT ( 'NONE',  ( -0.007873212599999998562, 0.0000000000000000000, 0.01574800000000000158 ) ) ;
#128 = PRODUCT_DEFINITION_CONTEXT ( 'detailed design', #190, 'design' ) ;
#129 = AXIS2_PLACEMENT_3D ( 'NONE', #92, #119, #239 ) ;
#130 = LENGTH_MEASURE_WITH_UNIT ( LENGTH_MEASURE( 0.02539999999999999897 ), #245 );
#131 = ORIENTED_EDGE ( 'NONE', *, *, #93, .T. ) ;
#132 =( NAMED_UNIT ( * ) SI_UNIT ( $, .STERADIAN. ) SOLID_ANGLE_UNIT ( ) );
#133 = ORIENTED_EDGE ( 'NONE', *, *, #176, .F. ) ;
#134 = DIRECTION ( 'NONE',  ( -0.0000000000000000000, -0.0000000000000000000, -1.000000000000000000 ) ) ;
#135 = EDGE_CURVE ( 'NONE', #192, #194, #3, .T. ) ;
#136 = CARTESIAN_POINT ( 'NONE',  ( 0.0000000000000000000, 0.0000000000000000000, 0.01797518382871478304 ) ) ;
#137 = DIRECTION ( 'NONE',  ( 0.0000000000000000000, 0.0000000000000000000, 1.000000000000000000 ) ) ;
#138 = FACE_OUTER_BOUND ( 'NONE', #269, .T. ) ;
#139 = DIMENSIONAL_EXPONENTS ( 1.000000000000000000, 0.0000000000000000000, 0.0000000000000000000, 0.0000000000000000000, 0.0000000000000000000, 0.0000000000000000000, 0.0000000000000000000 ) ;
#140 = CARTESIAN_POINT ( 'NONE',  ( -0.007480500000000001905, 0.0000000000000000000, 0.01797518382871478304 ) ) ;
#141 = AXIS2_PLACEMENT_3D ( 'NONE', #47, #185, #78 ) ;
#142 = DIRECTION ( 'NONE',  ( -0.0000000000000000000, -0.0000000000000000000, -1.000000000000000000 ) ) ;
#143 = CARTESIAN_POINT ( 'NONE',  ( -0.007873212599999998562, 0.0000000000000000000, 0.0000000000000000000 ) ) ;
#144 = ORIENTED_EDGE ( 'NONE', *, *, #189, .T. ) ;
#145 = CARTESIAN_POINT ( 'NONE',  ( 0.0000000000000000000, 0.0000000000000000000, 1.968503999999999809 ) ) ;
#146 = DIRECTION ( 'NONE',  ( 0.0000000000000000000, 0.0000000000000000000, 1.000000000000000000 ) ) ;
#147 = AXIS2_PLACEMENT_3D ( 'NONE', #378, #134, #256 ) ;
#148 = LINE ( 'NONE', #270, #315 ) ;
#149 = ORIENTED_EDGE ( 'NONE', *, *, #23, .T. ) ;
#150 = FACE_OUTER_BOUND ( 'NONE', #159, .T. ) ;
#151 = UNCERTAINTY_MEASURE_WITH_UNIT (LENGTH_MEASURE( 1.000000000000000082E-05 ), #260, 'distance_accuracy_value', 'NONE');
#152 = PRESENTATION_LAYER_ASSIGNMENT (  '', '', ( #255 ) ) ;
#153 = CYLINDRICAL_SURFACE ( 'NONE', #350, 0.007873212599999998562 ) ;
#154 = AXIS2_PLACEMENT_3D ( 'NONE', #193, #314, #277 ) ;
#155 = SURFACE_SIDE_STYLE ('',( #80 ) ) ;
#156 = ORIENTED_EDGE ( 'NONE', *, *, #176, .T. ) ;
#157 = PRODUCT ( 'Micro_MMBM-004-3X', 'Micro_MMBM-004-3X', '', ( #228 ) ) ;
#158 = DIRECTION ( 'NONE',  ( 1.000000000000000000, 0.0000000000000000000, 0.0000000000000000000 ) ) ;
#159 = EDGE_LOOP ( 'NONE', ( #165, #71, #98, #102 ) ) ;
#160 = EDGE_CURVE ( 'NONE', #50, #115, #291, .T. ) ;
#161 = APPLICATION_PROTOCOL_DEFINITION ( 'draft international standard', 'automotive_design', 1998, #297 ) ;
#162 = ORIENTED_EDGE ( 'NONE', *, *, #276, .T. ) ;
#163 = COLOUR_RGB ( '',0.7921568627450980005, 0.8196078431372548767, 0.9333333333333333481 ) ;
#164 = FACE_OUTER_BOUND ( 'NONE', #368, .T. ) ;
#165 = ORIENTED_EDGE ( 'NONE', *, *, #300, .F. ) ;
#166 = DIRECTION ( 'NONE',  ( -0.0000000000000000000, -0.0000000000000000000, -1.000000000000000000 ) ) ;
#167 = FILL_AREA_STYLE_COLOUR ( '', #163 ) ;
#168 = AXIS2_PLACEMENT_3D ( 'NONE', #265, #33, #91 ) ;
#169 = CARTESIAN_POINT ( 'NONE',  ( 0.07874000000000001831, 9.642868896486260050E-18, 0.1181100000000002287 ) ) ;
#170 = CARTESIAN_POINT ( 'NONE',  ( 0.0000000000000000000, 0.0000000000000000000, 0.01574800000000000158 ) ) ;
#171 = CARTESIAN_POINT ( 'NONE',  ( -0.007873212599999998562, 0.0000000000000000000, 0.0000000000000000000 ) ) ;
#172 = VECTOR ( 'NONE', #4, 39.37007874015748143 ) ;
#173 = AXIS2_PLACEMENT_3D ( 'NONE', #310, #341, #125 ) ;
#174 = CARTESIAN_POINT ( 'NONE',  ( 0.007873212599999998562, 9.641904609596609667E-19, 0.01574800000000000158 ) ) ;
#175 = FACE_OUTER_BOUND ( 'NONE', #183, .T. ) ;
#176 = EDGE_CURVE ( 'NONE', #355, #281, #293, .T. ) ;
#177 = CARTESIAN_POINT ( 'NONE',  ( 0.0000000000000000000, 0.0000000000000000000, 0.1181100000000002287 ) ) ;
#178 = CARTESIAN_POINT ( 'NONE',  ( -0.007480500000000014915, 0.0000000000000000000, 0.1181100000000000066 ) ) ;
#179 = ORIENTED_EDGE ( 'NONE', *, *, #213, .T. ) ;
#180 = UNCERTAINTY_MEASURE_WITH_UNIT (LENGTH_MEASURE( 1.000000000000000082E-05 ), #367, 'distance_accuracy_value', 'NONE');
#181 = EDGE_CURVE ( 'NONE', #77, #48, #107, .T. ) ;
#182 = CARTESIAN_POINT ( 'NONE',  ( 0.007480500000000014915, 0.0000000000000000000, 0.1181100000000001315 ) ) ;
#183 = EDGE_LOOP ( 'NONE', ( #99, #131 ) ) ;
#184 = ORIENTED_EDGE ( 'NONE', *, *, #372, .T. ) ;
#185 = DIRECTION ( 'NONE',  ( -0.0000000000000000000, -0.0000000000000000000, -1.000000000000000000 ) ) ;
#186 = VECTOR ( 'NONE', #84, 39.37007874015748143 ) ;
#187 = ORIENTED_EDGE ( 'NONE', *, *, #352, .F. ) ;
#188 = ORIENTED_EDGE ( 'NONE', *, *, #300, .T. ) ;
#189 = EDGE_CURVE ( 'NONE', #329, #44, #226, .T. ) ;
#190 = APPLICATION_CONTEXT ( 'automotive_design' ) ;
#191 = DIRECTION ( 'NONE',  ( -0.0000000000000000000, -0.0000000000000000000, -1.000000000000000000 ) ) ;
#192 = VERTEX_POINT ( 'NONE', #52 ) ;
#193 = CARTESIAN_POINT ( 'NONE',  ( 0.0000000000000000000, 0.0000000000000000000, 1.968503999999999809 ) ) ;
#194 = VERTEX_POINT ( 'NONE', #169 ) ;
#195 = CIRCLE ( 'NONE', #41, 0.007873212599999998562 ) ;
#196 = CLOSED_SHELL ( 'NONE', ( #87, #257, #15, #377, #290, #112, #340, #197, #306, #206, #230, #45, #313 ) ) ;
#197 = ADVANCED_FACE ( 'NONE', ( #138 ), #320, .T. ) ;
#198 = CARTESIAN_POINT ( 'NONE',  ( -0.007873212599999998562, 0.0000000000000000000, 0.01574800000000000158 ) ) ;
#199 = SURFACE_STYLE_FILL_AREA ( #254 ) ;
#200 = AXIS2_PLACEMENT_3D ( 'NONE', #21, #334, #240 ) ;
#201 = LENGTH_MEASURE_WITH_UNIT ( LENGTH_MEASURE( 0.02539999999999999897 ), #113 );
#202 = ADVANCED_BREP_SHAPE_REPRESENTATION ( 'Micro_MMBM-004-3X', ( #108, #308 ), #105 ) ;
#203 = CYLINDRICAL_SURFACE ( 'NONE', #225, 0.07874000000000001831 ) ;
#204 = LINE ( 'NONE', #354, #18 ) ;
#205 = CONICAL_SURFACE ( 'NONE', #129, 0.007873212599999998562, 0.1745329251994334474 ) ;
#206 = ADVANCED_FACE ( 'NONE', ( #150 ), #205, .T. ) ;
#207 = FACE_OUTER_BOUND ( 'NONE', #251, .T. ) ;
#208 = AXIS2_PLACEMENT_3D ( 'NONE', #348, #286, #24 ) ;
#209 = CARTESIAN_POINT ( 'NONE',  ( 0.0000000000000000000, 0.0000000000000000000, 1.968503999999999809 ) ) ;
#210 = CYLINDRICAL_SURFACE ( 'NONE', #63, 0.07874000000000001831 ) ;
#211 = LINE ( 'NONE', #353, #172 ) ;
#212 = VERTEX_POINT ( 'NONE', #178 ) ;
#213 = EDGE_CURVE ( 'NONE', #48, #121, #37, .T. ) ;
#214 = CARTESIAN_POINT ( 'NONE',  ( 0.007873212599999998562, 9.641904609596609667E-19, 0.0000000000000000000 ) ) ;
#215 = EDGE_LOOP ( 'NONE', ( #339, #249, #32, #72 ) ) ;
#216 = AXIS2_PLACEMENT_3D ( 'NONE', #116, #88, #90 ) ;
#217 = PRODUCT_RELATED_PRODUCT_CATEGORY ( 'part', '', ( #157 ) ) ;
#218 = EDGE_LOOP ( 'NONE', ( #74, #316, #264, #363 ) ) ;
#219 = ORIENTED_EDGE ( 'NONE', *, *, #319, .T. ) ;
#220 =( CONVERSION_BASED_UNIT ( 'INCH', #130 ) LENGTH_UNIT ( ) NAMED_UNIT ( #259 ) );
#221 = CARTESIAN_POINT ( 'NONE',  ( 0.0000000000000000000, 0.0000000000000000000, 0.01574800000000000158 ) ) ;
#222 = EDGE_CURVE ( 'NONE', #48, #312, #195, .T. ) ;
#223 = DIRECTION ( 'NONE',  ( -1.000000000000000000, 0.0000000000000000000, 0.0000000000000000000 ) ) ;
#224 = CIRCLE ( 'NONE', #106, 0.06374000000000018540 ) ;
#225 = AXIS2_PLACEMENT_3D ( 'NONE', #30, #322, #261 ) ;
#226 = LINE ( 'NONE', #346, #186 ) ;
#227 = CARTESIAN_POINT ( 'NONE',  ( 0.07874000000000001831, 9.642868896486260050E-18, 1.968503999999999809 ) ) ;
#228 = PRODUCT_CONTEXT ( 'NONE', #297, 'mechanical' ) ;
#229 = CYLINDRICAL_SURFACE ( 'NONE', #147, 0.007873212599999998562 ) ;
#230 = ADVANCED_FACE ( 'NONE', ( #238 ), #302, .T. ) ;
#231 = CARTESIAN_POINT ( 'NONE',  ( 0.007480500000000001905, 9.401437495309192793E-19, 0.01797518382871478304 ) ) ;
#232 = EDGE_CURVE ( 'NONE', #212, #77, #148, .T. ) ;
#233 = CARTESIAN_POINT ( 'NONE',  ( -0.06374000000000018540, 0.0000000000000000000, 1.968503999999999809 ) ) ;
#234 = ORIENTED_EDGE ( 'NONE', *, *, #189, .F. ) ;
#235 = AXIS2_PLACEMENT_3D ( 'NONE', #182, #31, #326 ) ;
#236 = PRESENTATION_LAYER_ASSIGNMENT (  '', '', ( #86 ) ) ;
#237 = DIRECTION ( 'NONE',  ( -0.0000000000000000000, -0.0000000000000000000, -1.000000000000000000 ) ) ;
#238 = FACE_OUTER_BOUND ( 'NONE', #218, .T. ) ;
#239 = DIRECTION ( 'NONE',  ( -1.000000000000000000, 0.0000000000000000000, 0.0000000000000000000 ) ) ;
#240 = DIRECTION ( 'NONE',  ( -1.000000000000000000, 0.0000000000000000000, 0.0000000000000000000 ) ) ;
#241 = CIRCLE ( 'NONE', #321, 0.007873212599999998562 ) ;
#242 = LENGTH_MEASURE_WITH_UNIT ( LENGTH_MEASURE( 0.02539999999999999897 ), #336 );
#243 = ORIENTED_EDGE ( 'NONE', *, *, #73, .T. ) ;
#244 = CARTESIAN_POINT ( 'NONE',  ( 0.0000000000000000000, 0.0000000000000000000, 0.0000000000000000000 ) ) ;
#245 =( LENGTH_UNIT ( ) NAMED_UNIT ( * ) SI_UNIT ( $, .METRE. ) );
#246 = MECHANICAL_DESIGN_GEOMETRIC_PRESENTATION_REPRESENTATION (  '', ( #255 ), #89 ) ;
#247 = ORIENTED_EDGE ( 'NONE', *, *, #6, .T. ) ;
#248 = DIRECTION ( 'NONE',  ( -1.000000000000000000, 0.0000000000000000000, 0.0000000000000000000 ) ) ;
#249 = ORIENTED_EDGE ( 'NONE', *, *, #284, .T. ) ;
#250 = EDGE_CURVE ( 'NONE', #44, #194, #29, .T. ) ;
#251 = EDGE_LOOP ( 'NONE', ( #271, #337, #303, #234 ) ) ;
#252 =( NAMED_UNIT ( * ) PLANE_ANGLE_UNIT ( ) SI_UNIT ( $, .RADIAN. ) );
#253 = PRODUCT_DEFINITION_SHAPE ( 'NONE', 'NONE',  #28 ) ;
#254 = FILL_AREA_STYLE ('',( #167 ) ) ;
#255 = STYLED_ITEM ( 'NONE', ( #122 ), #202 ) ;
#256 = DIRECTION ( 'NONE',  ( -1.000000000000000000, 0.0000000000000000000, 0.0000000000000000000 ) ) ;
#257 = ADVANCED_FACE ( 'NONE', ( #360 ), #70, .T. ) ;
#258 = CARTESIAN_POINT ( 'NONE',  ( 0.007480500000000014915, 9.160970381021795179E-19, 0.1181100000000000066 ) ) ;
#259 = DIMENSIONAL_EXPONENTS ( 1.000000000000000000, 0.0000000000000000000, 0.0000000000000000000, 0.0000000000000000000, 0.0000000000000000000, 0.0000000000000000000, 0.0000000000000000000 ) ;
#260 =( CONVERSION_BASED_UNIT ( 'INCH', #201 ) LENGTH_UNIT ( ) NAMED_UNIT ( #139 ) );
#261 = DIRECTION ( 'NONE',  ( -1.000000000000000000, 0.0000000000000000000, 0.0000000000000000000 ) ) ;
#262 = EDGE_CURVE ( 'NONE', #281, #329, #211, .T. ) ;
#263 = DIRECTION ( 'NONE',  ( -0.0000000000000000000, -0.0000000000000000000, -1.000000000000000000 ) ) ;
#264 = ORIENTED_EDGE ( 'NONE', *, *, #232, .T. ) ;
#265 = CARTESIAN_POINT ( 'NONE',  ( 0.0000000000000000000, 0.0000000000000000000, 0.0000000000000000000 ) ) ;
#266 = AXIS2_PLACEMENT_3D ( 'NONE', #268, #237, #298 ) ;
#267 = DIRECTION ( 'NONE',  ( -1.000000000000000000, 0.0000000000000000000, 0.0000000000000000000 ) ) ;
#268 = CARTESIAN_POINT ( 'NONE',  ( 0.0000000000000000000, 0.0000000000000000000, 0.0000000000000000000 ) ) ;
#269 = EDGE_LOOP ( 'NONE', ( #20, #22, #373, #361 ) ) ;
#270 = CARTESIAN_POINT ( 'NONE',  ( -0.007480500000000007976, 0.0000000000000000000, 0.0000000000000000000 ) ) ;
#271 = ORIENTED_EDGE ( 'NONE', *, *, #333, .T. ) ;
#272 = AXIS2_PLACEMENT_3D ( 'NONE', #124, #283, #248 ) ;
#273 = FILL_AREA_STYLE ('',( #101 ) ) ;
#274 = FACE_OUTER_BOUND ( 'NONE', #309, .T. ) ;
#275 = VECTOR ( 'NONE', #9, 39.37007874015748854 ) ;
#276 = EDGE_CURVE ( 'NONE', #194, #44, #325, .T. ) ;
#277 = DIRECTION ( 'NONE',  ( 1.000000000000000000, 0.0000000000000000000, -0.0000000000000000000 ) ) ;
#278 = EDGE_LOOP ( 'NONE', ( #335, #162 ) ) ;
#279 = ORIENTED_EDGE ( 'NONE', *, *, #232, .F. ) ;
#280 = CARTESIAN_POINT ( 'NONE',  ( 0.06374000000000018540, 8.724383797125754882E-18, 1.968503999999999809 ) ) ;
#281 = VERTEX_POINT ( 'NONE', #233 ) ;
#282 = CONICAL_SURFACE ( 'NONE', #56, 0.007873212599999998562, 0.1745329251994334474 ) ;
#283 = DIRECTION ( 'NONE',  ( -0.0000000000000000000, -0.0000000000000000000, -1.000000000000000000 ) ) ;
#284 = EDGE_CURVE ( 'NONE', #312, #332, #204, .T. ) ;
#285 = EDGE_LOOP ( 'NONE', ( #79, #68, #370, #279 ) ) ;
#286 = DIRECTION ( 'NONE',  ( 0.0000000000000000000, 0.0000000000000000000, 1.000000000000000000 ) ) ;
#287 = AXIS2_PLACEMENT_3D ( 'NONE', #19, #39, #369 ) ;
#288 = APPLICATION_PROTOCOL_DEFINITION ( 'draft international standard', 'automotive_design', 1998, #190 ) ;
#289 = DIRECTION ( 'NONE',  ( -1.000000000000000000, 0.0000000000000000000, 0.0000000000000000000 ) ) ;
#290 = ADVANCED_FACE ( 'NONE', ( #207 ), #210, .T. ) ;
#291 = LINE ( 'NONE', #51, #2 ) ;
#292 = PRODUCT_DEFINITION_FORMATION_WITH_SPECIFIED_SOURCE ( 'ANY', '', #157, .NOT_KNOWN. ) ;
#293 = CIRCLE ( 'NONE', #208, 0.06374000000000018540 ) ;
#294 = LINE ( 'NONE', #174, #275 ) ;
#295 = PLANE ( 'NONE',  #168 ) ;
#296 = EDGE_LOOP ( 'NONE', ( #17, #149, #144, #307 ) ) ;
#297 = APPLICATION_CONTEXT ( 'automotive_design' ) ;
#298 = DIRECTION ( 'NONE',  ( -1.000000000000000000, 0.0000000000000000000, 0.0000000000000000000 ) ) ;
#299 = AXIS2_PLACEMENT_3D ( 'NONE', #114, #10, #61 ) ;
#300 = EDGE_CURVE ( 'NONE', #115, #312, #294, .T. ) ;
#301 = MECHANICAL_DESIGN_GEOMETRIC_PRESENTATION_REPRESENTATION (  '', ( #86 ), #75 ) ;
#302 = CYLINDRICAL_SURFACE ( 'NONE', #216, 0.007480500000000007976 ) ;
#303 = ORIENTED_EDGE ( 'NONE', *, *, #250, .F. ) ;
#304 = FACE_OUTER_BOUND ( 'NONE', #278, .T. ) ;
#305 = EDGE_LOOP ( 'NONE', ( #133, #247, #344, #104 ) ) ;
#306 = ADVANCED_FACE ( 'NONE', ( #331, #304 ), #323, .T. ) ;
#307 = ORIENTED_EDGE ( 'NONE', *, *, #276, .F. ) ;
#308 = AXIS2_PLACEMENT_3D ( 'NONE', #53, #137, #345 ) ;
#309 = EDGE_LOOP ( 'NONE', ( #184, #188, #96, #65 ) ) ;
#310 = CARTESIAN_POINT ( 'NONE',  ( 0.0000000000000000000, 0.0000000000000000000, 1.953504000000000129 ) ) ;
#311 =( NAMED_UNIT ( * ) SI_UNIT ( $, .STERADIAN. ) SOLID_ANGLE_UNIT ( ) );
#312 = VERTEX_POINT ( 'NONE', #64 ) ;
#313 = ADVANCED_FACE ( 'NONE', ( #175 ), #295, .F. ) ;
#314 = DIRECTION ( 'NONE',  ( 0.0000000000000000000, 0.0000000000000000000, 1.000000000000000000 ) ) ;
#315 = VECTOR ( 'NONE', #94, 39.37007874015748143 ) ;
#316 = ORIENTED_EDGE ( 'NONE', *, *, #352, .T. ) ;
#317 = VECTOR ( 'NONE', #103, 39.37007874015748143 ) ;
#318 = DIRECTION ( 'NONE',  ( -0.0000000000000000000, -0.0000000000000000000, -1.000000000000000000 ) ) ;
#319 = EDGE_CURVE ( 'NONE', #281, #355, #224, .T. ) ;
#320 = CONICAL_SURFACE ( 'NONE', #54, 0.06374000000000018540, 0.7853981633974528309 ) ;
#321 = AXIS2_PLACEMENT_3D ( 'NONE', #170, #59, #111 ) ;
#322 = DIRECTION ( 'NONE',  ( -0.0000000000000000000, -0.0000000000000000000, -1.000000000000000000 ) ) ;
#323 = PLANE ( 'NONE',  #235 ) ;
#324 = COLOUR_RGB ( '',0.7921568627450980005, 0.8196078431372548767, 0.9333333333333333481 ) ;
#325 = CIRCLE ( 'NONE', #299, 0.07874000000000001831 ) ;
#326 = DIRECTION ( 'NONE',  ( -1.000000000000000000, 0.0000000000000000000, 0.0000000000000000000 ) ) ;
#327 = DIRECTION ( 'NONE',  ( -1.000000000000000000, 0.0000000000000000000, 0.0000000000000000000 ) ) ;
#328 = DIRECTION ( 'NONE',  ( -0.0000000000000000000, -0.0000000000000000000, -1.000000000000000000 ) ) ;
#329 = VERTEX_POINT ( 'NONE', #16 ) ;
#330 = AXIS2_PLACEMENT_3D ( 'NONE', #136, #347, #1 ) ;
#331 = FACE_BOUND ( 'NONE', #36, .T. ) ;
#332 = VERTEX_POINT ( 'NONE', #214 ) ;
#333 = EDGE_CURVE ( 'NONE', #329, #192, #371, .T. ) ;
#334 = DIRECTION ( 'NONE',  ( 0.0000000000000000000, 0.0000000000000000000, -1.000000000000000000 ) ) ;
#335 = ORIENTED_EDGE ( 'NONE', *, *, #250, .T. ) ;
#336 =( LENGTH_UNIT ( ) NAMED_UNIT ( * ) SI_UNIT ( $, .METRE. ) );
#337 = ORIENTED_EDGE ( 'NONE', *, *, #135, .T. ) ;
#338 = PLANE ( 'NONE',  #154 ) ;
#339 = ORIENTED_EDGE ( 'NONE', *, *, #222, .T. ) ;
#340 = ADVANCED_FACE ( 'NONE', ( #164 ), #338, .T. ) ;
#341 = DIRECTION ( 'NONE',  ( 0.0000000000000000000, 0.0000000000000000000, -1.000000000000000000 ) ) ;
#342 = SHAPE_DEFINITION_REPRESENTATION ( #253, #202 ) ;
#343 = AXIS2_PLACEMENT_3D ( 'NONE', #49, #191, #76 ) ;
#344 = ORIENTED_EDGE ( 'NONE', *, *, #333, .F. ) ;
#345 = DIRECTION ( 'NONE',  ( 1.000000000000000000, 0.0000000000000000000, 0.0000000000000000000 ) ) ;
#346 = CARTESIAN_POINT ( 'NONE',  ( -0.07874000000000001831, 0.0000000000000000000, 1.968503999999999809 ) ) ;
#347 = DIRECTION ( 'NONE',  ( -0.0000000000000000000, -0.0000000000000000000, -1.000000000000000000 ) ) ;
#348 = CARTESIAN_POINT ( 'NONE',  ( 0.0000000000000000000, 0.0000000000000000000, 1.968503999999999809 ) ) ;
#349 = VECTOR ( 'NONE', #7, 39.37007874015748143 ) ;
#350 = AXIS2_PLACEMENT_3D ( 'NONE', #244, #12, #123 ) ;
#351 = PRESENTATION_STYLE_ASSIGNMENT (( #109 ) ) ;
#352 = EDGE_CURVE ( 'NONE', #50, #212, #95, .T. ) ;
#353 = CARTESIAN_POINT ( 'NONE',  ( -0.06374000000000018540, 0.0000000000000000000, 1.968503999999999809 ) ) ;
#354 = CARTESIAN_POINT ( 'NONE',  ( 0.007873212599999998562, 9.641904609596609667E-19, 0.0000000000000000000 ) ) ;
#355 = VERTEX_POINT ( 'NONE', #280 ) ;
#356 = AXIS2_PLACEMENT_3D ( 'NONE', #177, #118, #362 ) ;
#357 = EDGE_CURVE ( 'NONE', #121, #332, #379, .T. ) ;
#358 = DIRECTION ( 'NONE',  ( -0.0000000000000000000, -0.0000000000000000000, -1.000000000000000000 ) ) ;
#359 = UNCERTAINTY_MEASURE_WITH_UNIT (LENGTH_MEASURE( 1.000000000000000082E-05 ), #220, 'distance_accuracy_value', 'NONE');
#360 = FACE_OUTER_BOUND ( 'NONE', #285, .T. ) ;
#361 = ORIENTED_EDGE ( 'NONE', *, *, #23, .F. ) ;
#362 = DIRECTION ( 'NONE',  ( -1.000000000000000000, 0.0000000000000000000, 0.0000000000000000000 ) ) ;
#363 = ORIENTED_EDGE ( 'NONE', *, *, #69, .F. ) ;
#364 = VECTOR ( 'NONE', #27, 39.37007874015748854 ) ;
#365 = EDGE_CURVE ( 'NONE', #212, #50, #60, .T. ) ;
#366 = SURFACE_STYLE_USAGE ( .BOTH. , #155 ) ;
#367 =( CONVERSION_BASED_UNIT ( 'INCH', #242 ) LENGTH_UNIT ( ) NAMED_UNIT ( #58 ) );
#368 = EDGE_LOOP ( 'NONE', ( #219, #156 ) ) ;
#369 = DIRECTION ( 'NONE',  ( -1.000000000000000000, 0.0000000000000000000, 0.0000000000000000000 ) ) ;
#370 = ORIENTED_EDGE ( 'NONE', *, *, #372, .F. ) ;
#371 = CIRCLE ( 'NONE', #120, 0.07874000000000001831 ) ;
#372 = EDGE_CURVE ( 'NONE', #77, #115, #42, .T. ) ;
#373 = ORIENTED_EDGE ( 'NONE', *, *, #262, .T. ) ;
#374 =( NAMED_UNIT ( * ) PLANE_ANGLE_UNIT ( ) SI_UNIT ( $, .RADIAN. ) );
#375 = CARTESIAN_POINT ( 'NONE',  ( 0.06374000000000018540, 7.805898697765251255E-18, 1.968503999999999809 ) ) ;
#376 = DIRECTION ( 'NONE',  ( -0.0000000000000000000, -0.0000000000000000000, -1.000000000000000000 ) ) ;
#377 = ADVANCED_FACE ( 'NONE', ( #13 ), #82, .T. ) ;
#378 = CARTESIAN_POINT ( 'NONE',  ( 0.0000000000000000000, 0.0000000000000000000, 0.0000000000000000000 ) ) ;
#379 = CIRCLE ( 'NONE', #343, 0.007873212599999998562 ) ;
ENDSEC;
END-ISO-10303-21;
