ISO-10303-21;
HEADER;
FILE_DESCRIPTION (( 'STEP AP214' ),
    '1' );
FILE_NAME ('48001.STEP',
    '2023-06-22T20:51:25',
    ( '' ),
    ( '' ),
    'SwSTEP 2.0',
    'SolidWorks 2023',
    '' );
FILE_SCHEMA (( 'AUTOMOTIVE_DESIGN' ));
ENDSEC;

DATA;
#1 = EDGE_CURVE ( 'NONE', #196, #67, #14, .T. ) ;
#2 = CIRCLE ( 'NONE', #293, 0.06249999999999934081 ) ;
#3 = AXIS2_PLACEMENT_3D ( 'NONE', #64, #44, #304 ) ;
#4 = LENGTH_MEASURE_WITH_UNIT ( LENGTH_MEASURE( 0.02539999999999999897 ), #125 );
#5 = PRESENTATION_STYLE_ASSIGNMENT (( #54 ) ) ;
#6 = DIRECTION ( 'NONE',  ( 5.388445916248354013E-16, 1.000000000000000000, -0.000000000000000000 ) ) ;
#7 = PRODUCT_DEFINITION_SHAPE ( 'NONE', 'NONE',  #162 ) ;
#8 = ORIENTED_EDGE ( 'NONE', *, *, #1, .F. ) ;
#9 = STYLED_ITEM ( 'NONE', ( #173 ), #21 ) ;
#10 = CARTESIAN_POINT ( 'NONE',  ( 0.000000000000000000, 0.2499999999999998057, -0.06250000000000001388 ) ) ;
#11 = VERTEX_POINT ( 'NONE', #297 ) ;
#12 = EDGE_CURVE ( 'NONE', #222, #11, #175, .T. ) ;
#13 =( NAMED_UNIT ( * ) PLANE_ANGLE_UNIT ( ) SI_UNIT ( $, .RADIAN. ) );
#14 = CIRCLE ( 'NONE', #73, 0.06250000000000001388 ) ;
#15 = AXIS2_PLACEMENT_3D ( 'NONE', #229, #60, #52 ) ;
#16 = FACE_OUTER_BOUND ( 'NONE', #132, .T. ) ;
#17 = CLOSED_SHELL ( 'NONE', ( #294, #58, #250, #264 ) ) ;
#18 = MECHANICAL_DESIGN_GEOMETRIC_PRESENTATION_REPRESENTATION (  '', ( #108 ), #253 ) ;
#19 =( CONVERSION_BASED_UNIT ( 'INCH', #266 ) LENGTH_UNIT ( ) NAMED_UNIT ( #98 ) );
#20 = DIRECTION ( 'NONE',  ( -0.000000000000000000, -1.000000000000000000, -0.000000000000000000 ) ) ;
#21 = ADVANCED_FACE ( 'NONE', ( #228 ), #249, .T. ) ;
#22 = PRESENTATION_STYLE_ASSIGNMENT (( #192 ) ) ;
#23 = DIRECTION ( 'NONE',  ( 0.000000000000000000, 0.000000000000000000, -1.000000000000000000 ) ) ;
#24 = LENGTH_MEASURE_WITH_UNIT ( LENGTH_MEASURE( 0.02539999999999999897 ), #261 );
#25 =( GEOMETRIC_REPRESENTATION_CONTEXT ( 3 ) GLOBAL_UNCERTAINTY_ASSIGNED_CONTEXT ( ( #94 ) ) GLOBAL_UNIT_ASSIGNED_CONTEXT ( ( #245, #105, #111 ) ) REPRESENTATION_CONTEXT ( 'NONE', 'WORKASPACE' ) );
#26 = VERTEX_POINT ( 'NONE', #185 ) ;
#27 = ORIENTED_EDGE ( 'NONE', *, *, #1, .T. ) ;
#28 = ORIENTED_EDGE ( 'NONE', *, *, #136, .F. ) ;
#29 = DIRECTION ( 'NONE',  ( -1.000000000000000000, 5.388445916248354013E-16, 0.000000000000000000 ) ) ;
#30 = COLOUR_RGB ( '',1.000000000000000000, 0.000000000000000000, 0.000000000000000000 ) ;
#31 = CARTESIAN_POINT ( 'NONE',  ( 9.073546685104240443E-33, 0.2499999999999998057, 0.000000000000000000 ) ) ;
#32 = EDGE_CURVE ( 'NONE', #67, #11, #127, .T. ) ;
#33 = DIRECTION ( 'NONE',  ( 0.000000000000000000, 0.000000000000000000, -1.000000000000000000 ) ) ;
#34 = FILL_AREA_STYLE ('',( #270 ) ) ;
#35 = SURFACE_STYLE_USAGE ( .BOTH. , #109 ) ;
#36 = COLOUR_RGB ( '',1.000000000000000000, 0.000000000000000000, 0.000000000000000000 ) ;
#37 = AXIS2_PLACEMENT_3D ( 'NONE', #254, #65, #95 ) ;
#38 = EDGE_CURVE ( 'NONE', #129, #26, #2, .T. ) ;
#39 = SURFACE_STYLE_FILL_AREA ( #186 ) ;
#40 = CLOSED_SHELL ( 'NONE', ( #46, #106, #21, #92 ) ) ;
#41 = COLOUR_RGB ( '',0.7921568627450980005, 0.8196078431372548767, 0.9333333333333333481 ) ;
#42 = SURFACE_STYLE_FILL_AREA ( #208 ) ;
#43 =( NAMED_UNIT ( * ) SI_UNIT ( $, .STERADIAN. ) SOLID_ANGLE_UNIT ( ) );
#44 = DIRECTION ( 'NONE',  ( 5.388445916248354013E-16, 1.000000000000000000, -0.000000000000000000 ) ) ;
#45 = ORIENTED_EDGE ( 'NONE', *, *, #159, .F. ) ;
#46 = ADVANCED_FACE ( 'NONE', ( #285 ), #75, .T. ) ;
#47 =( CONVERSION_BASED_UNIT ( 'INCH', #24 ) LENGTH_UNIT ( ) NAMED_UNIT ( #110 ) );
#48 =( CONVERSION_BASED_UNIT ( 'INCH', #4 ) LENGTH_UNIT ( ) NAMED_UNIT ( #123 ) );
#49 = DIRECTION ( 'NONE',  ( -0.000000000000000000, -1.000000000000000000, -0.000000000000000000 ) ) ;
#50 = ORIENTED_EDGE ( 'NONE', *, *, #62, .F. ) ;
#51 = SURFACE_SIDE_STYLE ('',( #39 ) ) ;
#52 = DIRECTION ( 'NONE',  ( 0.000000000000000000, 0.000000000000000000, -1.000000000000000000 ) ) ;
#53 = VECTOR ( 'NONE', #134, 39.37007874015748143 ) ;
#54 = SURFACE_STYLE_USAGE ( .BOTH. , #83 ) ;
#55 = VERTEX_POINT ( 'NONE', #178 ) ;
#56 = DIRECTION ( 'NONE',  ( 0.000000000000000000, 0.000000000000000000, -1.000000000000000000 ) ) ;
#57 =( LENGTH_UNIT ( ) NAMED_UNIT ( * ) SI_UNIT ( $, .METRE. ) );
#58 = ADVANCED_FACE ( 'NONE', ( #131 ), #201, .F. ) ;
#59 = FILL_AREA_STYLE_COLOUR ( '', #41 ) ;
#60 = DIRECTION ( 'NONE',  ( -0.000000000000000000, -1.000000000000000000, -0.000000000000000000 ) ) ;
#61 =( CONVERSION_BASED_UNIT ( 'INCH', #120 ) LENGTH_UNIT ( ) NAMED_UNIT ( #103 ) );
#62 = EDGE_CURVE ( 'NONE', #163, #55, #244, .T. ) ;
#63 = FILL_AREA_STYLE ('',( #59 ) ) ;
#64 = CARTESIAN_POINT ( 'NONE',  ( 6.735557395310442023E-16, 1.499999999999999778, 0.000000000000000000 ) ) ;
#65 = DIRECTION ( 'NONE',  ( 5.388445916248354013E-16, 1.000000000000000000, -0.000000000000000000 ) ) ;
#66 = ORIENTED_EDGE ( 'NONE', *, *, #32, .T. ) ;
#67 = VERTEX_POINT ( 'NONE', #10 ) ;
#68 = EDGE_CURVE ( 'NONE', #196, #222, #268, .T. ) ;
#69 = CARTESIAN_POINT ( 'NONE',  ( 6.735557395310442023E-16, 1.499999999999999778, 0.000000000000000000 ) ) ;
#70 = DIRECTION ( 'NONE',  ( 5.388445916248354013E-16, 1.000000000000000000, -0.000000000000000000 ) ) ;
#71 = CARTESIAN_POINT ( 'NONE',  ( -0.06249999999999900080, 1.499999999999999778, 0.000000000000000000 ) ) ;
#72 = AXIS2_PLACEMENT_3D ( 'NONE', #31, #221, #29 ) ;
#73 = AXIS2_PLACEMENT_3D ( 'NONE', #206, #84, #33 ) ;
#74 = CARTESIAN_POINT ( 'NONE',  ( 0.000000000000000000, 0.2499999999999998057, 0.000000000000000000 ) ) ;
#75 = CYLINDRICAL_SURFACE ( 'NONE', #277, 0.06250000000000001388 ) ;
#76 = DIMENSIONAL_EXPONENTS ( 1.000000000000000000, 0.000000000000000000, 0.000000000000000000, 0.000000000000000000, 0.000000000000000000, 0.000000000000000000, 0.000000000000000000 ) ;
#77 = MECHANICAL_DESIGN_GEOMETRIC_PRESENTATION_REPRESENTATION (  '', ( #9 ), #299 ) ;
#78 = FILL_AREA_STYLE_COLOUR ( '', #30 ) ;
#79 = DIRECTION ( 'NONE',  ( -0.000000000000000000, -1.000000000000000000, -0.000000000000000000 ) ) ;
#80 = ORIENTED_EDGE ( 'NONE', *, *, #68, .F. ) ;
#81 = VECTOR ( 'NONE', #49, 39.37007874015748143 ) ;
#82 = AXIS2_PLACEMENT_3D ( 'NONE', #284, #269, #138 ) ;
#83 = SURFACE_SIDE_STYLE ('',( #198 ) ) ;
#84 = DIRECTION ( 'NONE',  ( -0.000000000000000000, -1.000000000000000000, -0.000000000000000000 ) ) ;
#85 = EDGE_LOOP ( 'NONE', ( #45, #50 ) ) ;
#86 = PRESENTATION_LAYER_ASSIGNMENT (  '', '', ( #9 ) ) ;
#87 = CIRCLE ( 'NONE', #15, 0.06250000000000001388 ) ;
#88 = ORIENTED_EDGE ( 'NONE', *, *, #68, .T. ) ;
#89 = PRODUCT_RELATED_PRODUCT_CATEGORY ( 'part', '', ( #118 ) ) ;
#90 = STYLED_ITEM ( 'NONE', ( #140 ), #106 ) ;
#91 = AXIS2_PLACEMENT_3D ( 'NONE', #74, #139, #96 ) ;
#92 = ADVANCED_FACE ( 'NONE', ( #176 ), #295, .T. ) ;
#93 = PLANE ( 'NONE',  #82 ) ;
#94 = UNCERTAINTY_MEASURE_WITH_UNIT (LENGTH_MEASURE( 1.000000000000000082E-05 ), #245, 'distance_accuracy_value', 'NONE');
#95 = DIRECTION ( 'NONE',  ( -1.000000000000000000, 0.000000000000000000, 0.000000000000000000 ) ) ;
#96 = DIRECTION ( 'NONE',  ( 0.000000000000000000, 0.000000000000000000, -1.000000000000000000 ) ) ;
#97 = ORIENTED_EDGE ( 'NONE', *, *, #12, .T. ) ;
#98 = DIMENSIONAL_EXPONENTS ( 1.000000000000000000, 0.000000000000000000, 0.000000000000000000, 0.000000000000000000, 0.000000000000000000, 0.000000000000000000, 0.000000000000000000 ) ;
#99 = SURFACE_STYLE_FILL_AREA ( #301 ) ;
#100 = PRESENTATION_LAYER_ASSIGNMENT (  '', '', ( #90 ) ) ;
#101 = CIRCLE ( 'NONE', #233, 0.06250000000000001388 ) ;
#102 =( NAMED_UNIT ( * ) PLANE_ANGLE_UNIT ( ) SI_UNIT ( $, .RADIAN. ) );
#103 = DIMENSIONAL_EXPONENTS ( 1.000000000000000000, 0.000000000000000000, 0.000000000000000000, 0.000000000000000000, 0.000000000000000000, 0.000000000000000000, 0.000000000000000000 ) ;
#104 = PRODUCT_DEFINITION_CONTEXT ( 'detailed design', #242, 'design' ) ;
#105 =( NAMED_UNIT ( * ) PLANE_ANGLE_UNIT ( ) SI_UNIT ( $, .RADIAN. ) );
#106 = ADVANCED_FACE ( 'NONE', ( #260 ), #93, .T. ) ;
#107 = COLOUR_RGB ( '',1.000000000000000000, 0.000000000000000000, 0.000000000000000000 ) ;
#108 = STYLED_ITEM ( 'NONE', ( #22 ), #171 ) ;
#109 = SURFACE_SIDE_STYLE ('',( #220 ) ) ;
#110 = DIMENSIONAL_EXPONENTS ( 1.000000000000000000, 0.000000000000000000, 0.000000000000000000, 0.000000000000000000, 0.000000000000000000, 0.000000000000000000, 0.000000000000000000 ) ;
#111 =( NAMED_UNIT ( * ) SI_UNIT ( $, .STERADIAN. ) SOLID_ANGLE_UNIT ( ) );
#112 = LENGTH_MEASURE_WITH_UNIT ( LENGTH_MEASURE( 0.02539999999999999897 ), #151 );
#113 = VECTOR ( 'NONE', #115, 39.37007874015748143 ) ;
#114 =( GEOMETRIC_REPRESENTATION_CONTEXT ( 3 ) GLOBAL_UNCERTAINTY_ASSIGNED_CONTEXT ( ( #184 ) ) GLOBAL_UNIT_ASSIGNED_CONTEXT ( ( #48, #239, #265 ) ) REPRESENTATION_CONTEXT ( 'NONE', 'WORKASPACE' ) );
#115 = DIRECTION ( 'NONE',  ( -0.000000000000000000, -1.000000000000000000, -0.000000000000000000 ) ) ;
#116 = ORIENTED_EDGE ( 'NONE', *, *, #12, .F. ) ;
#117 = DIRECTION ( 'NONE',  ( -0.000000000000000000, -1.000000000000000000, -0.000000000000000000 ) ) ;
#118 = PRODUCT ( '48001', '48001', '', ( #199 ) ) ;
#119 = EDGE_LOOP ( 'NONE', ( #147, #97 ) ) ;
#120 = LENGTH_MEASURE_WITH_UNIT ( LENGTH_MEASURE( 0.02539999999999999897 ), #197 );
#121 = STYLED_ITEM ( 'NONE', ( #5 ), #92 ) ;
#122 = CARTESIAN_POINT ( 'NONE',  ( 0.000000000000000000, 0.000000000000000000, -0.06250000000000001388 ) ) ;
#123 = DIMENSIONAL_EXPONENTS ( 1.000000000000000000, 0.000000000000000000, 0.000000000000000000, 0.000000000000000000, 0.000000000000000000, 0.000000000000000000, 0.000000000000000000 ) ;
#124 = EDGE_CURVE ( 'NONE', #11, #222, #87, .T. ) ;
#125 =( LENGTH_UNIT ( ) NAMED_UNIT ( * ) SI_UNIT ( $, .METRE. ) );
#126 = MECHANICAL_DESIGN_GEOMETRIC_PRESENTATION_REPRESENTATION (  '', ( #209 ), #286 ) ;
#127 = LINE ( 'NONE', #122, #81 ) ;
#128 = DIMENSIONAL_EXPONENTS ( 1.000000000000000000, 0.000000000000000000, 0.000000000000000000, 0.000000000000000000, 0.000000000000000000, 0.000000000000000000, 0.000000000000000000 ) ;
#129 = VERTEX_POINT ( 'NONE', #223 ) ;
#130 = APPLICATION_PROTOCOL_DEFINITION ( 'draft international standard', 'automotive_design', 1998, #242 ) ;
#131 = FACE_OUTER_BOUND ( 'NONE', #85, .T. ) ;
#132 = EDGE_LOOP ( 'NONE', ( #153, #204 ) ) ;
#133 = FILL_AREA_STYLE ('',( #273 ) ) ;
#134 = DIRECTION ( 'NONE',  ( 5.388445916248354013E-16, 1.000000000000000000, -0.000000000000000000 ) ) ;
#135 = PLANE ( 'NONE',  #219 ) ;
#136 = EDGE_CURVE ( 'NONE', #163, #26, #205, .T. ) ;
#137 = SURFACE_STYLE_USAGE ( .BOTH. , #298 ) ;
#138 = DIRECTION ( 'NONE',  ( 0.000000000000000000, -0.000000000000000000, 1.000000000000000000 ) ) ;
#139 = DIRECTION ( 'NONE',  ( -0.000000000000000000, -1.000000000000000000, -0.000000000000000000 ) ) ;
#140 = PRESENTATION_STYLE_ASSIGNMENT (( #144 ) ) ;
#141 = DIRECTION ( 'NONE',  ( 5.388445916248354013E-16, 1.000000000000000000, -0.000000000000000000 ) ) ;
#142 =( GEOMETRIC_REPRESENTATION_CONTEXT ( 3 ) GLOBAL_UNCERTAINTY_ASSIGNED_CONTEXT ( ( #282 ) ) GLOBAL_UNIT_ASSIGNED_CONTEXT ( ( #19, #212, #146 ) ) REPRESENTATION_CONTEXT ( 'NONE', 'WORKASPACE' ) );
#143 = FACE_OUTER_BOUND ( 'NONE', #177, .T. ) ;
#144 = SURFACE_STYLE_USAGE ( .BOTH. , #51 ) ;
#145 = EDGE_LOOP ( 'NONE', ( #291, #8 ) ) ;
#146 =( NAMED_UNIT ( * ) SI_UNIT ( $, .STERADIAN. ) SOLID_ANGLE_UNIT ( ) );
#147 = ORIENTED_EDGE ( 'NONE', *, *, #124, .T. ) ;
#148 = PRODUCT_DEFINITION_FORMATION_WITH_SPECIFIED_SOURCE ( 'ANY', '', #118, .NOT_KNOWN. ) ;
#149 = EDGE_CURVE ( 'NONE', #26, #129, #263, .T. ) ;
#150 = DIMENSIONAL_EXPONENTS ( 1.000000000000000000, 0.000000000000000000, 0.000000000000000000, 0.000000000000000000, 0.000000000000000000, 0.000000000000000000, 0.000000000000000000 ) ;
#151 =( LENGTH_UNIT ( ) NAMED_UNIT ( * ) SI_UNIT ( $, .METRE. ) );
#152 =( LENGTH_UNIT ( ) NAMED_UNIT ( * ) SI_UNIT ( $, .METRE. ) );
#153 = ORIENTED_EDGE ( 'NONE', *, *, #38, .T. ) ;
#154 = CARTESIAN_POINT ( 'NONE',  ( 0.000000000000000000, 0.000000000000000000, 0.000000000000000000 ) ) ;
#155 = LENGTH_MEASURE_WITH_UNIT ( LENGTH_MEASURE( 0.02539999999999999897 ), #57 );
#156 = CIRCLE ( 'NONE', #91, 0.06250000000000001388 ) ;
#157 = DIRECTION ( 'NONE',  ( 5.388445916248354013E-16, 1.000000000000000000, -0.000000000000000000 ) ) ;
#158 = SURFACE_STYLE_FILL_AREA ( #63 ) ;
#159 = EDGE_CURVE ( 'NONE', #55, #163, #101, .T. ) ;
#160 = AXIS2_PLACEMENT_3D ( 'NONE', #69, #141, #235 ) ;
#161 = FACE_OUTER_BOUND ( 'NONE', #303, .T. ) ;
#162 = PRODUCT_DEFINITION ( 'UNKNOWN', '', #148, #104 ) ;
#163 = VERTEX_POINT ( 'NONE', #226 ) ;
#164 = DIRECTION ( 'NONE',  ( 5.388445916248354013E-16, 1.000000000000000000, -0.000000000000000000 ) ) ;
#165 =( LENGTH_UNIT ( ) NAMED_UNIT ( * ) SI_UNIT ( $, .METRE. ) );
#166 = MECHANICAL_DESIGN_GEOMETRIC_PRESENTATION_REPRESENTATION (  '', ( #207 ), #25 ) ;
#167 = MANIFOLD_SOLID_BREP ( 'Revolve - Tool Body (Straight Shanked)', #17 ) ;
#168 = PRESENTATION_STYLE_ASSIGNMENT (( #241 ) ) ;
#169 = FILL_AREA_STYLE_COLOUR ( '', #203 ) ;
#170 = FILL_AREA_STYLE_COLOUR ( '', #107 ) ;
#171 = MANIFOLD_SOLID_BREP ( 'Revolve - Cutting Edge', #40 ) ;
#172 = CARTESIAN_POINT ( 'NONE',  ( 0.000000000000000000, 0.000000000000000000, 0.000000000000000000 ) ) ;
#173 = PRESENTATION_STYLE_ASSIGNMENT (( #35 ) ) ;
#174 = CARTESIAN_POINT ( 'NONE',  ( 0.000000000000000000, 0.000000000000000000, 0.000000000000000000 ) ) ;
#175 = CIRCLE ( 'NONE', #214, 0.06250000000000001388 ) ;
#176 = FACE_OUTER_BOUND ( 'NONE', #119, .T. ) ;
#177 = EDGE_LOOP ( 'NONE', ( #28, #296, #276, #292 ) ) ;
#178 = CARTESIAN_POINT ( 'NONE',  ( -0.06250000000000001388, 0.2499999999999998335, 0.000000000000000000 ) ) ;
#179 = DIRECTION ( 'NONE',  ( -1.000000000000000000, 5.463695987328525451E-16, 0.000000000000000000 ) ) ;
#180 = AXIS2_PLACEMENT_3D ( 'NONE', #227, #6, #251 ) ;
#181 = UNCERTAINTY_MEASURE_WITH_UNIT (LENGTH_MEASURE( 1.000000000000000082E-05 ), #202, 'distance_accuracy_value', 'NONE');
#182 = AXIS2_PLACEMENT_3D ( 'NONE', #172, #234, #23 ) ;
#183 = DIRECTION ( 'NONE',  ( 1.000000000000000000, -5.388445916248354013E-16, 0.000000000000000000 ) ) ;
#184 = UNCERTAINTY_MEASURE_WITH_UNIT (LENGTH_MEASURE( 1.000000000000000082E-05 ), #48, 'distance_accuracy_value', 'NONE');
#185 = CARTESIAN_POINT ( 'NONE',  ( 0.06250000000000001388, 1.499999999999999778, 7.654042494670939056E-18 ) ) ;
#186 = FILL_AREA_STYLE ('',( #78 ) ) ;
#187 = CYLINDRICAL_SURFACE ( 'NONE', #160, 0.06249999999999967387 ) ;
#188 =( NAMED_UNIT ( * ) PLANE_ANGLE_UNIT ( ) SI_UNIT ( $, .RADIAN. ) );
#189 = COLOUR_RGB ( '',1.000000000000000000, 0.000000000000000000, 0.000000000000000000 ) ;
#190 = PRESENTATION_LAYER_ASSIGNMENT (  '', '', ( #108 ) ) ;
#191 = SURFACE_SIDE_STYLE ('',( #99 ) ) ;
#192 = SURFACE_STYLE_USAGE ( .BOTH. , #211 ) ;
#193 = CARTESIAN_POINT ( 'NONE',  ( 0.000000000000000000, 0.000000000000000000, 0.000000000000000000 ) ) ;
#194 =( NAMED_UNIT ( * ) SI_UNIT ( $, .STERADIAN. ) SOLID_ANGLE_UNIT ( ) );
#195 = EDGE_CURVE ( 'NONE', #55, #129, #278, .T. ) ;
#196 = VERTEX_POINT ( 'NONE', #283 ) ;
#197 =( LENGTH_UNIT ( ) NAMED_UNIT ( * ) SI_UNIT ( $, .METRE. ) );
#198 = SURFACE_STYLE_FILL_AREA ( #34 ) ;
#199 = PRODUCT_CONTEXT ( 'NONE', #237, 'mechanical' ) ;
#200 = ORIENTED_EDGE ( 'NONE', *, *, #38, .F. ) ;
#201 = PLANE ( 'NONE',  #72 ) ;
#202 =( CONVERSION_BASED_UNIT ( 'INCH', #112 ) LENGTH_UNIT ( ) NAMED_UNIT ( #76 ) );
#203 = COLOUR_RGB ( '',0.7921568627450980005, 0.8196078431372548767, 0.9333333333333333481 ) ;
#204 = ORIENTED_EDGE ( 'NONE', *, *, #149, .T. ) ;
#205 = LINE ( 'NONE', #275, #53 ) ;
#206 = CARTESIAN_POINT ( 'NONE',  ( 0.000000000000000000, 0.2499999999999998057, 0.000000000000000000 ) ) ;
#207 = STYLED_ITEM ( 'NONE', ( #168 ), #46 ) ;
#208 = FILL_AREA_STYLE ('',( #169 ) ) ;
#209 = STYLED_ITEM ( 'NONE', ( #272 ), #167 ) ;
#210 = CARTESIAN_POINT ( 'NONE',  ( 0.06250000000000001388, 1.499999999999999778, 0.000000000000000000 ) ) ;
#211 = SURFACE_SIDE_STYLE ('',( #42 ) ) ;
#212 =( NAMED_UNIT ( * ) PLANE_ANGLE_UNIT ( ) SI_UNIT ( $, .RADIAN. ) );
#213 = DIRECTION ( 'NONE',  ( 0.000000000000000000, 0.000000000000000000, -1.000000000000000000 ) ) ;
#214 = AXIS2_PLACEMENT_3D ( 'NONE', #154, #117, #56 ) ;
#215 = PRESENTATION_LAYER_ASSIGNMENT (  '', '', ( #209 ) ) ;
#216 = EDGE_LOOP ( 'NONE', ( #80, #27, #66, #116 ) ) ;
#217 = SHAPE_DEFINITION_REPRESENTATION ( #7, #288 ) ;
#218 =( GEOMETRIC_REPRESENTATION_CONTEXT ( 3 ) GLOBAL_UNCERTAINTY_ASSIGNED_CONTEXT ( ( #274 ) ) GLOBAL_UNIT_ASSIGNED_CONTEXT ( ( #61, #289, #43 ) ) REPRESENTATION_CONTEXT ( 'NONE', 'WORKASPACE' ) );
#219 = AXIS2_PLACEMENT_3D ( 'NONE', #210, #232, #183 ) ;
#220 = SURFACE_STYLE_FILL_AREA ( #133 ) ;
#221 = DIRECTION ( 'NONE',  ( 5.388445916248354013E-16, 1.000000000000000000, -0.000000000000000000 ) ) ;
#222 = VERTEX_POINT ( 'NONE', #258 ) ;
#223 = CARTESIAN_POINT ( 'NONE',  ( -0.06249999999999866773, 1.499999999999999778, 0.000000000000000000 ) ) ;
#224 = CARTESIAN_POINT ( 'NONE',  ( 7.654042494670959086E-18, 0.000000000000000000, 0.06250000000000001388 ) ) ;
#225 = ORIENTED_EDGE ( 'NONE', *, *, #255, .T. ) ;
#226 = CARTESIAN_POINT ( 'NONE',  ( 0.06250000000000001388, 0.2499999999999997502, 7.654042494670939056E-18 ) ) ;
#227 = CARTESIAN_POINT ( 'NONE',  ( -1.213184216936841517E-31, 0.2499999999999998057, 0.000000000000000000 ) ) ;
#228 = FACE_OUTER_BOUND ( 'NONE', #216, .T. ) ;
#229 = CARTESIAN_POINT ( 'NONE',  ( 0.000000000000000000, 0.000000000000000000, 0.000000000000000000 ) ) ;
#230 =( CONVERSION_BASED_UNIT ( 'INCH', #155 ) LENGTH_UNIT ( ) NAMED_UNIT ( #150 ) );
#231 = MECHANICAL_DESIGN_GEOMETRIC_PRESENTATION_REPRESENTATION (  '', ( #121 ), #218 ) ;
#232 = DIRECTION ( 'NONE',  ( -5.388445916248354013E-16, -1.000000000000000000, 0.000000000000000000 ) ) ;
#233 = AXIS2_PLACEMENT_3D ( 'NONE', #271, #157, #179 ) ;
#234 = DIRECTION ( 'NONE',  ( 0.000000000000000000, -1.000000000000000000, -0.000000000000000000 ) ) ;
#235 = DIRECTION ( 'NONE',  ( -1.000000000000000000, 0.000000000000000000, 0.000000000000000000 ) ) ;
#236 = UNCERTAINTY_MEASURE_WITH_UNIT (LENGTH_MEASURE( 1.000000000000000082E-05 ), #230, 'distance_accuracy_value', 'NONE');
#237 = APPLICATION_CONTEXT ( 'automotive_design' ) ;
#238 =( NAMED_UNIT ( * ) SI_UNIT ( $, .STERADIAN. ) SOLID_ANGLE_UNIT ( ) );
#239 =( NAMED_UNIT ( * ) PLANE_ANGLE_UNIT ( ) SI_UNIT ( $, .RADIAN. ) );
#240 = APPLICATION_PROTOCOL_DEFINITION ( 'draft international standard', 'automotive_design', 1998, #237 ) ;
#241 = SURFACE_STYLE_USAGE ( .BOTH. , #191 ) ;
#242 = APPLICATION_CONTEXT ( 'automotive_design' ) ;
#243 = DIRECTION ( 'NONE',  ( 0.000000000000000000, 0.000000000000000000, -1.000000000000000000 ) ) ;
#244 = CIRCLE ( 'NONE', #180, 0.06250000000000001388 ) ;
#245 =( CONVERSION_BASED_UNIT ( 'INCH', #248 ) LENGTH_UNIT ( ) NAMED_UNIT ( #128 ) );
#246 = AXIS2_PLACEMENT_3D ( 'NONE', #309, #287, #267 ) ;
#247 = ORIENTED_EDGE ( 'NONE', *, *, #159, .T. ) ;
#248 = LENGTH_MEASURE_WITH_UNIT ( LENGTH_MEASURE( 0.02539999999999999897 ), #152 );
#249 = CYLINDRICAL_SURFACE ( 'NONE', #252, 0.06250000000000001388 ) ;
#250 = ADVANCED_FACE ( 'NONE', ( #143 ), #257, .T. ) ;
#251 = DIRECTION ( 'NONE',  ( -1.000000000000000000, 5.463695987328525451E-16, 0.000000000000000000 ) ) ;
#252 = AXIS2_PLACEMENT_3D ( 'NONE', #193, #20, #213 ) ;
#253 =( GEOMETRIC_REPRESENTATION_CONTEXT ( 3 ) GLOBAL_UNCERTAINTY_ASSIGNED_CONTEXT ( ( #302 ) ) GLOBAL_UNIT_ASSIGNED_CONTEXT ( ( #47, #188, #300 ) ) REPRESENTATION_CONTEXT ( 'NONE', 'WORKASPACE' ) );
#254 = CARTESIAN_POINT ( 'NONE',  ( 6.735557395310442023E-16, 1.499999999999999778, 0.000000000000000000 ) ) ;
#255 = EDGE_CURVE ( 'NONE', #67, #196, #156, .T. ) ;
#256 = ORIENTED_EDGE ( 'NONE', *, *, #195, .F. ) ;
#257 = CYLINDRICAL_SURFACE ( 'NONE', #3, 0.06249999999999967387 ) ;
#258 = CARTESIAN_POINT ( 'NONE',  ( 7.654042494670959086E-18, 0.000000000000000000, 0.06250000000000001388 ) ) ;
#259 = ORIENTED_EDGE ( 'NONE', *, *, #124, .F. ) ;
#260 = FACE_OUTER_BOUND ( 'NONE', #145, .T. ) ;
#261 =( LENGTH_UNIT ( ) NAMED_UNIT ( * ) SI_UNIT ( $, .METRE. ) );
#262 = MECHANICAL_DESIGN_GEOMETRIC_PRESENTATION_REPRESENTATION (  '', ( #90 ), #142 ) ;
#263 = CIRCLE ( 'NONE', #37, 0.06249999999999934081 ) ;
#264 = ADVANCED_FACE ( 'NONE', ( #16 ), #135, .F. ) ;
#265 =( NAMED_UNIT ( * ) SI_UNIT ( $, .STERADIAN. ) SOLID_ANGLE_UNIT ( ) );
#266 = LENGTH_MEASURE_WITH_UNIT ( LENGTH_MEASURE( 0.02539999999999999897 ), #165 );
#267 = DIRECTION ( 'NONE',  ( 1.000000000000000000, 0.000000000000000000, 0.000000000000000000 ) ) ;
#268 = LINE ( 'NONE', #224, #113 ) ;
#269 = DIRECTION ( 'NONE',  ( 0.000000000000000000, 1.000000000000000000, 0.000000000000000000 ) ) ;
#270 = FILL_AREA_STYLE_COLOUR ( '', #189 ) ;
#271 = CARTESIAN_POINT ( 'NONE',  ( -1.213184216936841517E-31, 0.2499999999999998057, 0.000000000000000000 ) ) ;
#272 = PRESENTATION_STYLE_ASSIGNMENT (( #137 ) ) ;
#273 = FILL_AREA_STYLE_COLOUR ( '', #36 ) ;
#274 = UNCERTAINTY_MEASURE_WITH_UNIT (LENGTH_MEASURE( 1.000000000000000082E-05 ), #61, 'distance_accuracy_value', 'NONE');
#275 = CARTESIAN_POINT ( 'NONE',  ( 0.06250000000000034694, 1.499999999999999778, 7.654042494670917485E-18 ) ) ;
#276 = ORIENTED_EDGE ( 'NONE', *, *, #195, .T. ) ;
#277 = AXIS2_PLACEMENT_3D ( 'NONE', #174, #79, #243 ) ;
#278 = LINE ( 'NONE', #71, #308 ) ;
#279 = ORIENTED_EDGE ( 'NONE', *, *, #136, .T. ) ;
#280 = PRESENTATION_LAYER_ASSIGNMENT (  '', '', ( #207 ) ) ;
#281 = CARTESIAN_POINT ( 'NONE',  ( 6.735557395310442023E-16, 1.499999999999999778, 0.000000000000000000 ) ) ;
#282 = UNCERTAINTY_MEASURE_WITH_UNIT (LENGTH_MEASURE( 1.000000000000000082E-05 ), #19, 'distance_accuracy_value', 'NONE');
#283 = CARTESIAN_POINT ( 'NONE',  ( 7.654042494670959086E-18, 0.2499999999999998057, 0.06250000000000001388 ) ) ;
#284 = CARTESIAN_POINT ( 'NONE',  ( 0.000000000000000000, 0.2499999999999998057, 0.000000000000000000 ) ) ;
#285 = FACE_OUTER_BOUND ( 'NONE', #306, .T. ) ;
#286 =( GEOMETRIC_REPRESENTATION_CONTEXT ( 3 ) GLOBAL_UNCERTAINTY_ASSIGNED_CONTEXT ( ( #236 ) ) GLOBAL_UNIT_ASSIGNED_CONTEXT ( ( #230, #13, #194 ) ) REPRESENTATION_CONTEXT ( 'NONE', 'WORKASPACE' ) );
#287 = DIRECTION ( 'NONE',  ( 0.000000000000000000, 0.000000000000000000, 1.000000000000000000 ) ) ;
#288 = ADVANCED_BREP_SHAPE_REPRESENTATION ( '48001', ( #171, #167, #246 ), #114 ) ;
#289 =( NAMED_UNIT ( * ) PLANE_ANGLE_UNIT ( ) SI_UNIT ( $, .RADIAN. ) );
#290 = ORIENTED_EDGE ( 'NONE', *, *, #32, .F. ) ;
#291 = ORIENTED_EDGE ( 'NONE', *, *, #255, .F. ) ;
#292 = ORIENTED_EDGE ( 'NONE', *, *, #149, .F. ) ;
#293 = AXIS2_PLACEMENT_3D ( 'NONE', #281, #70, #305 ) ;
#294 = ADVANCED_FACE ( 'NONE', ( #161 ), #187, .T. ) ;
#295 = PLANE ( 'NONE',  #182 ) ;
#296 = ORIENTED_EDGE ( 'NONE', *, *, #62, .T. ) ;
#297 = CARTESIAN_POINT ( 'NONE',  ( 0.000000000000000000, 0.000000000000000000, -0.06250000000000001388 ) ) ;
#298 = SURFACE_SIDE_STYLE ('',( #158 ) ) ;
#299 =( GEOMETRIC_REPRESENTATION_CONTEXT ( 3 ) GLOBAL_UNCERTAINTY_ASSIGNED_CONTEXT ( ( #181 ) ) GLOBAL_UNIT_ASSIGNED_CONTEXT ( ( #202, #102, #238 ) ) REPRESENTATION_CONTEXT ( 'NONE', 'WORKASPACE' ) );
#300 =( NAMED_UNIT ( * ) SI_UNIT ( $, .STERADIAN. ) SOLID_ANGLE_UNIT ( ) );
#301 = FILL_AREA_STYLE ('',( #170 ) ) ;
#302 = UNCERTAINTY_MEASURE_WITH_UNIT (LENGTH_MEASURE( 1.000000000000000082E-05 ), #47, 'distance_accuracy_value', 'NONE');
#303 = EDGE_LOOP ( 'NONE', ( #247, #279, #200, #256 ) ) ;
#304 = DIRECTION ( 'NONE',  ( -1.000000000000000000, 0.000000000000000000, 0.000000000000000000 ) ) ;
#305 = DIRECTION ( 'NONE',  ( -1.000000000000000000, 0.000000000000000000, 0.000000000000000000 ) ) ;
#306 = EDGE_LOOP ( 'NONE', ( #225, #88, #259, #290 ) ) ;
#307 = PRESENTATION_LAYER_ASSIGNMENT (  '', '', ( #121 ) ) ;
#308 = VECTOR ( 'NONE', #164, 39.37007874015748143 ) ;
#309 = CARTESIAN_POINT ( 'NONE',  ( 0.000000000000000000, 0.000000000000000000, 0.000000000000000000 ) ) ;
ENDSEC;
END-ISO-10303-21;
