ISO-10303-21;
HEADER;
FILE_DESCRIPTION (( 'STEP AP214' ),
    '1' );
FILE_NAME ('01272.STEP',
    '2023-06-22T14:25:00',
    ( '' ),
    ( '' ),
    'SwSTEP 2.0',
    'SolidWorks 2023',
    '' );
FILE_SCHEMA (( 'AUTOMOTIVE_DESIGN' ));
ENDSEC;

DATA;
#1 = DIRECTION ( 'NONE',  ( -3.061616997868386099E-17, 1.000000000000000000, -0.000000000000000000 ) ) ;
#2 = VERTEX_POINT ( 'NONE', #202 ) ;
#3 = CIRCLE ( 'NONE', #119, 0.1562500000000000000 ) ;
#4 = AXIS2_PLACEMENT_3D ( 'NONE', #186, #105, #52 ) ;
#5 = CARTESIAN_POINT ( 'NONE',  ( -0.1562500000000000000, 1.000000000000000000, 0.000000000000000000 ) ) ;
#6 = ORIENTED_EDGE ( 'NONE', *, *, #12, .F. ) ;
#7 =( LENGTH_UNIT ( ) NAMED_UNIT ( * ) SI_UNIT ( $, .METRE. ) );
#8 = ORIENTED_EDGE ( 'NONE', *, *, #53, .T. ) ;
#9 = SURFACE_SIDE_STYLE ('',( #199 ) ) ;
#10 = VERTEX_POINT ( 'NONE', #175 ) ;
#11 = STYLED_ITEM ( 'NONE', ( #64 ), #272 ) ;
#12 = EDGE_CURVE ( 'NONE', #230, #10, #3, .T. ) ;
#13 = ORIENTED_EDGE ( 'NONE', *, *, #143, .F. ) ;
#14 = LENGTH_MEASURE_WITH_UNIT ( LENGTH_MEASURE( 0.02539999999999999897 ), #85 );
#15 = LENGTH_MEASURE_WITH_UNIT ( LENGTH_MEASURE( 0.02539999999999999897 ), #219 );
#16 = AXIS2_PLACEMENT_3D ( 'NONE', #82, #196, #193 ) ;
#17 = DIRECTION ( 'NONE',  ( 0.000000000000000000, -0.000000000000000000, 1.000000000000000000 ) ) ;
#18 = PRODUCT_CONTEXT ( 'NONE', #48, 'mechanical' ) ;
#19 = PRESENTATION_STYLE_ASSIGNMENT (( #274 ) ) ;
#20 = CARTESIAN_POINT ( 'NONE',  ( 0.000000000000000000, 0.000000000000000000, 0.000000000000000000 ) ) ;
#21 = SURFACE_STYLE_USAGE ( .BOTH. , #49 ) ;
#22 =( NAMED_UNIT ( * ) SI_UNIT ( $, .STERADIAN. ) SOLID_ANGLE_UNIT ( ) );
#23 = DIRECTION ( 'NONE',  ( 3.061616997868386099E-17, -1.000000000000000000, 0.000000000000000000 ) ) ;
#24 = CIRCLE ( 'NONE', #309, 0.1562500000000000000 ) ;
#25 =( LENGTH_UNIT ( ) NAMED_UNIT ( * ) SI_UNIT ( $, .METRE. ) );
#26 = PLANE ( 'NONE',  #237 ) ;
#27 = ADVANCED_FACE ( 'NONE', ( #150 ), #250, .T. ) ;
#28 = ADVANCED_BREP_SHAPE_REPRESENTATION ( '01272', ( #65, #272, #93 ), #232 ) ;
#29 = CARTESIAN_POINT ( 'NONE',  ( 0.000000000000000000, 1.000000000000000000, 0.000000000000000000 ) ) ;
#30 = CARTESIAN_POINT ( 'NONE',  ( -6.123233995736772199E-17, 3.000000000000000444, 0.000000000000000000 ) ) ;
#31 = ADVANCED_FACE ( 'NONE', ( #90 ), #153, .T. ) ;
#32 = AXIS2_PLACEMENT_3D ( 'NONE', #122, #97, #264 ) ;
#33 = CYLINDRICAL_SURFACE ( 'NONE', #300, 0.1562500000000000278 ) ;
#34 = ORIENTED_EDGE ( 'NONE', *, *, #252, .T. ) ;
#35 = CARTESIAN_POINT ( 'NONE',  ( 1.913510623667739463E-17, 1.000000000000000000, 0.1562500000000000000 ) ) ;
#36 = ORIENTED_EDGE ( 'NONE', *, *, #158, .F. ) ;
#37 = VECTOR ( 'NONE', #92, 39.37007874015748143 ) ;
#38 = DIRECTION ( 'NONE',  ( 0.000000000000000000, 0.000000000000000000, -1.000000000000000000 ) ) ;
#39 = DIRECTION ( 'NONE',  ( -1.000000000000000000, 0.000000000000000000, 0.000000000000000000 ) ) ;
#40 = EDGE_CURVE ( 'NONE', #2, #173, #304, .T. ) ;
#41 = VECTOR ( 'NONE', #235, 39.37007874015748143 ) ;
#42 =( NAMED_UNIT ( * ) SI_UNIT ( $, .STERADIAN. ) SOLID_ANGLE_UNIT ( ) );
#43 = FACE_OUTER_BOUND ( 'NONE', #194, .T. ) ;
#44 = DIRECTION ( 'NONE',  ( -3.061616997868386099E-17, 1.000000000000000000, -0.000000000000000000 ) ) ;
#45 = EDGE_CURVE ( 'NONE', #10, #173, #183, .T. ) ;
#46 = SURFACE_SIDE_STYLE ('',( #123 ) ) ;
#47 = AXIS2_PLACEMENT_3D ( 'NONE', #30, #166, #125 ) ;
#48 = APPLICATION_CONTEXT ( 'automotive_design' ) ;
#49 = SURFACE_SIDE_STYLE ('',( #285 ) ) ;
#50 = PRODUCT_DEFINITION ( 'UNKNOWN', '', #167, #88 ) ;
#51 = COLOUR_RGB ( '',1.000000000000000000, 0.000000000000000000, 0.000000000000000000 ) ;
#52 = DIRECTION ( 'NONE',  ( 0.000000000000000000, 0.000000000000000000, -1.000000000000000000 ) ) ;
#53 = EDGE_CURVE ( 'NONE', #246, #291, #115, .T. ) ;
#54 = UNCERTAINTY_MEASURE_WITH_UNIT (LENGTH_MEASURE( 1.000000000000000082E-05 ), #188, 'distance_accuracy_value', 'NONE');
#55 = ORIENTED_EDGE ( 'NONE', *, *, #176, .T. ) ;
#56 =( NAMED_UNIT ( * ) SI_UNIT ( $, .STERADIAN. ) SOLID_ANGLE_UNIT ( ) );
#57 = MECHANICAL_DESIGN_GEOMETRIC_PRESENTATION_REPRESENTATION (  '', ( #148 ), #260 ) ;
#58 =( NAMED_UNIT ( * ) PLANE_ANGLE_UNIT ( ) SI_UNIT ( $, .RADIAN. ) );
#59 = ORIENTED_EDGE ( 'NONE', *, *, #95, .F. ) ;
#60 = ORIENTED_EDGE ( 'NONE', *, *, #40, .F. ) ;
#61 = FILL_AREA_STYLE_COLOUR ( '', #72 ) ;
#62 = DIMENSIONAL_EXPONENTS ( 1.000000000000000000, 0.000000000000000000, 0.000000000000000000, 0.000000000000000000, 0.000000000000000000, 0.000000000000000000, 0.000000000000000000 ) ;
#63 = MECHANICAL_DESIGN_GEOMETRIC_PRESENTATION_REPRESENTATION (  '', ( #222 ), #241 ) ;
#64 = PRESENTATION_STYLE_ASSIGNMENT (( #277 ) ) ;
#65 = MANIFOLD_SOLID_BREP ( 'Revolve - Cutting Edge', #135 ) ;
#66 = EDGE_CURVE ( 'NONE', #10, #230, #161, .T. ) ;
#67 =( CONVERSION_BASED_UNIT ( 'INCH', #15 ) LENGTH_UNIT ( ) NAMED_UNIT ( #276 ) );
#68 = CARTESIAN_POINT ( 'NONE',  ( 0.000000000000000000, 0.000000000000000000, 0.000000000000000000 ) ) ;
#69 = CIRCLE ( 'NONE', #257, 0.1562500000000000000 ) ;
#70 = FILL_AREA_STYLE_COLOUR ( '', #236 ) ;
#71 = DIRECTION ( 'NONE',  ( -3.061616997868386099E-17, 1.000000000000000000, -0.000000000000000000 ) ) ;
#72 = COLOUR_RGB ( '',1.000000000000000000, 0.000000000000000000, 0.000000000000000000 ) ;
#73 =( NAMED_UNIT ( * ) PLANE_ANGLE_UNIT ( ) SI_UNIT ( $, .RADIAN. ) );
#74 = MECHANICAL_DESIGN_GEOMETRIC_PRESENTATION_REPRESENTATION (  '', ( #174 ), #217 ) ;
#75 = CARTESIAN_POINT ( 'NONE',  ( 0.000000000000000000, 0.000000000000000000, 0.000000000000000000 ) ) ;
#76 = FACE_OUTER_BOUND ( 'NONE', #204, .T. ) ;
#77 = ORIENTED_EDGE ( 'NONE', *, *, #66, .T. ) ;
#78 = STYLED_ITEM ( 'NONE', ( #213 ), #65 ) ;
#79 = ORIENTED_EDGE ( 'NONE', *, *, #158, .T. ) ;
#80 = DIRECTION ( 'NONE',  ( -0.000000000000000000, -1.000000000000000000, -0.000000000000000000 ) ) ;
#81 = ORIENTED_EDGE ( 'NONE', *, *, #53, .F. ) ;
#82 = CARTESIAN_POINT ( 'NONE',  ( 7.323045813778616568E-35, 1.000000000000000000, 0.000000000000000000 ) ) ;
#83 = DIRECTION ( 'NONE',  ( -3.061616997868386099E-17, 1.000000000000000000, -0.000000000000000000 ) ) ;
#84 = EDGE_LOOP ( 'NONE', ( #145, #147 ) ) ;
#85 =( LENGTH_UNIT ( ) NAMED_UNIT ( * ) SI_UNIT ( $, .METRE. ) );
#86 = CARTESIAN_POINT ( 'NONE',  ( 0.000000000000000000, 1.000000000000000000, 0.000000000000000000 ) ) ;
#87 = DIRECTION ( 'NONE',  ( 0.000000000000000000, 0.000000000000000000, -1.000000000000000000 ) ) ;
#88 = PRODUCT_DEFINITION_CONTEXT ( 'detailed design', #205, 'design' ) ;
#89 = PRESENTATION_LAYER_ASSIGNMENT (  '', '', ( #78 ) ) ;
#90 = FACE_OUTER_BOUND ( 'NONE', #84, .T. ) ;
#91 = SURFACE_STYLE_USAGE ( .BOTH. , #151 ) ;
#92 = DIRECTION ( 'NONE',  ( -0.000000000000000000, -1.000000000000000000, -0.000000000000000000 ) ) ;
#93 = AXIS2_PLACEMENT_3D ( 'NONE', #20, #187, #157 ) ;
#94 = CYLINDRICAL_SURFACE ( 'NONE', #32, 0.1562500000000000000 ) ;
#95 = EDGE_CURVE ( 'NONE', #268, #294, #308, .T. ) ;
#96 =( LENGTH_UNIT ( ) NAMED_UNIT ( * ) SI_UNIT ( $, .METRE. ) );
#97 = DIRECTION ( 'NONE',  ( -0.000000000000000000, -1.000000000000000000, -0.000000000000000000 ) ) ;
#98 =( GEOMETRIC_REPRESENTATION_CONTEXT ( 3 ) GLOBAL_UNCERTAINTY_ASSIGNED_CONTEXT ( ( #102 ) ) GLOBAL_UNIT_ASSIGNED_CONTEXT ( ( #140, #73, #240 ) ) REPRESENTATION_CONTEXT ( 'NONE', 'WORKASPACE' ) );
#99 = PRODUCT ( '01272', '01272', '', ( #18 ) ) ;
#100 = ADVANCED_FACE ( 'NONE', ( #263 ), #26, .F. ) ;
#101 = FACE_OUTER_BOUND ( 'NONE', #106, .T. ) ;
#102 = UNCERTAINTY_MEASURE_WITH_UNIT (LENGTH_MEASURE( 1.000000000000000082E-05 ), #140, 'distance_accuracy_value', 'NONE');
#103 = ORIENTED_EDGE ( 'NONE', *, *, #252, .F. ) ;
#104 = COLOUR_RGB ( '',1.000000000000000000, 0.000000000000000000, 0.000000000000000000 ) ;
#105 = DIRECTION ( 'NONE',  ( -0.000000000000000000, -1.000000000000000000, -0.000000000000000000 ) ) ;
#106 = EDGE_LOOP ( 'NONE', ( #197, #109, #243, #81 ) ) ;
#107 = SURFACE_STYLE_USAGE ( .BOTH. , #9 ) ;
#108 = ORIENTED_EDGE ( 'NONE', *, *, #66, .F. ) ;
#109 = ORIENTED_EDGE ( 'NONE', *, *, #95, .T. ) ;
#110 = AXIS2_PLACEMENT_3D ( 'NONE', #299, #1, #223 ) ;
#111 = FILL_AREA_STYLE ('',( #61 ) ) ;
#112 = DIMENSIONAL_EXPONENTS ( 1.000000000000000000, 0.000000000000000000, 0.000000000000000000, 0.000000000000000000, 0.000000000000000000, 0.000000000000000000, 0.000000000000000000 ) ;
#113 = LENGTH_MEASURE_WITH_UNIT ( LENGTH_MEASURE( 0.02539999999999999897 ), #177 );
#114 =( NAMED_UNIT ( * ) SI_UNIT ( $, .STERADIAN. ) SOLID_ANGLE_UNIT ( ) );
#115 = LINE ( 'NONE', #302, #37 ) ;
#116 = DIMENSIONAL_EXPONENTS ( 1.000000000000000000, 0.000000000000000000, 0.000000000000000000, 0.000000000000000000, 0.000000000000000000, 0.000000000000000000, 0.000000000000000000 ) ;
#117 = DIRECTION ( 'NONE',  ( 0.000000000000000000, 0.000000000000000000, -1.000000000000000000 ) ) ;
#118 = DIRECTION ( 'NONE',  ( -1.000000000000000000, 0.000000000000000000, 0.000000000000000000 ) ) ;
#119 = AXIS2_PLACEMENT_3D ( 'NONE', #296, #83, #273 ) ;
#120 = CIRCLE ( 'NONE', #154, 0.1562500000000000000 ) ;
#121 = ADVANCED_FACE ( 'NONE', ( #162 ), #94, .T. ) ;
#122 = CARTESIAN_POINT ( 'NONE',  ( 0.000000000000000000, 0.000000000000000000, 0.000000000000000000 ) ) ;
#123 = SURFACE_STYLE_FILL_AREA ( #283 ) ;
#124 = AXIS2_PLACEMENT_3D ( 'NONE', #248, #80, #87 ) ;
#125 = DIRECTION ( 'NONE',  ( -1.000000000000000000, 0.000000000000000000, 0.000000000000000000 ) ) ;
#126 = CARTESIAN_POINT ( 'NONE',  ( -0.1562500000000001110, 3.000000000000000444, 0.000000000000000000 ) ) ;
#127 = PRESENTATION_LAYER_ASSIGNMENT (  '', '', ( #11 ) ) ;
#128 = FILL_AREA_STYLE_COLOUR ( '', #305 ) ;
#129 = FILL_AREA_STYLE_COLOUR ( '', #242 ) ;
#130 = ORIENTED_EDGE ( 'NONE', *, *, #45, .F. ) ;
#131 = AXIS2_PLACEMENT_3D ( 'NONE', #68, #298, #38 ) ;
#132 = EDGE_CURVE ( 'NONE', #291, #294, #24, .T. ) ;
#133 = UNCERTAINTY_MEASURE_WITH_UNIT (LENGTH_MEASURE( 1.000000000000000082E-05 ), #286, 'distance_accuracy_value', 'NONE');
#134 = SURFACE_SIDE_STYLE ('',( #234 ) ) ;
#135 = CLOSED_SHELL ( 'NONE', ( #261, #27, #121, #31 ) ) ;
#136 = APPLICATION_PROTOCOL_DEFINITION ( 'draft international standard', 'automotive_design', 1998, #48 ) ;
#137 = CARTESIAN_POINT ( 'NONE',  ( 0.1562499999999999722, 3.000000000000000444, 1.913510623667739771E-17 ) ) ;
#138 =( NAMED_UNIT ( * ) PLANE_ANGLE_UNIT ( ) SI_UNIT ( $, .RADIAN. ) );
#139 = FILL_AREA_STYLE ('',( #207 ) ) ;
#140 =( CONVERSION_BASED_UNIT ( 'INCH', #306 ) LENGTH_UNIT ( ) NAMED_UNIT ( #229 ) );
#141 =( NAMED_UNIT ( * ) SI_UNIT ( $, .STERADIAN. ) SOLID_ANGLE_UNIT ( ) );
#142 = CIRCLE ( 'NONE', #4, 0.1562500000000000000 ) ;
#143 = EDGE_CURVE ( 'NONE', #294, #291, #69, .T. ) ;
#144 = LINE ( 'NONE', #126, #224 ) ;
#145 = ORIENTED_EDGE ( 'NONE', *, *, #132, .T. ) ;
#146 = CYLINDRICAL_SURFACE ( 'NONE', #124, 0.1562500000000000000 ) ;
#147 = ORIENTED_EDGE ( 'NONE', *, *, #143, .T. ) ;
#148 = STYLED_ITEM ( 'NONE', ( #269 ), #261 ) ;
#149 = EDGE_LOOP ( 'NONE', ( #168, #55 ) ) ;
#150 = FACE_OUTER_BOUND ( 'NONE', #200, .T. ) ;
#151 = SURFACE_SIDE_STYLE ('',( #255 ) ) ;
#152 = MECHANICAL_DESIGN_GEOMETRIC_PRESENTATION_REPRESENTATION (  '', ( #78 ), #98 ) ;
#153 = PLANE ( 'NONE',  #131 ) ;
#154 = AXIS2_PLACEMENT_3D ( 'NONE', #29, #201, #220 ) ;
#155 = FILL_AREA_STYLE ('',( #70 ) ) ;
#156 = DIRECTION ( 'NONE',  ( -1.000000000000000000, 0.000000000000000000, 0.000000000000000000 ) ) ;
#157 = DIRECTION ( 'NONE',  ( 1.000000000000000000, 0.000000000000000000, 0.000000000000000000 ) ) ;
#158 = EDGE_CURVE ( 'NONE', #268, #246, #142, .T. ) ;
#159 = CARTESIAN_POINT ( 'NONE',  ( 1.913510623667739463E-17, 0.000000000000000000, 0.1562500000000000000 ) ) ;
#160 = PRESENTATION_LAYER_ASSIGNMENT (  '', '', ( #178 ) ) ;
#161 = CIRCLE ( 'NONE', #270, 0.1562500000000000000 ) ;
#162 = FACE_OUTER_BOUND ( 'NONE', #221, .T. ) ;
#163 = DIRECTION ( 'NONE',  ( -0.000000000000000000, -1.000000000000000000, -0.000000000000000000 ) ) ;
#164 = LENGTH_MEASURE_WITH_UNIT ( LENGTH_MEASURE( 0.02539999999999999897 ), #25 );
#165 = VECTOR ( 'NONE', #233, 39.37007874015748143 ) ;
#166 = DIRECTION ( 'NONE',  ( -3.061616997868386099E-17, 1.000000000000000000, -0.000000000000000000 ) ) ;
#167 = PRODUCT_DEFINITION_FORMATION_WITH_SPECIFIED_SOURCE ( 'ANY', '', #99, .NOT_KNOWN. ) ;
#168 = ORIENTED_EDGE ( 'NONE', *, *, #40, .T. ) ;
#169 = UNCERTAINTY_MEASURE_WITH_UNIT (LENGTH_MEASURE( 1.000000000000000082E-05 ), #67, 'distance_accuracy_value', 'NONE');
#170 = EDGE_LOOP ( 'NONE', ( #6, #108 ) ) ;
#171 = CARTESIAN_POINT ( 'NONE',  ( 0.000000000000000000, 1.000000000000000000, -0.1562500000000000000 ) ) ;
#172 = FILL_AREA_STYLE ('',( #129 ) ) ;
#173 = VERTEX_POINT ( 'NONE', #290 ) ;
#174 = STYLED_ITEM ( 'NONE', ( #218 ), #121 ) ;
#175 = CARTESIAN_POINT ( 'NONE',  ( 0.1562500000000000000, 1.000000000000000000, 1.913510623667739771E-17 ) ) ;
#176 = EDGE_CURVE ( 'NONE', #173, #2, #179, .T. ) ;
#177 =( LENGTH_UNIT ( ) NAMED_UNIT ( * ) SI_UNIT ( $, .METRE. ) );
#178 = STYLED_ITEM ( 'NONE', ( #19 ), #27 ) ;
#179 = CIRCLE ( 'NONE', #110, 0.1562500000000000833 ) ;
#180 = SURFACE_SIDE_STYLE ('',( #203 ) ) ;
#181 = CARTESIAN_POINT ( 'NONE',  ( -6.123233995736772199E-17, 3.000000000000000444, 0.000000000000000000 ) ) ;
#182 = CARTESIAN_POINT ( 'NONE',  ( 0.000000000000000000, 0.000000000000000000, -0.1562500000000000000 ) ) ;
#183 = LINE ( 'NONE', #137, #165 ) ;
#184 = APPLICATION_PROTOCOL_DEFINITION ( 'draft international standard', 'automotive_design', 1998, #205 ) ;
#185 = AXIS2_PLACEMENT_3D ( 'NONE', #86, #278, #17 ) ;
#186 = CARTESIAN_POINT ( 'NONE',  ( 0.000000000000000000, 1.000000000000000000, 0.000000000000000000 ) ) ;
#187 = DIRECTION ( 'NONE',  ( 0.000000000000000000, 0.000000000000000000, 1.000000000000000000 ) ) ;
#188 =( CONVERSION_BASED_UNIT ( 'INCH', #164 ) LENGTH_UNIT ( ) NAMED_UNIT ( #116 ) );
#189 = SURFACE_STYLE_USAGE ( .BOTH. , #46 ) ;
#190 = PRESENTATION_LAYER_ASSIGNMENT (  '', '', ( #174 ) ) ;
#191 = DIRECTION ( 'NONE',  ( -0.000000000000000000, -1.000000000000000000, -0.000000000000000000 ) ) ;
#192 = CARTESIAN_POINT ( 'NONE',  ( 0.1562500000000000000, 3.000000000000000444, 0.000000000000000000 ) ) ;
#193 = DIRECTION ( 'NONE',  ( -1.000000000000000000, -3.061616997868386099E-17, 0.000000000000000000 ) ) ;
#194 = EDGE_LOOP ( 'NONE', ( #249, #227, #60, #103 ) ) ;
#195 = CLOSED_SHELL ( 'NONE', ( #307, #215, #198, #100 ) ) ;
#196 = DIRECTION ( 'NONE',  ( -3.061616997868386099E-17, 1.000000000000000000, 0.000000000000000000 ) ) ;
#197 = ORIENTED_EDGE ( 'NONE', *, *, #239, .T. ) ;
#198 = ADVANCED_FACE ( 'NONE', ( #76 ), #295, .T. ) ;
#199 = SURFACE_STYLE_FILL_AREA ( #172 ) ;
#200 = EDGE_LOOP ( 'NONE', ( #231, #36 ) ) ;
#201 = DIRECTION ( 'NONE',  ( -0.000000000000000000, -1.000000000000000000, -0.000000000000000000 ) ) ;
#202 = CARTESIAN_POINT ( 'NONE',  ( -0.1562500000000001388, 3.000000000000000444, 0.000000000000000000 ) ) ;
#203 = SURFACE_STYLE_FILL_AREA ( #228 ) ;
#204 = EDGE_LOOP ( 'NONE', ( #130, #77, #34, #225 ) ) ;
#205 = APPLICATION_CONTEXT ( 'automotive_design' ) ;
#206 = UNCERTAINTY_MEASURE_WITH_UNIT (LENGTH_MEASURE( 1.000000000000000082E-05 ), #226, 'distance_accuracy_value', 'NONE');
#207 = FILL_AREA_STYLE_COLOUR ( '', #51 ) ;
#208 = DIMENSIONAL_EXPONENTS ( 1.000000000000000000, 0.000000000000000000, 0.000000000000000000, 0.000000000000000000, 0.000000000000000000, 0.000000000000000000, 0.000000000000000000 ) ;
#209 =( NAMED_UNIT ( * ) PLANE_ANGLE_UNIT ( ) SI_UNIT ( $, .RADIAN. ) );
#210 =( NAMED_UNIT ( * ) PLANE_ANGLE_UNIT ( ) SI_UNIT ( $, .RADIAN. ) );
#211 = DIRECTION ( 'NONE',  ( -3.061616997868386099E-17, 1.000000000000000000, -0.000000000000000000 ) ) ;
#212 = AXIS2_PLACEMENT_3D ( 'NONE', #181, #44, #39 ) ;
#213 = PRESENTATION_STYLE_ASSIGNMENT (( #21 ) ) ;
#214 = CARTESIAN_POINT ( 'NONE',  ( 0.000000000000000000, 0.000000000000000000, 0.000000000000000000 ) ) ;
#215 = ADVANCED_FACE ( 'NONE', ( #244 ), #266, .F. ) ;
#216 = PRESENTATION_LAYER_ASSIGNMENT (  '', '', ( #222 ) ) ;
#217 =( GEOMETRIC_REPRESENTATION_CONTEXT ( 3 ) GLOBAL_UNCERTAINTY_ASSIGNED_CONTEXT ( ( #54 ) ) GLOBAL_UNIT_ASSIGNED_CONTEXT ( ( #188, #287, #141 ) ) REPRESENTATION_CONTEXT ( 'NONE', 'WORKASPACE' ) );
#218 = PRESENTATION_STYLE_ASSIGNMENT (( #189 ) ) ;
#219 =( LENGTH_UNIT ( ) NAMED_UNIT ( * ) SI_UNIT ( $, .METRE. ) );
#220 = DIRECTION ( 'NONE',  ( 0.000000000000000000, 0.000000000000000000, -1.000000000000000000 ) ) ;
#221 = EDGE_LOOP ( 'NONE', ( #59, #79, #8, #13 ) ) ;
#222 = STYLED_ITEM ( 'NONE', ( #254 ), #31 ) ;
#223 = DIRECTION ( 'NONE',  ( -1.000000000000000000, 0.000000000000000000, 0.000000000000000000 ) ) ;
#224 = VECTOR ( 'NONE', #292, 39.37007874015748143 ) ;
#225 = ORIENTED_EDGE ( 'NONE', *, *, #176, .F. ) ;
#226 =( CONVERSION_BASED_UNIT ( 'INCH', #271 ) LENGTH_UNIT ( ) NAMED_UNIT ( #253 ) );
#227 = ORIENTED_EDGE ( 'NONE', *, *, #45, .T. ) ;
#228 = FILL_AREA_STYLE ('',( #128 ) ) ;
#229 = DIMENSIONAL_EXPONENTS ( 1.000000000000000000, 0.000000000000000000, 0.000000000000000000, 0.000000000000000000, 0.000000000000000000, 0.000000000000000000, 0.000000000000000000 ) ;
#230 = VERTEX_POINT ( 'NONE', #5 ) ;
#231 = ORIENTED_EDGE ( 'NONE', *, *, #239, .F. ) ;
#232 =( GEOMETRIC_REPRESENTATION_CONTEXT ( 3 ) GLOBAL_UNCERTAINTY_ASSIGNED_CONTEXT ( ( #133 ) ) GLOBAL_UNIT_ASSIGNED_CONTEXT ( ( #286, #138, #22 ) ) REPRESENTATION_CONTEXT ( 'NONE', 'WORKASPACE' ) );
#233 = DIRECTION ( 'NONE',  ( -3.061616997868386099E-17, 1.000000000000000000, -0.000000000000000000 ) ) ;
#234 = SURFACE_STYLE_FILL_AREA ( #139 ) ;
#235 = DIRECTION ( 'NONE',  ( -0.000000000000000000, -1.000000000000000000, -0.000000000000000000 ) ) ;
#236 = COLOUR_RGB ( '',0.7921568627450980005, 0.8196078431372548767, 0.9333333333333333481 ) ;
#237 = AXIS2_PLACEMENT_3D ( 'NONE', #192, #23, #289 ) ;
#238 =( LENGTH_UNIT ( ) NAMED_UNIT ( * ) SI_UNIT ( $, .METRE. ) );
#239 = EDGE_CURVE ( 'NONE', #246, #268, #120, .T. ) ;
#240 =( NAMED_UNIT ( * ) SI_UNIT ( $, .STERADIAN. ) SOLID_ANGLE_UNIT ( ) );
#241 =( GEOMETRIC_REPRESENTATION_CONTEXT ( 3 ) GLOBAL_UNCERTAINTY_ASSIGNED_CONTEXT ( ( #267 ) ) GLOBAL_UNIT_ASSIGNED_CONTEXT ( ( #258, #209, #42 ) ) REPRESENTATION_CONTEXT ( 'NONE', 'WORKASPACE' ) );
#242 = COLOUR_RGB ( '',1.000000000000000000, 0.000000000000000000, 0.000000000000000000 ) ;
#243 = ORIENTED_EDGE ( 'NONE', *, *, #132, .F. ) ;
#244 = FACE_OUTER_BOUND ( 'NONE', #170, .T. ) ;
#245 = PRODUCT_DEFINITION_SHAPE ( 'NONE', 'NONE',  #50 ) ;
#246 = VERTEX_POINT ( 'NONE', #171 ) ;
#247 =( GEOMETRIC_REPRESENTATION_CONTEXT ( 3 ) GLOBAL_UNCERTAINTY_ASSIGNED_CONTEXT ( ( #169 ) ) GLOBAL_UNIT_ASSIGNED_CONTEXT ( ( #67, #210, #259 ) ) REPRESENTATION_CONTEXT ( 'NONE', 'WORKASPACE' ) );
#248 = CARTESIAN_POINT ( 'NONE',  ( 0.000000000000000000, 0.000000000000000000, 0.000000000000000000 ) ) ;
#249 = ORIENTED_EDGE ( 'NONE', *, *, #12, .T. ) ;
#250 = PLANE ( 'NONE',  #185 ) ;
#251 =( CONVERSION_BASED_UNIT ( 'INCH', #113 ) LENGTH_UNIT ( ) NAMED_UNIT ( #62 ) );
#252 = EDGE_CURVE ( 'NONE', #230, #2, #144, .T. ) ;
#253 = DIMENSIONAL_EXPONENTS ( 1.000000000000000000, 0.000000000000000000, 0.000000000000000000, 0.000000000000000000, 0.000000000000000000, 0.000000000000000000, 0.000000000000000000 ) ;
#254 = PRESENTATION_STYLE_ASSIGNMENT (( #91 ) ) ;
#255 = SURFACE_STYLE_FILL_AREA ( #111 ) ;
#256 = LENGTH_MEASURE_WITH_UNIT ( LENGTH_MEASURE( 0.02539999999999999897 ), #96 );
#257 = AXIS2_PLACEMENT_3D ( 'NONE', #75, #163, #303 ) ;
#258 =( CONVERSION_BASED_UNIT ( 'INCH', #14 ) LENGTH_UNIT ( ) NAMED_UNIT ( #208 ) );
#259 =( NAMED_UNIT ( * ) SI_UNIT ( $, .STERADIAN. ) SOLID_ANGLE_UNIT ( ) );
#260 =( GEOMETRIC_REPRESENTATION_CONTEXT ( 3 ) GLOBAL_UNCERTAINTY_ASSIGNED_CONTEXT ( ( #206 ) ) GLOBAL_UNIT_ASSIGNED_CONTEXT ( ( #226, #58, #56 ) ) REPRESENTATION_CONTEXT ( 'NONE', 'WORKASPACE' ) );
#261 = ADVANCED_FACE ( 'NONE', ( #101 ), #146, .T. ) ;
#262 = FILL_AREA_STYLE_COLOUR ( '', #104 ) ;
#263 = FACE_OUTER_BOUND ( 'NONE', #149, .T. ) ;
#264 = DIRECTION ( 'NONE',  ( 0.000000000000000000, 0.000000000000000000, -1.000000000000000000 ) ) ;
#265 = MECHANICAL_DESIGN_GEOMETRIC_PRESENTATION_REPRESENTATION (  '', ( #178 ), #297 ) ;
#266 = PLANE ( 'NONE',  #16 ) ;
#267 = UNCERTAINTY_MEASURE_WITH_UNIT (LENGTH_MEASURE( 1.000000000000000082E-05 ), #258, 'distance_accuracy_value', 'NONE');
#268 = VERTEX_POINT ( 'NONE', #35 ) ;
#269 = PRESENTATION_STYLE_ASSIGNMENT (( #107 ) ) ;
#270 = AXIS2_PLACEMENT_3D ( 'NONE', #280, #71, #156 ) ;
#271 = LENGTH_MEASURE_WITH_UNIT ( LENGTH_MEASURE( 0.02539999999999999897 ), #7 );
#272 = MANIFOLD_SOLID_BREP ( 'Revolve - Tool Body (Straight Shanked)', #195 ) ;
#273 = DIRECTION ( 'NONE',  ( -1.000000000000000000, 0.000000000000000000, 0.000000000000000000 ) ) ;
#274 = SURFACE_STYLE_USAGE ( .BOTH. , #134 ) ;
#275 =( NAMED_UNIT ( * ) PLANE_ANGLE_UNIT ( ) SI_UNIT ( $, .RADIAN. ) );
#276 = DIMENSIONAL_EXPONENTS ( 1.000000000000000000, 0.000000000000000000, 0.000000000000000000, 0.000000000000000000, 0.000000000000000000, 0.000000000000000000, 0.000000000000000000 ) ;
#277 = SURFACE_STYLE_USAGE ( .BOTH. , #180 ) ;
#278 = DIRECTION ( 'NONE',  ( 0.000000000000000000, 1.000000000000000000, 0.000000000000000000 ) ) ;
#279 = SHAPE_DEFINITION_REPRESENTATION ( #245, #28 ) ;
#280 = CARTESIAN_POINT ( 'NONE',  ( 7.582401355855259480E-33, 1.000000000000000000, 0.000000000000000000 ) ) ;
#281 = PRODUCT_RELATED_PRODUCT_CATEGORY ( 'part', '', ( #99 ) ) ;
#282 = MECHANICAL_DESIGN_GEOMETRIC_PRESENTATION_REPRESENTATION (  '', ( #11 ), #247 ) ;
#283 = FILL_AREA_STYLE ('',( #262 ) ) ;
#284 = CARTESIAN_POINT ( 'NONE',  ( -6.123233995736772199E-17, 3.000000000000000444, 0.000000000000000000 ) ) ;
#285 = SURFACE_STYLE_FILL_AREA ( #155 ) ;
#286 =( CONVERSION_BASED_UNIT ( 'INCH', #256 ) LENGTH_UNIT ( ) NAMED_UNIT ( #112 ) );
#287 =( NAMED_UNIT ( * ) PLANE_ANGLE_UNIT ( ) SI_UNIT ( $, .RADIAN. ) );
#288 = PRESENTATION_LAYER_ASSIGNMENT (  '', '', ( #148 ) ) ;
#289 = DIRECTION ( 'NONE',  ( 1.000000000000000000, 3.061616997868386099E-17, 0.000000000000000000 ) ) ;
#290 = CARTESIAN_POINT ( 'NONE',  ( 0.1562500000000000000, 3.000000000000000444, 1.913510623667739771E-17 ) ) ;
#291 = VERTEX_POINT ( 'NONE', #182 ) ;
#292 = DIRECTION ( 'NONE',  ( -3.061616997868386099E-17, 1.000000000000000000, -0.000000000000000000 ) ) ;
#293 = UNCERTAINTY_MEASURE_WITH_UNIT (LENGTH_MEASURE( 1.000000000000000082E-05 ), #251, 'distance_accuracy_value', 'NONE');
#294 = VERTEX_POINT ( 'NONE', #301 ) ;
#295 = CYLINDRICAL_SURFACE ( 'NONE', #47, 0.1562500000000000278 ) ;
#296 = CARTESIAN_POINT ( 'NONE',  ( 7.582401355855259480E-33, 1.000000000000000000, 0.000000000000000000 ) ) ;
#297 =( GEOMETRIC_REPRESENTATION_CONTEXT ( 3 ) GLOBAL_UNCERTAINTY_ASSIGNED_CONTEXT ( ( #293 ) ) GLOBAL_UNIT_ASSIGNED_CONTEXT ( ( #251, #275, #114 ) ) REPRESENTATION_CONTEXT ( 'NONE', 'WORKASPACE' ) );
#298 = DIRECTION ( 'NONE',  ( 0.000000000000000000, -1.000000000000000000, -0.000000000000000000 ) ) ;
#299 = CARTESIAN_POINT ( 'NONE',  ( -6.123233995736772199E-17, 3.000000000000000444, 0.000000000000000000 ) ) ;
#300 = AXIS2_PLACEMENT_3D ( 'NONE', #284, #211, #118 ) ;
#301 = CARTESIAN_POINT ( 'NONE',  ( 1.913510623667739463E-17, 0.000000000000000000, 0.1562500000000000000 ) ) ;
#302 = CARTESIAN_POINT ( 'NONE',  ( 0.000000000000000000, 0.000000000000000000, -0.1562500000000000000 ) ) ;
#303 = DIRECTION ( 'NONE',  ( 0.000000000000000000, 0.000000000000000000, -1.000000000000000000 ) ) ;
#304 = CIRCLE ( 'NONE', #212, 0.1562500000000000833 ) ;
#305 = COLOUR_RGB ( '',0.7921568627450980005, 0.8196078431372548767, 0.9333333333333333481 ) ;
#306 = LENGTH_MEASURE_WITH_UNIT ( LENGTH_MEASURE( 0.02539999999999999897 ), #238 );
#307 = ADVANCED_FACE ( 'NONE', ( #43 ), #33, .T. ) ;
#308 = LINE ( 'NONE', #159, #41 ) ;
#309 = AXIS2_PLACEMENT_3D ( 'NONE', #214, #191, #117 ) ;
ENDSEC;
END-ISO-10303-21;
