ISO-10303-21;
HEADER;
FILE_DESCRIPTION (( 'STEP AP214' ),
    '1' );
FILE_NAME ('Micro_EMS-062-4.STEP',
    '2021-09-01T17:35:31',
    ( '' ),
    ( '' ),
    'SwSTEP 2.0',
    'SolidWorks 2020',
    '' );
FILE_SCHEMA (( 'AUTOMOTIVE_DESIGN' ));
ENDSEC;

DATA;
#1 = VERTEX_POINT ( 'NONE', #69 ) ;
#2 = LENGTH_MEASURE_WITH_UNIT ( LENGTH_MEASURE( 0.02539999999999999897 ), #95 );
#3 = CARTESIAN_POINT ( 'NONE',  ( 0.0000000000000000000, 0.0000000000000000000, 1.500000000000000222 ) ) ;
#4 = SURFACE_STYLE_FILL_AREA ( #246 ) ;
#5 = DIRECTION ( 'NONE',  ( -1.000000000000000000, 0.0000000000000000000, 1.224646799147353947E-16 ) ) ;
#6 = ADVANCED_FACE ( 'NONE', ( #204 ), #131, .F. ) ;
#7 = CARTESIAN_POINT ( 'NONE',  ( 0.0000000000000000000, 0.0000000000000000000, 0.0000000000000000000 ) ) ;
#8 = DIMENSIONAL_EXPONENTS ( 1.000000000000000000, 0.0000000000000000000, 0.0000000000000000000, 0.0000000000000000000, 0.0000000000000000000, 0.0000000000000000000, 0.0000000000000000000 ) ;
#9 = DIRECTION ( 'NONE',  ( -0.7071067811865462405, 0.0000000000000000000, -0.7071067811865486830 ) ) ;
#10 = LENGTH_MEASURE_WITH_UNIT ( LENGTH_MEASURE( 0.02539999999999999897 ), #168 );
#11 = CARTESIAN_POINT ( 'NONE',  ( 0.0000000000000000000, 0.0000000000000000000, 1.485000000000000764 ) ) ;
#12 = FACE_OUTER_BOUND ( 'NONE', #110, .T. ) ;
#13 = MANIFOLD_SOLID_BREP ( 'Cut-Revolve1', #174 ) ;
#14 = EDGE_LOOP ( 'NONE', ( #178, #275, #29, #197 ) ) ;
#15 = EDGE_CURVE ( 'NONE', #67, #107, #102, .T. ) ;
#16 = ORIENTED_EDGE ( 'NONE', *, *, #81, .T. ) ;
#17 =( NAMED_UNIT ( * ) PLANE_ANGLE_UNIT ( ) SI_UNIT ( $, .RADIAN. ) );
#18 = VECTOR ( 'NONE', #9, 39.37007874015748854 ) ;
#19 = DIRECTION ( 'NONE',  ( 1.000000000000000000, 0.0000000000000000000, 0.0000000000000000000 ) ) ;
#20 = DIRECTION ( 'NONE',  ( 0.0000000000000000000, 0.0000000000000000000, 1.000000000000000000 ) ) ;
#21 = ORIENTED_EDGE ( 'NONE', *, *, #169, .F. ) ;
#22 = DIRECTION ( 'NONE',  ( 0.0000000000000000000, 0.0000000000000000000, 1.000000000000000000 ) ) ;
#23 = EDGE_CURVE ( 'NONE', #67, #257, #86, .T. ) ;
#24 = LINE ( 'NONE', #248, #298 ) ;
#25 = LINE ( 'NONE', #188, #208 ) ;
#26 = FACE_OUTER_BOUND ( 'NONE', #157, .T. ) ;
#27 = DIRECTION ( 'NONE',  ( 0.0000000000000000000, 0.0000000000000000000, -1.000000000000000000 ) ) ;
#28 = EDGE_LOOP ( 'NONE', ( #148, #35, #16, #173 ) ) ;
#29 = ORIENTED_EDGE ( 'NONE', *, *, #103, .T. ) ;
#30 = ORIENTED_EDGE ( 'NONE', *, *, #292, .F. ) ;
#31 = CONICAL_SURFACE ( 'NONE', #233, 0.04750000000000064587, 0.7853981633974466137 ) ;
#32 = COLOUR_RGB ( '',0.7921568627450980005, 0.8196078431372548767, 0.9333333333333333481 ) ;
#33 =( NAMED_UNIT ( * ) PLANE_ANGLE_UNIT ( ) SI_UNIT ( $, .RADIAN. ) );
#34 = ADVANCED_FACE ( 'NONE', ( #118 ), #222, .T. ) ;
#35 = ORIENTED_EDGE ( 'NONE', *, *, #15, .T. ) ;
#36 = FACE_OUTER_BOUND ( 'NONE', #293, .T. ) ;
#37 = ORIENTED_EDGE ( 'NONE', *, *, #94, .T. ) ;
#38 = ORIENTED_EDGE ( 'NONE', *, *, #266, .T. ) ;
#39 = CYLINDRICAL_SURFACE ( 'NONE', #80, 0.06250000000000002776 ) ;
#40 = PRODUCT_DEFINITION_SHAPE ( 'NONE', 'NONE',  #154 ) ;
#41 = ORIENTED_EDGE ( 'NONE', *, *, #81, .F. ) ;
#42 = AXIS2_PLACEMENT_3D ( 'NONE', #7, #158, #183 ) ;
#43 = DIRECTION ( 'NONE',  ( -1.000000000000000000, 0.0000000000000000000, 0.0000000000000000000 ) ) ;
#44 = UNCERTAINTY_MEASURE_WITH_UNIT (LENGTH_MEASURE( 1.000000000000000082E-05 ), #89, 'distance_accuracy_value', 'NONE');
#45 = DIRECTION ( 'NONE',  ( 0.0000000000000000000, 0.0000000000000000000, -1.000000000000000000 ) ) ;
#46 = ORIENTED_EDGE ( 'NONE', *, *, #286, .T. ) ;
#47 = ORIENTED_EDGE ( 'NONE', *, *, #242, .T. ) ;
#48 = DIRECTION ( 'NONE',  ( -1.000000000000000000, 0.0000000000000000000, 1.224646799147353947E-16 ) ) ;
#49 = CARTESIAN_POINT ( 'NONE',  ( 4.474917996329784544E-17, 0.0000000000000000000, 0.3654047844199155848 ) ) ;
#50 = DIRECTION ( 'NONE',  ( 1.000000000000000000, 0.0000000000000000000, 0.0000000000000000000 ) ) ;
#51 = DIRECTION ( 'NONE',  ( 1.000000000000000000, 0.0000000000000000000, 0.0000000000000000000 ) ) ;
#52 = DIRECTION ( 'NONE',  ( -1.224646799147353700E-16, -0.0000000000000000000, -1.000000000000000000 ) ) ;
#53 = LINE ( 'NONE', #163, #18 ) ;
#54 = DIRECTION ( 'NONE',  ( -1.224646799147353700E-16, -0.0000000000000000000, -1.000000000000000000 ) ) ;
#55 = VECTOR ( 'NONE', #210, 39.37007874015747433 ) ;
#56 = DIRECTION ( 'NONE',  ( 1.000000000000000000, 0.0000000000000000000, 0.0000000000000000000 ) ) ;
#57 = PRESENTATION_STYLE_ASSIGNMENT (( #74 ) ) ;
#58 = VECTOR ( 'NONE', #54, 39.37007874015748143 ) ;
#59 = CIRCLE ( 'NONE', #252, 0.03121874999999999997 ) ;
#60 = AXIS2_PLACEMENT_3D ( 'NONE', #253, #45, #50 ) ;
#61 =( GEOMETRIC_REPRESENTATION_CONTEXT ( 3 ) GLOBAL_UNCERTAINTY_ASSIGNED_CONTEXT ( ( #139 ) ) GLOBAL_UNIT_ASSIGNED_CONTEXT ( ( #147, #76, #283 ) ) REPRESENTATION_CONTEXT ( 'NONE', 'WORKASPACE' ) );
#62 = FACE_OUTER_BOUND ( 'NONE', #269, .T. ) ;
#63 = CARTESIAN_POINT ( 'NONE',  ( 0.0000000000000000000, 0.0000000000000000000, 1.500000000000000222 ) ) ;
#64 = ORIENTED_EDGE ( 'NONE', *, *, #249, .T. ) ;
#65 = DIRECTION ( 'NONE',  ( -1.224646799147353700E-16, -0.0000000000000000000, -1.000000000000000000 ) ) ;
#66 = DIRECTION ( 'NONE',  ( -1.224646799147353700E-16, -0.0000000000000000000, -1.000000000000000000 ) ) ;
#67 = VERTEX_POINT ( 'NONE', #245 ) ;
#68 = STYLED_ITEM ( 'NONE', ( #295 ), #13 ) ;
#69 = CARTESIAN_POINT ( 'NONE',  ( -0.06249999999999997918, 0.0000000000000000000, 0.3654047844199155848 ) ) ;
#70 = DIRECTION ( 'NONE',  ( 1.000000000000000000, 0.0000000000000000000, 0.0000000000000000000 ) ) ;
#71 = UNCERTAINTY_MEASURE_WITH_UNIT (LENGTH_MEASURE( 1.000000000000000082E-05 ), #153, 'distance_accuracy_value', 'NONE');
#72 = CYLINDRICAL_SURFACE ( 'NONE', #85, 0.06250000000000002776 ) ;
#73 = ADVANCED_FACE ( 'NONE', ( #127 ), #31, .T. ) ;
#74 = SURFACE_STYLE_USAGE ( .BOTH. , #241 ) ;
#75 = DIRECTION ( 'NONE',  ( 0.0000000000000000000, 0.0000000000000000000, 1.000000000000000000 ) ) ;
#76 =( NAMED_UNIT ( * ) PLANE_ANGLE_UNIT ( ) SI_UNIT ( $, .RADIAN. ) );
#77 = ORIENTED_EDGE ( 'NONE', *, *, #15, .F. ) ;
#78 = APPLICATION_CONTEXT ( 'automotive_design' ) ;
#79 = AXIS2_PLACEMENT_3D ( 'NONE', #226, #22, #91 ) ;
#80 = AXIS2_PLACEMENT_3D ( 'NONE', #223, #87, #219 ) ;
#81 = EDGE_CURVE ( 'NONE', #107, #155, #25, .T. ) ;
#82 = SURFACE_SIDE_STYLE ('',( #4 ) ) ;
#83 = LENGTH_MEASURE_WITH_UNIT ( LENGTH_MEASURE( 0.02539999999999999897 ), #273 );
#84 = AXIS2_PLACEMENT_3D ( 'NONE', #11, #97, #51 ) ;
#85 = AXIS2_PLACEMENT_3D ( 'NONE', #156, #132, #280 ) ;
#86 = LINE ( 'NONE', #181, #58 ) ;
#87 = DIRECTION ( 'NONE',  ( -0.0000000000000000000, -0.0000000000000000000, -1.000000000000000000 ) ) ;
#88 = DIRECTION ( 'NONE',  ( -1.224646799147353700E-16, -0.0000000000000000000, -1.000000000000000000 ) ) ;
#89 =( CONVERSION_BASED_UNIT ( 'INCH', #2 ) LENGTH_UNIT ( ) NAMED_UNIT ( #145 ) );
#90 = EDGE_CURVE ( 'NONE', #294, #130, #281, .T. ) ;
#91 = DIRECTION ( 'NONE',  ( 1.000000000000000000, 0.0000000000000000000, -0.0000000000000000000 ) ) ;
#92 = DIRECTION ( 'NONE',  ( -1.224646799147353700E-16, -0.0000000000000000000, -1.000000000000000000 ) ) ;
#93 = DIRECTION ( 'NONE',  ( 0.1736481776669313859, 0.0000000000000000000, 0.9848077530122077983 ) ) ;
#94 = EDGE_CURVE ( 'NONE', #175, #109, #53, .T. ) ;
#95 =( LENGTH_UNIT ( ) NAMED_UNIT ( * ) SI_UNIT ( $, .METRE. ) );
#96 = CARTESIAN_POINT ( 'NONE',  ( -0.06250000000000002776, 0.0000000000000000000, 1.485000000000000764 ) ) ;
#97 = DIRECTION ( 'NONE',  ( 0.0000000000000000000, 0.0000000000000000000, -1.000000000000000000 ) ) ;
#98 = CIRCLE ( 'NONE', #100, 0.04750000000000064587 ) ;
#99 = APPLICATION_PROTOCOL_DEFINITION ( 'draft international standard', 'automotive_design', 1998, #218 ) ;
#100 = AXIS2_PLACEMENT_3D ( 'NONE', #203, #116, #19 ) ;
#101 = PLANE ( 'NONE',  #166 ) ;
#102 = CIRCLE ( 'NONE', #128, 0.03121875000000000691 ) ;
#103 = EDGE_CURVE ( 'NONE', #1, #196, #192, .T. ) ;
#104 = CARTESIAN_POINT ( 'NONE',  ( 2.302335982397025094E-17, 0.0000000000000000000, 0.1880000000000000282 ) ) ;
#105 = ORIENTED_EDGE ( 'NONE', *, *, #90, .T. ) ;
#106 = AXIS2_PLACEMENT_3D ( 'NONE', #135, #207, #187 ) ;
#107 = VERTEX_POINT ( 'NONE', #165 ) ;
#108 = FACE_OUTER_BOUND ( 'NONE', #14, .T. ) ;
#109 = VERTEX_POINT ( 'NONE', #96 ) ;
#110 = EDGE_LOOP ( 'NONE', ( #184, #202 ) ) ;
#111 = CYLINDRICAL_SURFACE ( 'NONE', #42, 0.03121875000000000691 ) ;
#112 = DIRECTION ( 'NONE',  ( -1.000000000000000000, 0.0000000000000000000, 0.0000000000000000000 ) ) ;
#113 = ADVANCED_FACE ( 'NONE', ( #230 ), #285, .T. ) ;
#114 =( GEOMETRIC_REPRESENTATION_CONTEXT ( 3 ) GLOBAL_UNCERTAINTY_ASSIGNED_CONTEXT ( ( #71 ) ) GLOBAL_UNIT_ASSIGNED_CONTEXT ( ( #153, #33, #271 ) ) REPRESENTATION_CONTEXT ( 'NONE', 'WORKASPACE' ) );
#115 = VECTOR ( 'NONE', #179, 39.37007874015748143 ) ;
#116 = DIRECTION ( 'NONE',  ( 0.0000000000000000000, 0.0000000000000000000, 1.000000000000000000 ) ) ;
#117 = DIRECTION ( 'NONE',  ( -1.224646799147353700E-16, -0.0000000000000000000, -1.000000000000000000 ) ) ;
#118 = FACE_OUTER_BOUND ( 'NONE', #268, .T. ) ;
#119 = DIRECTION ( 'NONE',  ( 1.000000000000000000, 0.0000000000000000000, 0.0000000000000000000 ) ) ;
#120 =( GEOMETRIC_REPRESENTATION_CONTEXT ( 3 ) GLOBAL_UNCERTAINTY_ASSIGNED_CONTEXT ( ( #44 ) ) GLOBAL_UNIT_ASSIGNED_CONTEXT ( ( #89, #17, #200 ) ) REPRESENTATION_CONTEXT ( 'NONE', 'WORKASPACE' ) );
#121 = EDGE_CURVE ( 'NONE', #130, #109, #177, .T. ) ;
#122 = CARTESIAN_POINT ( 'NONE',  ( 0.06250000000000002776, 7.654042494670959086E-18, 1.485000000000000764 ) ) ;
#123 = CARTESIAN_POINT ( 'NONE',  ( 2.302335982397025094E-17, 0.0000000000000000000, 0.1880000000000000282 ) ) ;
#124 = ADVANCED_FACE ( 'NONE', ( #12 ), #101, .T. ) ;
#125 = MECHANICAL_DESIGN_GEOMETRIC_PRESENTATION_REPRESENTATION (  '', ( #167 ), #61 ) ;
#126 = EDGE_LOOP ( 'NONE', ( #278, #21, #37, #217 ) ) ;
#127 = FACE_OUTER_BOUND ( 'NONE', #195, .T. ) ;
#128 = AXIS2_PLACEMENT_3D ( 'NONE', #104, #88, #297 ) ;
#129 = LINE ( 'NONE', #255, #115 ) ;
#130 = VERTEX_POINT ( 'NONE', #122 ) ;
#131 = PLANE ( 'NONE',  #79 ) ;
#132 = DIRECTION ( 'NONE',  ( -0.0000000000000000000, -0.0000000000000000000, -1.000000000000000000 ) ) ;
#133 = AXIS2_PLACEMENT_3D ( 'NONE', #251, #65, #43 ) ;
#134 = ORIENTED_EDGE ( 'NONE', *, *, #213, .F. ) ;
#135 = CARTESIAN_POINT ( 'NONE',  ( 2.302335982397025094E-17, 0.0000000000000000000, 0.1880000000000000282 ) ) ;
#136 = EDGE_LOOP ( 'NONE', ( #38, #151 ) ) ;
#137 = CARTESIAN_POINT ( 'NONE',  ( 0.06250000000000006939, 7.654042494670963708E-18, 0.3654047844199155848 ) ) ;
#138 = EDGE_CURVE ( 'NONE', #107, #1, #144, .T. ) ;
#139 = UNCERTAINTY_MEASURE_WITH_UNIT (LENGTH_MEASURE( 1.000000000000000082E-05 ), #147, 'distance_accuracy_value', 'NONE');
#140 = DIRECTION ( 'NONE',  ( -1.224646799147353700E-16, -0.0000000000000000000, -1.000000000000000000 ) ) ;
#141 = ORIENTED_EDGE ( 'NONE', *, *, #23, .T. ) ;
#142 = CARTESIAN_POINT ( 'NONE',  ( 0.03121874999999999997, 3.823194226088143687E-18, -4.739000847409537175E-34 ) ) ;
#143 = AXIS2_PLACEMENT_3D ( 'NONE', #274, #52, #70 ) ;
#144 = LINE ( 'NONE', #263, #55 ) ;
#145 = DIMENSIONAL_EXPONENTS ( 1.000000000000000000, 0.0000000000000000000, 0.0000000000000000000, 0.0000000000000000000, 0.0000000000000000000, 0.0000000000000000000, 0.0000000000000000000 ) ;
#146 = EDGE_CURVE ( 'NONE', #109, #130, #214, .T. ) ;
#147 =( CONVERSION_BASED_UNIT ( 'INCH', #10 ) LENGTH_UNIT ( ) NAMED_UNIT ( #225 ) );
#148 = ORIENTED_EDGE ( 'NONE', *, *, #23, .F. ) ;
#149 = AXIS2_PLACEMENT_3D ( 'NONE', #262, #117, #159 ) ;
#150 = AXIS2_PLACEMENT_3D ( 'NONE', #288, #75, #56 ) ;
#151 = ORIENTED_EDGE ( 'NONE', *, *, #299, .T. ) ;
#152 = AXIS2_PLACEMENT_3D ( 'NONE', #49, #140, #191 ) ;
#153 =( CONVERSION_BASED_UNIT ( 'INCH', #83 ) LENGTH_UNIT ( ) NAMED_UNIT ( #8 ) );
#154 = PRODUCT_DEFINITION ( 'UNKNOWN', '', #201, #227 ) ;
#155 = VERTEX_POINT ( 'NONE', #231 ) ;
#156 = CARTESIAN_POINT ( 'NONE',  ( 0.0000000000000000000, 0.0000000000000000000, 1.500000000000000222 ) ) ;
#157 = EDGE_LOOP ( 'NONE', ( #198, #244, #216, #247 ) ) ;
#158 = DIRECTION ( 'NONE',  ( -1.224646799147353700E-16, -0.0000000000000000000, -1.000000000000000000 ) ) ;
#159 = DIRECTION ( 'NONE',  ( -1.000000000000000000, 0.0000000000000000000, 1.224646799147353700E-16 ) ) ;
#160 = PRESENTATION_LAYER_ASSIGNMENT (  '', '', ( #167 ) ) ;
#161 = SURFACE_STYLE_USAGE ( .BOTH. , #82 ) ;
#162 = FACE_OUTER_BOUND ( 'NONE', #126, .T. ) ;
#163 = CARTESIAN_POINT ( 'NONE',  ( -0.04750000000000064587, 0.0000000000000000000, 1.500000000000000222 ) ) ;
#164 = DIRECTION ( 'NONE',  ( -0.0000000000000000000, -0.0000000000000000000, -1.000000000000000000 ) ) ;
#165 = CARTESIAN_POINT ( 'NONE',  ( -0.03121874999999998609, 5.738618360379552157E-18, 0.1880000000000000282 ) ) ;
#166 = AXIS2_PLACEMENT_3D ( 'NONE', #215, #237, #240 ) ;
#167 = STYLED_ITEM ( 'NONE', ( #57 ), #287 ) ;
#168 =( LENGTH_UNIT ( ) NAMED_UNIT ( * ) SI_UNIT ( $, .METRE. ) );
#169 = EDGE_CURVE ( 'NONE', #175, #294, #259, .T. ) ;
#170 = APPLICATION_PROTOCOL_DEFINITION ( 'draft international standard', 'automotive_design', 1998, #78 ) ;
#171 = VECTOR ( 'NONE', #164, 39.37007874015748143 ) ;
#172 = SHAPE_DEFINITION_REPRESENTATION ( #40, #287 ) ;
#173 = ORIENTED_EDGE ( 'NONE', *, *, #299, .F. ) ;
#174 = CLOSED_SHELL ( 'NONE', ( #206, #193, #73, #194, #256, #124, #235, #34, #113, #6 ) ) ;
#175 = VERTEX_POINT ( 'NONE', #199 ) ;
#176 = ORIENTED_EDGE ( 'NONE', *, *, #211, .T. ) ;
#177 = CIRCLE ( 'NONE', #60, 0.06250000000000002776 ) ;
#178 = ORIENTED_EDGE ( 'NONE', *, *, #286, .F. ) ;
#179 = DIRECTION ( 'NONE',  ( -0.0000000000000000000, -0.0000000000000000000, -1.000000000000000000 ) ) ;
#180 = PRODUCT ( 'Micro_EMS-062-4', 'Micro_EMS-062-4', '', ( #238 ) ) ;
#181 = CARTESIAN_POINT ( 'NONE',  ( 0.03121875000000000691, 3.823194226088144458E-18, -3.823194226088145998E-18 ) ) ;
#182 = ORIENTED_EDGE ( 'NONE', *, *, #94, .F. ) ;
#183 = DIRECTION ( 'NONE',  ( -1.000000000000000000, 0.0000000000000000000, 1.224646799147353700E-16 ) ) ;
#184 = ORIENTED_EDGE ( 'NONE', *, *, #169, .T. ) ;
#185 = AXIS2_PLACEMENT_3D ( 'NONE', #123, #221, #119 ) ;
#186 = CARTESIAN_POINT ( 'NONE',  ( 0.04750000000000064587, 5.817072295950006528E-18, 1.500000000000000222 ) ) ;
#187 = DIRECTION ( 'NONE',  ( 1.000000000000000000, 0.0000000000000000000, 0.0000000000000000000 ) ) ;
#188 = CARTESIAN_POINT ( 'NONE',  ( -0.03121875000000000691, 0.0000000000000000000, 3.823194226088145998E-18 ) ) ;
#189 = ORIENTED_EDGE ( 'NONE', *, *, #146, .T. ) ;
#190 = CARTESIAN_POINT ( 'NONE',  ( 4.682062571497491304E-34, 0.0000000000000000000, 3.823194226088145228E-18 ) ) ;
#191 = DIRECTION ( 'NONE',  ( 1.000000000000000000, 0.0000000000000000000, 0.0000000000000000000 ) ) ;
#192 = CIRCLE ( 'NONE', #152, 0.06250000000000002776 ) ;
#193 = ADVANCED_FACE ( 'NONE', ( #108 ), #279, .T. ) ;
#194 = ADVANCED_FACE ( 'NONE', ( #62 ), #72, .T. ) ;
#195 = EDGE_LOOP ( 'NONE', ( #30, #105, #250, #182 ) ) ;
#196 = VERTEX_POINT ( 'NONE', #137 ) ;
#197 = ORIENTED_EDGE ( 'NONE', *, *, #211, .F. ) ;
#198 = ORIENTED_EDGE ( 'NONE', *, *, #242, .F. ) ;
#199 = CARTESIAN_POINT ( 'NONE',  ( -0.04750000000000064587, 0.0000000000000000000, 1.500000000000000222 ) ) ;
#200 =( NAMED_UNIT ( * ) SI_UNIT ( $, .STERADIAN. ) SOLID_ANGLE_UNIT ( ) );
#201 = PRODUCT_DEFINITION_FORMATION_WITH_SPECIFIED_SOURCE ( 'ANY', '', #180, .NOT_KNOWN. ) ;
#202 = ORIENTED_EDGE ( 'NONE', *, *, #292, .T. ) ;
#203 = CARTESIAN_POINT ( 'NONE',  ( 0.0000000000000000000, 0.0000000000000000000, 1.500000000000000222 ) ) ;
#204 = FACE_OUTER_BOUND ( 'NONE', #136, .T. ) ;
#205 = CARTESIAN_POINT ( 'NONE',  ( -0.06250000000000002776, 0.0000000000000000000, 1.500000000000000222 ) ) ;
#206 = ADVANCED_FACE ( 'NONE', ( #36 ), #111, .T. ) ;
#207 = DIRECTION ( 'NONE',  ( 1.224646799147353700E-16, 0.0000000000000000000, 1.000000000000000000 ) ) ;
#208 = VECTOR ( 'NONE', #66, 39.37007874015748143 ) ;
#209 = CARTESIAN_POINT ( 'NONE',  ( 0.04750000000000064587, 6.735557395310483192E-18, 1.500000000000000222 ) ) ;
#210 = DIRECTION ( 'NONE',  ( -0.1736481776669311916, 2.126576849575783316E-17, 0.9848077530122080203 ) ) ;
#211 = EDGE_CURVE ( 'NONE', #67, #196, #24, .T. ) ;
#212 = COLOUR_RGB ( '',0.7921568627450980005, 0.8196078431372548767, 0.9333333333333333481 ) ;
#213 = EDGE_CURVE ( 'NONE', #109, #1, #229, .T. ) ;
#214 = CIRCLE ( 'NONE', #84, 0.06250000000000002776 ) ;
#215 = CARTESIAN_POINT ( 'NONE',  ( 0.0000000000000000000, 0.0000000000000000000, 1.500000000000000222 ) ) ;
#216 = ORIENTED_EDGE ( 'NONE', *, *, #213, .T. ) ;
#217 = ORIENTED_EDGE ( 'NONE', *, *, #121, .F. ) ;
#218 = APPLICATION_CONTEXT ( 'automotive_design' ) ;
#219 = DIRECTION ( 'NONE',  ( -1.000000000000000000, 0.0000000000000000000, 0.0000000000000000000 ) ) ;
#220 = DIRECTION ( 'NONE',  ( 1.000000000000000000, 0.0000000000000000000, 0.0000000000000000000 ) ) ;
#221 = DIRECTION ( 'NONE',  ( 1.224646799147353700E-16, 0.0000000000000000000, 1.000000000000000000 ) ) ;
#222 = CONICAL_SURFACE ( 'NONE', #185, 0.03121875000000000691, 0.1745329251994338915 ) ;
#223 = CARTESIAN_POINT ( 'NONE',  ( 0.0000000000000000000, 0.0000000000000000000, 1.500000000000000222 ) ) ;
#224 = CIRCLE ( 'NONE', #143, 0.06250000000000002776 ) ;
#225 = DIMENSIONAL_EXPONENTS ( 1.000000000000000000, 0.0000000000000000000, 0.0000000000000000000, 0.0000000000000000000, 0.0000000000000000000, 0.0000000000000000000, 0.0000000000000000000 ) ;
#226 = CARTESIAN_POINT ( 'NONE',  ( 0.0000000000000000000, 0.0000000000000000000, 0.0000000000000000000 ) ) ;
#227 = PRODUCT_DEFINITION_CONTEXT ( 'detailed design', #218, 'design' ) ;
#228 = FILL_AREA_STYLE_COLOUR ( '', #212 ) ;
#229 = LINE ( 'NONE', #205, #171 ) ;
#230 = FACE_OUTER_BOUND ( 'NONE', #28, .T. ) ;
#231 = CARTESIAN_POINT ( 'NONE',  ( -0.03121874999999999997, 0.0000000000000000000, 7.646388452176290456E-18 ) ) ;
#232 = CARTESIAN_POINT ( 'NONE',  ( 0.0000000000000000000, 0.0000000000000000000, 1.500000000000000222 ) ) ;
#233 = AXIS2_PLACEMENT_3D ( 'NONE', #3, #27, #277 ) ;
#234 = AXIS2_PLACEMENT_3D ( 'NONE', #232, #254, #112 ) ;
#235 = ADVANCED_FACE ( 'NONE', ( #162 ), #261, .T. ) ;
#236 = FILL_AREA_STYLE_COLOUR ( '', #32 ) ;
#237 = DIRECTION ( 'NONE',  ( 0.0000000000000000000, 0.0000000000000000000, 1.000000000000000000 ) ) ;
#238 = PRODUCT_CONTEXT ( 'NONE', #78, 'mechanical' ) ;
#239 = MECHANICAL_DESIGN_GEOMETRIC_PRESENTATION_REPRESENTATION (  '', ( #68 ), #114 ) ;
#240 = DIRECTION ( 'NONE',  ( 1.000000000000000000, 0.0000000000000000000, -0.0000000000000000000 ) ) ;
#241 = SURFACE_SIDE_STYLE ('',( #265 ) ) ;
#242 = EDGE_CURVE ( 'NONE', #130, #196, #129, .T. ) ;
#243 = PRODUCT_RELATED_PRODUCT_CATEGORY ( 'part', '', ( #180 ) ) ;
#244 = ORIENTED_EDGE ( 'NONE', *, *, #121, .T. ) ;
#245 = CARTESIAN_POINT ( 'NONE',  ( 0.03121875000000002773, 0.0000000000000000000, 0.1880000000000000282 ) ) ;
#246 = FILL_AREA_STYLE ('',( #228 ) ) ;
#247 = ORIENTED_EDGE ( 'NONE', *, *, #249, .F. ) ;
#248 = CARTESIAN_POINT ( 'NONE',  ( 0.03121875000000002773, 0.0000000000000000000, 0.1880000000000000282 ) ) ;
#249 = EDGE_CURVE ( 'NONE', #196, #1, #224, .T. ) ;
#250 = ORIENTED_EDGE ( 'NONE', *, *, #146, .F. ) ;
#251 = CARTESIAN_POINT ( 'NONE',  ( 2.302335982397025094E-17, 0.0000000000000000000, 0.1880000000000000282 ) ) ;
#252 = AXIS2_PLACEMENT_3D ( 'NONE', #190, #276, #5 ) ;
#253 = CARTESIAN_POINT ( 'NONE',  ( 0.0000000000000000000, 0.0000000000000000000, 1.485000000000000764 ) ) ;
#254 = DIRECTION ( 'NONE',  ( 0.0000000000000000000, 0.0000000000000000000, -1.000000000000000000 ) ) ;
#255 = CARTESIAN_POINT ( 'NONE',  ( 0.06250000000000002776, 7.654042494670959086E-18, 1.500000000000000222 ) ) ;
#256 = ADVANCED_FACE ( 'NONE', ( #26 ), #39, .T. ) ;
#257 = VERTEX_POINT ( 'NONE', #142 ) ;
#258 = DIRECTION ( 'NONE',  ( 0.7071067811865462405, 8.659560562354916834E-17, -0.7071067811865486830 ) ) ;
#259 = CIRCLE ( 'NONE', #296, 0.04750000000000064587 ) ;
#260 = ORIENTED_EDGE ( 'NONE', *, *, #103, .F. ) ;
#261 = CONICAL_SURFACE ( 'NONE', #234, 0.04750000000000064587, 0.7853981633974466137 ) ;
#262 = CARTESIAN_POINT ( 'NONE',  ( 0.0000000000000000000, 0.0000000000000000000, 0.0000000000000000000 ) ) ;
#263 = CARTESIAN_POINT ( 'NONE',  ( -0.03121874999999998609, 3.823194226088144458E-18, 0.1880000000000000282 ) ) ;
#264 = FILL_AREA_STYLE ('',( #236 ) ) ;
#265 = SURFACE_STYLE_FILL_AREA ( #264 ) ;
#266 = EDGE_CURVE ( 'NONE', #155, #257, #59, .T. ) ;
#267 = CIRCLE ( 'NONE', #290, 0.03121874999999999997 ) ;
#268 = EDGE_LOOP ( 'NONE', ( #272, #77, #176, #64 ) ) ;
#269 = EDGE_LOOP ( 'NONE', ( #189, #47, #260, #134 ) ) ;
#270 = ORIENTED_EDGE ( 'NONE', *, *, #266, .F. ) ;
#271 =( NAMED_UNIT ( * ) SI_UNIT ( $, .STERADIAN. ) SOLID_ANGLE_UNIT ( ) );
#272 = ORIENTED_EDGE ( 'NONE', *, *, #138, .F. ) ;
#273 =( LENGTH_UNIT ( ) NAMED_UNIT ( * ) SI_UNIT ( $, .METRE. ) );
#274 = CARTESIAN_POINT ( 'NONE',  ( 4.474917996329784544E-17, 0.0000000000000000000, 0.3654047844199155848 ) ) ;
#275 = ORIENTED_EDGE ( 'NONE', *, *, #138, .T. ) ;
#276 = DIRECTION ( 'NONE',  ( -1.224646799147353700E-16, -0.0000000000000000000, -1.000000000000000000 ) ) ;
#277 = DIRECTION ( 'NONE',  ( -1.000000000000000000, 0.0000000000000000000, 0.0000000000000000000 ) ) ;
#278 = ORIENTED_EDGE ( 'NONE', *, *, #90, .F. ) ;
#279 = CONICAL_SURFACE ( 'NONE', #106, 0.03121875000000000691, 0.1745329251994338915 ) ;
#280 = DIRECTION ( 'NONE',  ( -1.000000000000000000, 0.0000000000000000000, 0.0000000000000000000 ) ) ;
#281 = LINE ( 'NONE', #186, #289 ) ;
#282 = CARTESIAN_POINT ( 'NONE',  ( 4.682062571497491304E-34, 0.0000000000000000000, 3.823194226088145228E-18 ) ) ;
#283 =( NAMED_UNIT ( * ) SI_UNIT ( $, .STERADIAN. ) SOLID_ANGLE_UNIT ( ) );
#284 = PRESENTATION_LAYER_ASSIGNMENT (  '', '', ( #68 ) ) ;
#285 = CYLINDRICAL_SURFACE ( 'NONE', #149, 0.03121875000000000691 ) ;
#286 = EDGE_CURVE ( 'NONE', #107, #67, #291, .T. ) ;
#287 = ADVANCED_BREP_SHAPE_REPRESENTATION ( 'Micro_EMS-062-4', ( #13, #150 ), #120 ) ;
#288 = CARTESIAN_POINT ( 'NONE',  ( 0.0000000000000000000, 0.0000000000000000000, 0.0000000000000000000 ) ) ;
#289 = VECTOR ( 'NONE', #258, 39.37007874015748854 ) ;
#290 = AXIS2_PLACEMENT_3D ( 'NONE', #282, #92, #48 ) ;
#291 = CIRCLE ( 'NONE', #133, 0.03121875000000000691 ) ;
#292 = EDGE_CURVE ( 'NONE', #294, #175, #98, .T. ) ;
#293 = EDGE_LOOP ( 'NONE', ( #46, #141, #270, #41 ) ) ;
#294 = VERTEX_POINT ( 'NONE', #209 ) ;
#295 = PRESENTATION_STYLE_ASSIGNMENT (( #161 ) ) ;
#296 = AXIS2_PLACEMENT_3D ( 'NONE', #63, #20, #220 ) ;
#297 = DIRECTION ( 'NONE',  ( -1.000000000000000000, 0.0000000000000000000, 0.0000000000000000000 ) ) ;
#298 = VECTOR ( 'NONE', #93, 39.37007874015748143 ) ;
#299 = EDGE_CURVE ( 'NONE', #257, #155, #267, .T. ) ;
ENDSEC;
END-ISO-10303-21;
