ISO-10303-21;
HEADER;
FILE_DESCRIPTION (( 'STEP AP214' ),
    '1' );
FILE_NAME ('23160.STEP',
    '2023-06-22T16:37:51',
    ( '' ),
    ( '' ),
    'SwSTEP 2.0',
    'SolidWorks 2023',
    '' );
FILE_SCHEMA (( 'AUTOMOTIVE_DESIGN' ));
ENDSEC;

DATA;
#1 = ORIENTED_EDGE ( 'NONE', *, *, #241, .T. ) ;
#2 = CARTESIAN_POINT ( 'NONE',  ( 0.000000000000000000, 0.000000000000000000, 0.000000000000000000 ) ) ;
#3 = FACE_OUTER_BOUND ( 'NONE', #193, .T. ) ;
#4 = DIRECTION ( 'NONE',  ( 0.000000000000000000, 0.000000000000000000, -1.000000000000000000 ) ) ;
#5 = PRESENTATION_LAYER_ASSIGNMENT (  '', '', ( #80 ) ) ;
#6 = DIMENSIONAL_EXPONENTS ( 1.000000000000000000, 0.000000000000000000, 0.000000000000000000, 0.000000000000000000, 0.000000000000000000, 0.000000000000000000, 0.000000000000000000 ) ;
#7 =( LENGTH_UNIT ( ) NAMED_UNIT ( * ) SI_UNIT ( $, .METRE. ) );
#8 = PRESENTATION_STYLE_ASSIGNMENT (( #268 ) ) ;
#9 = DIMENSIONAL_EXPONENTS ( 1.000000000000000000, 0.000000000000000000, 0.000000000000000000, 0.000000000000000000, 0.000000000000000000, 0.000000000000000000, 0.000000000000000000 ) ;
#10 =( NAMED_UNIT ( * ) SI_UNIT ( $, .STERADIAN. ) SOLID_ANGLE_UNIT ( ) );
#11 = COLOUR_RGB ( '',1.000000000000000000, 0.000000000000000000, 0.000000000000000000 ) ;
#12 = MECHANICAL_DESIGN_GEOMETRIC_PRESENTATION_REPRESENTATION (  '', ( #216 ), #35 ) ;
#13 = PRESENTATION_STYLE_ASSIGNMENT (( #135 ) ) ;
#14 = FACE_OUTER_BOUND ( 'NONE', #161, .T. ) ;
#15 = DIRECTION ( 'NONE',  ( 0.000000000000000000, 0.000000000000000000, -1.000000000000000000 ) ) ;
#16 = STYLED_ITEM ( 'NONE', ( #13 ), #117 ) ;
#17 = ADVANCED_FACE ( 'NONE', ( #100 ), #262, .F. ) ;
#18 = LENGTH_MEASURE_WITH_UNIT ( LENGTH_MEASURE( 0.02539999999999999897 ), #145 );
#19 = CYLINDRICAL_SURFACE ( 'NONE', #156, 0.1875000000000000278 ) ;
#20 = VERTEX_POINT ( 'NONE', #77 ) ;
#21 = ADVANCED_FACE ( 'NONE', ( #3 ), #27, .T. ) ;
#22 = LENGTH_MEASURE_WITH_UNIT ( LENGTH_MEASURE( 0.02539999999999999897 ), #219 );
#23 = CARTESIAN_POINT ( 'NONE',  ( 3.515061990613733472E-34, 1.000000000000000000, 0.000000000000000000 ) ) ;
#24 = SURFACE_STYLE_FILL_AREA ( #150 ) ;
#25 = AXIS2_PLACEMENT_3D ( 'NONE', #23, #123, #215 ) ;
#26 = EDGE_CURVE ( 'NONE', #149, #301, #234, .T. ) ;
#27 = PLANE ( 'NONE',  #41 ) ;
#28 = ORIENTED_EDGE ( 'NONE', *, *, #62, .T. ) ;
#29 = DIMENSIONAL_EXPONENTS ( 1.000000000000000000, 0.000000000000000000, 0.000000000000000000, 0.000000000000000000, 0.000000000000000000, 0.000000000000000000, 0.000000000000000000 ) ;
#30 = CIRCLE ( 'NONE', #104, 0.1875000000000000278 ) ;
#31 = PRESENTATION_STYLE_ASSIGNMENT (( #84 ) ) ;
#32 = UNCERTAINTY_MEASURE_WITH_UNIT (LENGTH_MEASURE( 1.000000000000000082E-05 ), #67, 'distance_accuracy_value', 'NONE');
#33 = SURFACE_SIDE_STYLE ('',( #250 ) ) ;
#34 = VECTOR ( 'NONE', #110, 39.37007874015748143 ) ;
#35 =( GEOMETRIC_REPRESENTATION_CONTEXT ( 3 ) GLOBAL_UNCERTAINTY_ASSIGNED_CONTEXT ( ( #200 ) ) GLOBAL_UNIT_ASSIGNED_CONTEXT ( ( #212, #146, #199 ) ) REPRESENTATION_CONTEXT ( 'NONE', 'WORKASPACE' ) );
#36 = DIRECTION ( 'NONE',  ( 0.000000000000000000, -0.000000000000000000, 1.000000000000000000 ) ) ;
#37 = DIMENSIONAL_EXPONENTS ( 1.000000000000000000, 0.000000000000000000, 0.000000000000000000, 0.000000000000000000, 0.000000000000000000, 0.000000000000000000, 0.000000000000000000 ) ;
#38 = ORIENTED_EDGE ( 'NONE', *, *, #281, .F. ) ;
#39 = CARTESIAN_POINT ( 'NONE',  ( 0.1874999999999999445, 3.000000000000000444, 2.296212748401288342E-17 ) ) ;
#40 = ORIENTED_EDGE ( 'NONE', *, *, #26, .T. ) ;
#41 = AXIS2_PLACEMENT_3D ( 'NONE', #55, #127, #202 ) ;
#42 = DIRECTION ( 'NONE',  ( 0.000000000000000000, 0.000000000000000000, -1.000000000000000000 ) ) ;
#43 = AXIS2_PLACEMENT_3D ( 'NONE', #54, #282, #259 ) ;
#44 = CARTESIAN_POINT ( 'NONE',  ( 0.000000000000000000, 1.000000000000000000, 0.000000000000000000 ) ) ;
#45 =( NAMED_UNIT ( * ) SI_UNIT ( $, .STERADIAN. ) SOLID_ANGLE_UNIT ( ) );
#46 = ORIENTED_EDGE ( 'NONE', *, *, #194, .F. ) ;
#47 = CARTESIAN_POINT ( 'NONE',  ( -1.224646799147353700E-16, 3.000000000000000444, 0.000000000000000000 ) ) ;
#48 = MECHANICAL_DESIGN_GEOMETRIC_PRESENTATION_REPRESENTATION (  '', ( #69 ), #131 ) ;
#49 =( CONVERSION_BASED_UNIT ( 'INCH', #263 ) LENGTH_UNIT ( ) NAMED_UNIT ( #9 ) );
#50 = CARTESIAN_POINT ( 'NONE',  ( 3.032960542342103792E-32, 1.000000000000000000, 0.000000000000000000 ) ) ;
#51 = ORIENTED_EDGE ( 'NONE', *, *, #184, .F. ) ;
#52 = SURFACE_SIDE_STYLE ('',( #214 ) ) ;
#53 = ORIENTED_EDGE ( 'NONE', *, *, #26, .F. ) ;
#54 = CARTESIAN_POINT ( 'NONE',  ( -1.224646799147353700E-16, 3.000000000000000444, 0.000000000000000000 ) ) ;
#55 = CARTESIAN_POINT ( 'NONE',  ( 0.000000000000000000, 0.000000000000000000, 0.000000000000000000 ) ) ;
#56 =( GEOMETRIC_REPRESENTATION_CONTEXT ( 3 ) GLOBAL_UNCERTAINTY_ASSIGNED_CONTEXT ( ( #307 ) ) GLOBAL_UNIT_ASSIGNED_CONTEXT ( ( #276, #93, #45 ) ) REPRESENTATION_CONTEXT ( 'NONE', 'WORKASPACE' ) );
#57 = AXIS2_PLACEMENT_3D ( 'NONE', #59, #129, #207 ) ;
#58 = DIRECTION ( 'NONE',  ( -6.123233995736769734E-17, 1.000000000000000000, -0.000000000000000000 ) ) ;
#59 = CARTESIAN_POINT ( 'NONE',  ( 0.000000000000000000, 0.000000000000000000, 0.000000000000000000 ) ) ;
#60 = LINE ( 'NONE', #87, #155 ) ;
#61 = LENGTH_MEASURE_WITH_UNIT ( LENGTH_MEASURE( 0.02539999999999999897 ), #7 );
#62 = EDGE_CURVE ( 'NONE', #301, #149, #203, .T. ) ;
#63 = SURFACE_SIDE_STYLE ('',( #295 ) ) ;
#64 = AXIS2_PLACEMENT_3D ( 'NONE', #50, #309, #201 ) ;
#65 = CARTESIAN_POINT ( 'NONE',  ( -1.224646799147353700E-16, 3.000000000000000444, 0.000000000000000000 ) ) ;
#66 = ADVANCED_FACE ( 'NONE', ( #73 ), #166, .T. ) ;
#67 =( CONVERSION_BASED_UNIT ( 'INCH', #18 ) LENGTH_UNIT ( ) NAMED_UNIT ( #222 ) );
#68 = VERTEX_POINT ( 'NONE', #82 ) ;
#69 = STYLED_ITEM ( 'NONE', ( #31 ), #66 ) ;
#70 = SURFACE_STYLE_FILL_AREA ( #235 ) ;
#71 = ORIENTED_EDGE ( 'NONE', *, *, #237, .T. ) ;
#72 = FILL_AREA_STYLE_COLOUR ( '', #264 ) ;
#73 = FACE_OUTER_BOUND ( 'NONE', #98, .T. ) ;
#74 = STYLED_ITEM ( 'NONE', ( #243 ), #21 ) ;
#75 = DIRECTION ( 'NONE',  ( -1.000000000000000000, 0.000000000000000000, 0.000000000000000000 ) ) ;
#76 = ADVANCED_FACE ( 'NONE', ( #137 ), #267, .T. ) ;
#77 = CARTESIAN_POINT ( 'NONE',  ( 0.1875000000000000278, 1.000000000000000000, 2.296212748401288650E-17 ) ) ;
#78 = UNCERTAINTY_MEASURE_WITH_UNIT (LENGTH_MEASURE( 1.000000000000000082E-05 ), #49, 'distance_accuracy_value', 'NONE');
#79 = DIRECTION ( 'NONE',  ( -0.000000000000000000, -1.000000000000000000, -0.000000000000000000 ) ) ;
#80 = STYLED_ITEM ( 'NONE', ( #89 ), #224 ) ;
#81 = PRODUCT_DEFINITION ( 'UNKNOWN', '', #105, #226 ) ;
#82 = CARTESIAN_POINT ( 'NONE',  ( 2.296212748401287726E-17, 1.000000000000000000, 0.1875000000000000278 ) ) ;
#83 = APPLICATION_CONTEXT ( 'automotive_design' ) ;
#84 = SURFACE_STYLE_USAGE ( .BOTH. , #63 ) ;
#85 = CIRCLE ( 'NONE', #197, 0.1875000000000000278 ) ;
#86 = EDGE_CURVE ( 'NONE', #160, #149, #60, .T. ) ;
#87 = CARTESIAN_POINT ( 'NONE',  ( 0.000000000000000000, 0.000000000000000000, -0.1875000000000000278 ) ) ;
#88 = LINE ( 'NONE', #39, #283 ) ;
#89 = PRESENTATION_STYLE_ASSIGNMENT (( #113 ) ) ;
#90 = APPLICATION_CONTEXT ( 'automotive_design' ) ;
#91 = LENGTH_MEASURE_WITH_UNIT ( LENGTH_MEASURE( 0.02539999999999999897 ), #303 );
#92 = MECHANICAL_DESIGN_GEOMETRIC_PRESENTATION_REPRESENTATION (  '', ( #164 ), #174 ) ;
#93 =( NAMED_UNIT ( * ) PLANE_ANGLE_UNIT ( ) SI_UNIT ( $, .RADIAN. ) );
#94 = ORIENTED_EDGE ( 'NONE', *, *, #86, .T. ) ;
#95 = LENGTH_MEASURE_WITH_UNIT ( LENGTH_MEASURE( 0.02539999999999999897 ), #170 );
#96 = LINE ( 'NONE', #118, #112 ) ;
#97 = PRESENTATION_LAYER_ASSIGNMENT (  '', '', ( #69 ) ) ;
#98 = EDGE_LOOP ( 'NONE', ( #46, #213 ) ) ;
#99 =( NAMED_UNIT ( * ) SI_UNIT ( $, .STERADIAN. ) SOLID_ANGLE_UNIT ( ) );
#100 = FACE_OUTER_BOUND ( 'NONE', #231, .T. ) ;
#101 = CYLINDRICAL_SURFACE ( 'NONE', #277, 0.1875000000000000833 ) ;
#102 = FILL_AREA_STYLE_COLOUR ( '', #270 ) ;
#103 = FILL_AREA_STYLE_COLOUR ( '', #272 ) ;
#104 = AXIS2_PLACEMENT_3D ( 'NONE', #44, #189, #42 ) ;
#105 = PRODUCT_DEFINITION_FORMATION_WITH_SPECIFIED_SOURCE ( 'ANY', '', #120, .NOT_KNOWN. ) ;
#106 = PRODUCT_CONTEXT ( 'NONE', #90, 'mechanical' ) ;
#107 =( NAMED_UNIT ( * ) PLANE_ANGLE_UNIT ( ) SI_UNIT ( $, .RADIAN. ) );
#108 = PRODUCT_RELATED_PRODUCT_CATEGORY ( 'part', '', ( #120 ) ) ;
#109 = FILL_AREA_STYLE ('',( #134 ) ) ;
#110 = DIRECTION ( 'NONE',  ( -6.123233995736769734E-17, 1.000000000000000000, -0.000000000000000000 ) ) ;
#111 = AXIS2_PLACEMENT_3D ( 'NONE', #142, #230, #304 ) ;
#112 = VECTOR ( 'NONE', #306, 39.37007874015748143 ) ;
#113 = SURFACE_STYLE_USAGE ( .BOTH. , #278 ) ;
#114 = DIRECTION ( 'NONE',  ( -6.123233995736769734E-17, 1.000000000000000000, -0.000000000000000000 ) ) ;
#115 = CARTESIAN_POINT ( 'NONE',  ( 0.1875000000000000278, 3.000000000000000444, 2.296212748401288650E-17 ) ) ;
#116 = ORIENTED_EDGE ( 'NONE', *, *, #266, .F. ) ;
#117 = MANIFOLD_SOLID_BREP ( 'Revolve - Tool Body (Straight Shanked)', #257 ) ;
#118 = CARTESIAN_POINT ( 'NONE',  ( 2.296212748401287726E-17, 0.000000000000000000, 0.1875000000000000278 ) ) ;
#119 = DIRECTION ( 'NONE',  ( 0.000000000000000000, 0.000000000000000000, -1.000000000000000000 ) ) ;
#120 = PRODUCT ( '23160', '23160', '', ( #106 ) ) ;
#121 = UNCERTAINTY_MEASURE_WITH_UNIT (LENGTH_MEASURE( 1.000000000000000082E-05 ), #246, 'distance_accuracy_value', 'NONE');
#122 = EDGE_CURVE ( 'NONE', #165, #140, #274, .T. ) ;
#123 = DIRECTION ( 'NONE',  ( -6.123233995736769734E-17, 1.000000000000000000, 0.000000000000000000 ) ) ;
#124 = FILL_AREA_STYLE ('',( #72 ) ) ;
#125 = MECHANICAL_DESIGN_GEOMETRIC_PRESENTATION_REPRESENTATION (  '', ( #80 ), #56 ) ;
#126 = AXIS2_PLACEMENT_3D ( 'NONE', #65, #139, #75 ) ;
#127 = DIRECTION ( 'NONE',  ( 0.000000000000000000, -1.000000000000000000, -0.000000000000000000 ) ) ;
#128 =( LENGTH_UNIT ( ) NAMED_UNIT ( * ) SI_UNIT ( $, .METRE. ) );
#129 = DIRECTION ( 'NONE',  ( 0.000000000000000000, 0.000000000000000000, 1.000000000000000000 ) ) ;
#130 =( NAMED_UNIT ( * ) PLANE_ANGLE_UNIT ( ) SI_UNIT ( $, .RADIAN. ) );
#131 =( GEOMETRIC_REPRESENTATION_CONTEXT ( 3 ) GLOBAL_UNCERTAINTY_ASSIGNED_CONTEXT ( ( #290 ) ) GLOBAL_UNIT_ASSIGNED_CONTEXT ( ( #249, #130, #157 ) ) REPRESENTATION_CONTEXT ( 'NONE', 'WORKASPACE' ) );
#132 = DIMENSIONAL_EXPONENTS ( 1.000000000000000000, 0.000000000000000000, 0.000000000000000000, 0.000000000000000000, 0.000000000000000000, 0.000000000000000000, 0.000000000000000000 ) ;
#133 = SURFACE_STYLE_FILL_AREA ( #183 ) ;
#134 = FILL_AREA_STYLE_COLOUR ( '', #238 ) ;
#135 = SURFACE_STYLE_USAGE ( .BOTH. , #33 ) ;
#136 = PRESENTATION_LAYER_ASSIGNMENT (  '', '', ( #216 ) ) ;
#137 = FACE_OUTER_BOUND ( 'NONE', #287, .T. ) ;
#138 = ORIENTED_EDGE ( 'NONE', *, *, #122, .T. ) ;
#139 = DIRECTION ( 'NONE',  ( -6.123233995736769734E-17, 1.000000000000000000, -0.000000000000000000 ) ) ;
#140 = VERTEX_POINT ( 'NONE', #294 ) ;
#141 = AXIS2_PLACEMENT_3D ( 'NONE', #179, #223, #36 ) ;
#142 = CARTESIAN_POINT ( 'NONE',  ( 0.1875000000000000278, 3.000000000000000444, 0.000000000000000000 ) ) ;
#143 = EDGE_CURVE ( 'NONE', #20, #165, #211, .T. ) ;
#144 = CARTESIAN_POINT ( 'NONE',  ( -0.1875000000000002220, 3.000000000000000444, 0.000000000000000000 ) ) ;
#145 =( LENGTH_UNIT ( ) NAMED_UNIT ( * ) SI_UNIT ( $, .METRE. ) );
#146 =( NAMED_UNIT ( * ) PLANE_ANGLE_UNIT ( ) SI_UNIT ( $, .RADIAN. ) );
#147 = FILL_AREA_STYLE_COLOUR ( '', #11 ) ;
#148 = FACE_OUTER_BOUND ( 'NONE', #220, .T. ) ;
#149 = VERTEX_POINT ( 'NONE', #302 ) ;
#150 = FILL_AREA_STYLE ('',( #102 ) ) ;
#151 = PRESENTATION_LAYER_ASSIGNMENT (  '', '', ( #164 ) ) ;
#152 = DIRECTION ( 'NONE',  ( 0.000000000000000000, 0.000000000000000000, -1.000000000000000000 ) ) ;
#153 = PRODUCT_DEFINITION_SHAPE ( 'NONE', 'NONE',  #81 ) ;
#154 = LENGTH_MEASURE_WITH_UNIT ( LENGTH_MEASURE( 0.02539999999999999897 ), #204 );
#155 = VECTOR ( 'NONE', #205, 39.37007874015748143 ) ;
#156 = AXIS2_PLACEMENT_3D ( 'NONE', #2, #255, #119 ) ;
#157 =( NAMED_UNIT ( * ) SI_UNIT ( $, .STERADIAN. ) SOLID_ANGLE_UNIT ( ) );
#158 = MECHANICAL_DESIGN_GEOMETRIC_PRESENTATION_REPRESENTATION (  '', ( #74 ), #180 ) ;
#159 =( NAMED_UNIT ( * ) SI_UNIT ( $, .STERADIAN. ) SOLID_ANGLE_UNIT ( ) );
#160 = VERTEX_POINT ( 'NONE', #188 ) ;
#161 = EDGE_LOOP ( 'NONE', ( #1, #71 ) ) ;
#162 = EDGE_LOOP ( 'NONE', ( #210, #169, #171, #275 ) ) ;
#163 = EDGE_CURVE ( 'NONE', #68, #160, #30, .T. ) ;
#164 = STYLED_ITEM ( 'NONE', ( #8 ), #76 ) ;
#165 = VERTEX_POINT ( 'NONE', #298 ) ;
#166 = PLANE ( 'NONE',  #141 ) ;
#167 = AXIS2_PLACEMENT_3D ( 'NONE', #208, #114, #236 ) ;
#168 = DIRECTION ( 'NONE',  ( -1.000000000000000000, 0.000000000000000000, 0.000000000000000000 ) ) ;
#169 = ORIENTED_EDGE ( 'NONE', *, *, #184, .T. ) ;
#170 =( LENGTH_UNIT ( ) NAMED_UNIT ( * ) SI_UNIT ( $, .METRE. ) );
#171 = ORIENTED_EDGE ( 'NONE', *, *, #241, .F. ) ;
#172 = SURFACE_STYLE_USAGE ( .BOTH. , #308 ) ;
#173 = PRESENTATION_STYLE_ASSIGNMENT (( #195 ) ) ;
#174 =( GEOMETRIC_REPRESENTATION_CONTEXT ( 3 ) GLOBAL_UNCERTAINTY_ASSIGNED_CONTEXT ( ( #121 ) ) GLOBAL_UNIT_ASSIGNED_CONTEXT ( ( #246, #107, #10 ) ) REPRESENTATION_CONTEXT ( 'NONE', 'WORKASPACE' ) );
#175 = ORIENTED_EDGE ( 'NONE', *, *, #143, .T. ) ;
#176 = ADVANCED_BREP_SHAPE_REPRESENTATION ( '23160', ( #224, #117, #57 ), #258 ) ;
#177 = ADVANCED_FACE ( 'NONE', ( #14 ), #252, .F. ) ;
#178 = DIRECTION ( 'NONE',  ( -0.000000000000000000, -1.000000000000000000, -0.000000000000000000 ) ) ;
#179 = CARTESIAN_POINT ( 'NONE',  ( 0.000000000000000000, 1.000000000000000000, 0.000000000000000000 ) ) ;
#180 =( GEOMETRIC_REPRESENTATION_CONTEXT ( 3 ) GLOBAL_UNCERTAINTY_ASSIGNED_CONTEXT ( ( #78 ) ) GLOBAL_UNIT_ASSIGNED_CONTEXT ( ( #49, #285, #196 ) ) REPRESENTATION_CONTEXT ( 'NONE', 'WORKASPACE' ) );
#181 =( GEOMETRIC_REPRESENTATION_CONTEXT ( 3 ) GLOBAL_UNCERTAINTY_ASSIGNED_CONTEXT ( ( #32 ) ) GLOBAL_UNIT_ASSIGNED_CONTEXT ( ( #67, #251, #159 ) ) REPRESENTATION_CONTEXT ( 'NONE', 'WORKASPACE' ) );
#182 = SHAPE_DEFINITION_REPRESENTATION ( #153, #176 ) ;
#183 = FILL_AREA_STYLE ('',( #103 ) ) ;
#184 = EDGE_CURVE ( 'NONE', #20, #191, #88, .T. ) ;
#185 = FACE_OUTER_BOUND ( 'NONE', #162, .T. ) ;
#186 = AXIS2_PLACEMENT_3D ( 'NONE', #245, #221, #4 ) ;
#187 = DIRECTION ( 'NONE',  ( -0.000000000000000000, -1.000000000000000000, -0.000000000000000000 ) ) ;
#188 = CARTESIAN_POINT ( 'NONE',  ( 0.000000000000000000, 1.000000000000000000, -0.1875000000000000278 ) ) ;
#189 = DIRECTION ( 'NONE',  ( -0.000000000000000000, -1.000000000000000000, -0.000000000000000000 ) ) ;
#190 = CARTESIAN_POINT ( 'NONE',  ( 0.000000000000000000, 1.000000000000000000, 0.000000000000000000 ) ) ;
#191 = VERTEX_POINT ( 'NONE', #115 ) ;
#192 =( NAMED_UNIT ( * ) PLANE_ANGLE_UNIT ( ) SI_UNIT ( $, .RADIAN. ) );
#193 = EDGE_LOOP ( 'NONE', ( #40, #28 ) ) ;
#194 = EDGE_CURVE ( 'NONE', #160, #68, #85, .T. ) ;
#195 = SURFACE_STYLE_USAGE ( .BOTH. , #52 ) ;
#196 =( NAMED_UNIT ( * ) SI_UNIT ( $, .STERADIAN. ) SOLID_ANGLE_UNIT ( ) );
#197 = AXIS2_PLACEMENT_3D ( 'NONE', #190, #187, #15 ) ;
#198 = FACE_OUTER_BOUND ( 'NONE', #218, .T. ) ;
#199 =( NAMED_UNIT ( * ) SI_UNIT ( $, .STERADIAN. ) SOLID_ANGLE_UNIT ( ) );
#200 = UNCERTAINTY_MEASURE_WITH_UNIT (LENGTH_MEASURE( 1.000000000000000082E-05 ), #212, 'distance_accuracy_value', 'NONE');
#201 = DIRECTION ( 'NONE',  ( -1.000000000000000000, 0.000000000000000000, 0.000000000000000000 ) ) ;
#202 = DIRECTION ( 'NONE',  ( 0.000000000000000000, 0.000000000000000000, -1.000000000000000000 ) ) ;
#203 = CIRCLE ( 'NONE', #186, 0.1875000000000000278 ) ;
#204 =( LENGTH_UNIT ( ) NAMED_UNIT ( * ) SI_UNIT ( $, .METRE. ) );
#205 = DIRECTION ( 'NONE',  ( -0.000000000000000000, -1.000000000000000000, -0.000000000000000000 ) ) ;
#206 = AXIS2_PLACEMENT_3D ( 'NONE', #289, #79, #152 ) ;
#207 = DIRECTION ( 'NONE',  ( 1.000000000000000000, 0.000000000000000000, 0.000000000000000000 ) ) ;
#208 = CARTESIAN_POINT ( 'NONE',  ( 3.032960542342103792E-32, 1.000000000000000000, 0.000000000000000000 ) ) ;
#209 = FILL_AREA_STYLE_COLOUR ( '', #253 ) ;
#210 = ORIENTED_EDGE ( 'NONE', *, *, #266, .T. ) ;
#211 = CIRCLE ( 'NONE', #167, 0.1875000000000000278 ) ;
#212 =( CONVERSION_BASED_UNIT ( 'INCH', #22 ) LENGTH_UNIT ( ) NAMED_UNIT ( #29 ) );
#213 = ORIENTED_EDGE ( 'NONE', *, *, #163, .F. ) ;
#214 = SURFACE_STYLE_FILL_AREA ( #124 ) ;
#215 = DIRECTION ( 'NONE',  ( -1.000000000000000000, -6.123233995736769734E-17, 0.000000000000000000 ) ) ;
#216 = STYLED_ITEM ( 'NONE', ( #173 ), #273 ) ;
#217 = CIRCLE ( 'NONE', #248, 0.1875000000000001388 ) ;
#218 = EDGE_LOOP ( 'NONE', ( #51, #175, #138, #280 ) ) ;
#219 =( LENGTH_UNIT ( ) NAMED_UNIT ( * ) SI_UNIT ( $, .METRE. ) );
#220 = EDGE_LOOP ( 'NONE', ( #38, #239, #94, #240 ) ) ;
#221 = DIRECTION ( 'NONE',  ( -0.000000000000000000, -1.000000000000000000, -0.000000000000000000 ) ) ;
#222 = DIMENSIONAL_EXPONENTS ( 1.000000000000000000, 0.000000000000000000, 0.000000000000000000, 0.000000000000000000, 0.000000000000000000, 0.000000000000000000, 0.000000000000000000 ) ;
#223 = DIRECTION ( 'NONE',  ( 0.000000000000000000, 1.000000000000000000, 0.000000000000000000 ) ) ;
#224 = MANIFOLD_SOLID_BREP ( 'Revolve - Cutting Edge', #291 ) ;
#225 = SURFACE_SIDE_STYLE ('',( #133 ) ) ;
#226 = PRODUCT_DEFINITION_CONTEXT ( 'detailed design', #83, 'design' ) ;
#227 = ADVANCED_FACE ( 'NONE', ( #185 ), #271, .T. ) ;
#228 = PRESENTATION_LAYER_ASSIGNMENT (  '', '', ( #74 ) ) ;
#229 = CARTESIAN_POINT ( 'NONE',  ( 0.000000000000000000, 0.000000000000000000, 0.000000000000000000 ) ) ;
#230 = DIRECTION ( 'NONE',  ( 6.123233995736769734E-17, -1.000000000000000000, 0.000000000000000000 ) ) ;
#231 = EDGE_LOOP ( 'NONE', ( #116, #256 ) ) ;
#232 = ADVANCED_FACE ( 'NONE', ( #198 ), #101, .T. ) ;
#233 = DIRECTION ( 'NONE',  ( -6.123233995736769734E-17, 1.000000000000000000, -0.000000000000000000 ) ) ;
#234 = CIRCLE ( 'NONE', #206, 0.1875000000000000278 ) ;
#235 = FILL_AREA_STYLE ('',( #209 ) ) ;
#236 = DIRECTION ( 'NONE',  ( -1.000000000000000000, 0.000000000000000000, 0.000000000000000000 ) ) ;
#237 = EDGE_CURVE ( 'NONE', #191, #140, #217, .T. ) ;
#238 = COLOUR_RGB ( '',0.7921568627450980005, 0.8196078431372548767, 0.9333333333333333481 ) ;
#239 = ORIENTED_EDGE ( 'NONE', *, *, #163, .T. ) ;
#240 = ORIENTED_EDGE ( 'NONE', *, *, #62, .F. ) ;
#241 = EDGE_CURVE ( 'NONE', #140, #191, #300, .T. ) ;
#242 =( CONVERSION_BASED_UNIT ( 'INCH', #95 ) LENGTH_UNIT ( ) NAMED_UNIT ( #296 ) );
#243 = PRESENTATION_STYLE_ASSIGNMENT (( #172 ) ) ;
#244 = MECHANICAL_DESIGN_GEOMETRIC_PRESENTATION_REPRESENTATION (  '', ( #16 ), #181 ) ;
#245 = CARTESIAN_POINT ( 'NONE',  ( 0.000000000000000000, 0.000000000000000000, 0.000000000000000000 ) ) ;
#246 =( CONVERSION_BASED_UNIT ( 'INCH', #61 ) LENGTH_UNIT ( ) NAMED_UNIT ( #132 ) );
#247 = AXIS2_PLACEMENT_3D ( 'NONE', #229, #178, #293 ) ;
#248 = AXIS2_PLACEMENT_3D ( 'NONE', #261, #288, #168 ) ;
#249 =( CONVERSION_BASED_UNIT ( 'INCH', #154 ) LENGTH_UNIT ( ) NAMED_UNIT ( #6 ) );
#250 = SURFACE_STYLE_FILL_AREA ( #109 ) ;
#251 =( NAMED_UNIT ( * ) PLANE_ANGLE_UNIT ( ) SI_UNIT ( $, .RADIAN. ) );
#252 = PLANE ( 'NONE',  #111 ) ;
#253 = COLOUR_RGB ( '',0.7921568627450980005, 0.8196078431372548767, 0.9333333333333333481 ) ;
#254 = ORIENTED_EDGE ( 'NONE', *, *, #281, .T. ) ;
#255 = DIRECTION ( 'NONE',  ( -0.000000000000000000, -1.000000000000000000, -0.000000000000000000 ) ) ;
#256 = ORIENTED_EDGE ( 'NONE', *, *, #143, .F. ) ;
#257 = CLOSED_SHELL ( 'NONE', ( #227, #17, #232, #177 ) ) ;
#258 =( GEOMETRIC_REPRESENTATION_CONTEXT ( 3 ) GLOBAL_UNCERTAINTY_ASSIGNED_CONTEXT ( ( #286 ) ) GLOBAL_UNIT_ASSIGNED_CONTEXT ( ( #242, #192, #99 ) ) REPRESENTATION_CONTEXT ( 'NONE', 'WORKASPACE' ) );
#259 = DIRECTION ( 'NONE',  ( -1.000000000000000000, 0.000000000000000000, 0.000000000000000000 ) ) ;
#260 = ORIENTED_EDGE ( 'NONE', *, *, #194, .T. ) ;
#261 = CARTESIAN_POINT ( 'NONE',  ( -1.224646799147353700E-16, 3.000000000000000444, 0.000000000000000000 ) ) ;
#262 = PLANE ( 'NONE',  #25 ) ;
#263 = LENGTH_MEASURE_WITH_UNIT ( LENGTH_MEASURE( 0.02539999999999999897 ), #128 );
#264 = COLOUR_RGB ( '',1.000000000000000000, 0.000000000000000000, 0.000000000000000000 ) ;
#265 = ORIENTED_EDGE ( 'NONE', *, *, #86, .F. ) ;
#266 = EDGE_CURVE ( 'NONE', #165, #20, #305, .T. ) ;
#267 = CYLINDRICAL_SURFACE ( 'NONE', #247, 0.1875000000000000278 ) ;
#268 = SURFACE_STYLE_USAGE ( .BOTH. , #225 ) ;
#269 = APPLICATION_PROTOCOL_DEFINITION ( 'draft international standard', 'automotive_design', 1998, #83 ) ;
#270 = COLOUR_RGB ( '',1.000000000000000000, 0.000000000000000000, 0.000000000000000000 ) ;
#271 = CYLINDRICAL_SURFACE ( 'NONE', #126, 0.1875000000000000833 ) ;
#272 = COLOUR_RGB ( '',1.000000000000000000, 0.000000000000000000, 0.000000000000000000 ) ;
#273 = ADVANCED_FACE ( 'NONE', ( #148 ), #19, .T. ) ;
#274 = LINE ( 'NONE', #144, #34 ) ;
#275 = ORIENTED_EDGE ( 'NONE', *, *, #122, .F. ) ;
#276 =( CONVERSION_BASED_UNIT ( 'INCH', #91 ) LENGTH_UNIT ( ) NAMED_UNIT ( #37 ) );
#277 = AXIS2_PLACEMENT_3D ( 'NONE', #47, #58, #279 ) ;
#278 = SURFACE_SIDE_STYLE ('',( #70 ) ) ;
#279 = DIRECTION ( 'NONE',  ( -1.000000000000000000, 0.000000000000000000, 0.000000000000000000 ) ) ;
#280 = ORIENTED_EDGE ( 'NONE', *, *, #237, .F. ) ;
#281 = EDGE_CURVE ( 'NONE', #68, #301, #96, .T. ) ;
#282 = DIRECTION ( 'NONE',  ( -6.123233995736769734E-17, 1.000000000000000000, -0.000000000000000000 ) ) ;
#283 = VECTOR ( 'NONE', #233, 39.37007874015748143 ) ;
#284 = CARTESIAN_POINT ( 'NONE',  ( 2.296212748401287726E-17, 0.000000000000000000, 0.1875000000000000278 ) ) ;
#285 =( NAMED_UNIT ( * ) PLANE_ANGLE_UNIT ( ) SI_UNIT ( $, .RADIAN. ) );
#286 = UNCERTAINTY_MEASURE_WITH_UNIT (LENGTH_MEASURE( 1.000000000000000082E-05 ), #242, 'distance_accuracy_value', 'NONE');
#287 = EDGE_LOOP ( 'NONE', ( #260, #254, #53, #265 ) ) ;
#288 = DIRECTION ( 'NONE',  ( -6.123233995736769734E-17, 1.000000000000000000, -0.000000000000000000 ) ) ;
#289 = CARTESIAN_POINT ( 'NONE',  ( 0.000000000000000000, 0.000000000000000000, 0.000000000000000000 ) ) ;
#290 = UNCERTAINTY_MEASURE_WITH_UNIT (LENGTH_MEASURE( 1.000000000000000082E-05 ), #249, 'distance_accuracy_value', 'NONE');
#291 = CLOSED_SHELL ( 'NONE', ( #76, #66, #273, #21 ) ) ;
#292 = APPLICATION_PROTOCOL_DEFINITION ( 'draft international standard', 'automotive_design', 1998, #90 ) ;
#293 = DIRECTION ( 'NONE',  ( 0.000000000000000000, 0.000000000000000000, -1.000000000000000000 ) ) ;
#294 = CARTESIAN_POINT ( 'NONE',  ( -0.1875000000000002776, 3.000000000000000444, 0.000000000000000000 ) ) ;
#295 = SURFACE_STYLE_FILL_AREA ( #297 ) ;
#296 = DIMENSIONAL_EXPONENTS ( 1.000000000000000000, 0.000000000000000000, 0.000000000000000000, 0.000000000000000000, 0.000000000000000000, 0.000000000000000000, 0.000000000000000000 ) ;
#297 = FILL_AREA_STYLE ('',( #147 ) ) ;
#298 = CARTESIAN_POINT ( 'NONE',  ( -0.1875000000000000278, 1.000000000000000000, 0.000000000000000000 ) ) ;
#299 = PRESENTATION_LAYER_ASSIGNMENT (  '', '', ( #16 ) ) ;
#300 = CIRCLE ( 'NONE', #43, 0.1875000000000001388 ) ;
#301 = VERTEX_POINT ( 'NONE', #284 ) ;
#302 = CARTESIAN_POINT ( 'NONE',  ( 0.000000000000000000, 0.000000000000000000, -0.1875000000000000278 ) ) ;
#303 =( LENGTH_UNIT ( ) NAMED_UNIT ( * ) SI_UNIT ( $, .METRE. ) );
#304 = DIRECTION ( 'NONE',  ( 1.000000000000000000, 6.123233995736769734E-17, 0.000000000000000000 ) ) ;
#305 = CIRCLE ( 'NONE', #64, 0.1875000000000000278 ) ;
#306 = DIRECTION ( 'NONE',  ( -0.000000000000000000, -1.000000000000000000, -0.000000000000000000 ) ) ;
#307 = UNCERTAINTY_MEASURE_WITH_UNIT (LENGTH_MEASURE( 1.000000000000000082E-05 ), #276, 'distance_accuracy_value', 'NONE');
#308 = SURFACE_SIDE_STYLE ('',( #24 ) ) ;
#309 = DIRECTION ( 'NONE',  ( -6.123233995736769734E-17, 1.000000000000000000, -0.000000000000000000 ) ) ;
ENDSEC;
END-ISO-10303-21;
