ISO-10303-21;
HEADER;
FILE_DESCRIPTION (( 'STEP AP214' ),
    '1' );
FILE_NAME ('Micro_EMS-156-4X.STEP',
    '2021-09-01T17:45:12',
    ( '' ),
    ( '' ),
    'SwSTEP 2.0',
    'SolidWorks 2020',
    '' );
FILE_SCHEMA (( 'AUTOMOTIVE_DESIGN' ));
ENDSEC;

DATA;
#1 = DIRECTION ( 'NONE',  ( -0.0000000000000000000, -0.0000000000000000000, -1.000000000000000000 ) ) ;
#2 = DIRECTION ( 'NONE',  ( 1.000000000000000000, 0.0000000000000000000, -0.0000000000000000000 ) ) ;
#3 = FACE_OUTER_BOUND ( 'NONE', #19, .T. ) ;
#4 = EDGE_CURVE ( 'NONE', #39, #43, #133, .T. ) ;
#5 = AXIS2_PLACEMENT_3D ( 'NONE', #47, #30, #258 ) ;
#6 = ADVANCED_FACE ( 'NONE', ( #81 ), #111, .T. ) ;
#7 = SURFACE_STYLE_USAGE ( .BOTH. , #241 ) ;
#8 = FILL_AREA_STYLE_COLOUR ( '', #267 ) ;
#9 = PRESENTATION_LAYER_ASSIGNMENT (  '', '', ( #255 ) ) ;
#10 = UNCERTAINTY_MEASURE_WITH_UNIT (LENGTH_MEASURE( 1.000000000000000082E-05 ), #35, 'distance_accuracy_value', 'NONE');
#11 = ORIENTED_EDGE ( 'NONE', *, *, #4, .F. ) ;
#12 = CARTESIAN_POINT ( 'NONE',  ( 0.09375000000000009714, 1.148106374200644787E-17, 0.6521984875871288390 ) ) ;
#13 = CIRCLE ( 'NONE', #155, 0.09375000000000001388 ) ;
#14 = DIRECTION ( 'NONE',  ( 0.0000000000000000000, 0.0000000000000000000, -1.000000000000000000 ) ) ;
#15 = ORIENTED_EDGE ( 'NONE', *, *, #251, .T. ) ;
#16 = ORIENTED_EDGE ( 'NONE', *, *, #162, .T. ) ;
#17 = DIRECTION ( 'NONE',  ( 1.000000000000000000, 0.0000000000000000000, 0.0000000000000000000 ) ) ;
#18 = APPLICATION_CONTEXT ( 'automotive_design' ) ;
#19 = EDGE_LOOP ( 'NONE', ( #296, #15 ) ) ;
#20 = DIRECTION ( 'NONE',  ( -1.000000000000000000, 0.0000000000000000000, 0.0000000000000000000 ) ) ;
#21 = PRODUCT ( 'Micro_EMS-156-4X', 'Micro_EMS-156-4X', '', ( #266 ) ) ;
#22 =( GEOMETRIC_REPRESENTATION_CONTEXT ( 3 ) GLOBAL_UNCERTAINTY_ASSIGNED_CONTEXT ( ( #136 ) ) GLOBAL_UNIT_ASSIGNED_CONTEXT ( ( #177, #36, #54 ) ) REPRESENTATION_CONTEXT ( 'NONE', 'WORKASPACE' ) );
#23 =( GEOMETRIC_REPRESENTATION_CONTEXT ( 3 ) GLOBAL_UNCERTAINTY_ASSIGNED_CONTEXT ( ( #10 ) ) GLOBAL_UNIT_ASSIGNED_CONTEXT ( ( #35, #134, #158 ) ) REPRESENTATION_CONTEXT ( 'NONE', 'WORKASPACE' ) );
#24 = LINE ( 'NONE', #140, #127 ) ;
#25 = DIRECTION ( 'NONE',  ( 0.1736481776669313026, 0.0000000000000000000, 0.9848077530122077983 ) ) ;
#26 = DIRECTION ( 'NONE',  ( 1.000000000000000000, 0.0000000000000000000, 0.0000000000000000000 ) ) ;
#27 = APPLICATION_CONTEXT ( 'automotive_design' ) ;
#28 = CONICAL_SURFACE ( 'NONE', #148, 0.07874999999999980627, 0.7853981633974466137 ) ;
#29 = PRESENTATION_LAYER_ASSIGNMENT (  '', '', ( #240 ) ) ;
#30 = DIRECTION ( 'NONE',  ( -1.224646799147353207E-16, -0.0000000000000000000, -1.000000000000000000 ) ) ;
#31 = PRESENTATION_STYLE_ASSIGNMENT (( #52 ) ) ;
#32 = CARTESIAN_POINT ( 'NONE',  ( 0.0000000000000000000, 0.0000000000000000000, 2.000000000000000000 ) ) ;
#33 = APPLICATION_PROTOCOL_DEFINITION ( 'draft international standard', 'automotive_design', 1998, #27 ) ;
#34 = ORIENTED_EDGE ( 'NONE', *, *, #104, .T. ) ;
#35 =( CONVERSION_BASED_UNIT ( 'INCH', #175 ) LENGTH_UNIT ( ) NAMED_UNIT ( #128 ) );
#36 =( NAMED_UNIT ( * ) PLANE_ANGLE_UNIT ( ) SI_UNIT ( $, .RADIAN. ) );
#37 = VECTOR ( 'NONE', #25, 39.37007874015748143 ) ;
#38 = VERTEX_POINT ( 'NONE', #164 ) ;
#39 = VERTEX_POINT ( 'NONE', #187 ) ;
#40 = EDGE_CURVE ( 'NONE', #64, #117, #121, .T. ) ;
#41 = DIRECTION ( 'NONE',  ( -1.224646799147353207E-16, -0.0000000000000000000, -1.000000000000000000 ) ) ;
#42 = CIRCLE ( 'NONE', #260, 0.07802190000000000514 ) ;
#43 = VERTEX_POINT ( 'NONE', #12 ) ;
#44 = DIRECTION ( 'NONE',  ( 1.224646799147353207E-16, 0.0000000000000000000, 1.000000000000000000 ) ) ;
#45 = CARTESIAN_POINT ( 'NONE',  ( 0.07874999999999980627, 9.644093543285380530E-18, 2.000000000000000000 ) ) ;
#46 = UNCERTAINTY_MEASURE_WITH_UNIT (LENGTH_MEASURE( 1.000000000000000082E-05 ), #101, 'distance_accuracy_value', 'NONE');
#47 = CARTESIAN_POINT ( 'NONE',  ( 7.987127902323220081E-17, 0.0000000000000000000, 0.6521984875871288390 ) ) ;
#48 = DIRECTION ( 'NONE',  ( -1.224646799147353207E-16, -0.0000000000000000000, -1.000000000000000000 ) ) ;
#49 = PLANE ( 'NONE',  #135 ) ;
#50 = SURFACE_SIDE_STYLE ('',( #170 ) ) ;
#51 = ORIENTED_EDGE ( 'NONE', *, *, #268, .T. ) ;
#52 = SURFACE_STYLE_USAGE ( .BOTH. , #50 ) ;
#53 = FILL_AREA_STYLE ('',( #212 ) ) ;
#54 =( NAMED_UNIT ( * ) SI_UNIT ( $, .STERADIAN. ) SOLID_ANGLE_UNIT ( ) );
#55 = EDGE_CURVE ( 'NONE', #285, #298, #220, .T. ) ;
#56 = AXIS2_PLACEMENT_3D ( 'NONE', #248, #41, #276 ) ;
#57 = ADVANCED_FACE ( 'NONE', ( #142 ), #97, .T. ) ;
#58 = ORIENTED_EDGE ( 'NONE', *, *, #55, .F. ) ;
#59 = ORIENTED_EDGE ( 'NONE', *, *, #257, .T. ) ;
#60 = LINE ( 'NONE', #297, #188 ) ;
#61 = VERTEX_POINT ( 'NONE', #141 ) ;
#62 = DIRECTION ( 'NONE',  ( -1.000000000000000000, 0.0000000000000000000, 0.0000000000000000000 ) ) ;
#63 = AXIS2_PLACEMENT_3D ( 'NONE', #173, #146, #238 ) ;
#64 = VERTEX_POINT ( 'NONE', #120 ) ;
#65 = DIRECTION ( 'NONE',  ( -1.000000000000000000, 0.0000000000000000000, 1.224646799147353207E-16 ) ) ;
#66 = ADVANCED_FACE ( 'NONE', ( #294 ), #168, .T. ) ;
#67 = FACE_OUTER_BOUND ( 'NONE', #221, .T. ) ;
#68 = DIRECTION ( 'NONE',  ( 0.0000000000000000000, 0.0000000000000000000, -1.000000000000000000 ) ) ;
#69 = CONICAL_SURFACE ( 'NONE', #217, 0.07874999999999980627, 0.7853981633974466137 ) ;
#70 = CARTESIAN_POINT ( 'NONE',  ( 0.0000000000000000000, 0.0000000000000000000, 2.000000000000000000 ) ) ;
#71 = EDGE_CURVE ( 'NONE', #159, #43, #13, .T. ) ;
#72 = CARTESIAN_POINT ( 'NONE',  ( 0.0000000000000000000, 0.0000000000000000000, 2.000000000000000000 ) ) ;
#73 = DIRECTION ( 'NONE',  ( 0.0000000000000000000, 0.0000000000000000000, -1.000000000000000000 ) ) ;
#74 = CIRCLE ( 'NONE', #281, 0.09375000000000001388 ) ;
#75 = VECTOR ( 'NONE', #245, 39.37007874015748143 ) ;
#76 = LENGTH_MEASURE_WITH_UNIT ( LENGTH_MEASURE( 0.02539999999999999897 ), #147 );
#77 = CIRCLE ( 'NONE', #163, 0.07802190000000000514 ) ;
#78 = PRODUCT_DEFINITION_CONTEXT ( 'detailed design', #18, 'design' ) ;
#79 = ORIENTED_EDGE ( 'NONE', *, *, #202, .F. ) ;
#80 = FILL_AREA_STYLE ('',( #8 ) ) ;
#81 = FACE_OUTER_BOUND ( 'NONE', #129, .T. ) ;
#82 = AXIS2_PLACEMENT_3D ( 'NONE', #72, #259, #237 ) ;
#83 = DIRECTION ( 'NONE',  ( -1.000000000000000000, 0.0000000000000000000, 1.224646799147353207E-16 ) ) ;
#84 = ORIENTED_EDGE ( 'NONE', *, *, #151, .F. ) ;
#85 = PRODUCT_DEFINITION ( 'UNKNOWN', '', #236, #78 ) ;
#86 = ORIENTED_EDGE ( 'NONE', *, *, #104, .F. ) ;
#87 = DIRECTION ( 'NONE',  ( -0.7071067811865463515, 0.0000000000000000000, -0.7071067811865486830 ) ) ;
#88 = FACE_OUTER_BOUND ( 'NONE', #244, .T. ) ;
#89 = CIRCLE ( 'NONE', #137, 0.07802190000000000514 ) ;
#90 = VERTEX_POINT ( 'NONE', #292 ) ;
#91 = ADVANCED_FACE ( 'NONE', ( #93 ), #69, .T. ) ;
#92 = EDGE_LOOP ( 'NONE', ( #11, #34, #96, #282 ) ) ;
#93 = FACE_OUTER_BOUND ( 'NONE', #247, .T. ) ;
#94 = CLOSED_SHELL ( 'NONE', ( #6, #197, #280, #231, #66, #222, #91, #57, #99, #215 ) ) ;
#95 = LINE ( 'NONE', #252, #176 ) ;
#96 = ORIENTED_EDGE ( 'NONE', *, *, #151, .T. ) ;
#97 = CONICAL_SURFACE ( 'NONE', #249, 0.07802190000000000514, 0.1745329251994338082 ) ;
#98 = DIRECTION ( 'NONE',  ( 1.000000000000000000, 0.0000000000000000000, -0.0000000000000000000 ) ) ;
#99 = ADVANCED_FACE ( 'NONE', ( #67 ), #250, .T. ) ;
#100 =( NAMED_UNIT ( * ) SI_UNIT ( $, .STERADIAN. ) SOLID_ANGLE_UNIT ( ) );
#101 =( CONVERSION_BASED_UNIT ( 'INCH', #76 ) LENGTH_UNIT ( ) NAMED_UNIT ( #154 ) );
#102 = VECTOR ( 'NONE', #87, 39.37007874015748143 ) ;
#103 = SHAPE_DEFINITION_REPRESENTATION ( #223, #225 ) ;
#104 = EDGE_CURVE ( 'NONE', #39, #90, #179, .T. ) ;
#105 = CARTESIAN_POINT ( 'NONE',  ( 0.0000000000000000000, 0.0000000000000000000, 0.0000000000000000000 ) ) ;
#106 = ORIENTED_EDGE ( 'NONE', *, *, #162, .F. ) ;
#107 = COLOUR_RGB ( '',0.7921568627450980005, 0.8196078431372548767, 0.9333333333333333481 ) ;
#108 = LENGTH_MEASURE_WITH_UNIT ( LENGTH_MEASURE( 0.02539999999999999897 ), #189 );
#109 = EDGE_CURVE ( 'NONE', #285, #61, #60, .T. ) ;
#110 = ORIENTED_EDGE ( 'NONE', *, *, #40, .F. ) ;
#111 = CYLINDRICAL_SURFACE ( 'NONE', #143, 0.07802190000000000514 ) ;
#112 = AXIS2_PLACEMENT_3D ( 'NONE', #114, #1, #273 ) ;
#113 = ORIENTED_EDGE ( 'NONE', *, *, #109, .T. ) ;
#114 = CARTESIAN_POINT ( 'NONE',  ( 0.0000000000000000000, 0.0000000000000000000, 2.000000000000000000 ) ) ;
#115 = ORIENTED_EDGE ( 'NONE', *, *, #257, .F. ) ;
#116 = DIRECTION ( 'NONE',  ( 1.000000000000000000, 0.0000000000000000000, 0.0000000000000000000 ) ) ;
#117 = VERTEX_POINT ( 'NONE', #160 ) ;
#118 = CARTESIAN_POINT ( 'NONE',  ( 0.0000000000000000000, 0.0000000000000000000, 2.000000000000000000 ) ) ;
#119 = ORIENTED_EDGE ( 'NONE', *, *, #124, .T. ) ;
#120 = CARTESIAN_POINT ( 'NONE',  ( -0.07874999999999980627, 0.0000000000000000000, 2.000000000000000000 ) ) ;
#121 = CIRCLE ( 'NONE', #277, 0.07874999999999980627 ) ;
#122 = ORIENTED_EDGE ( 'NONE', *, *, #109, .F. ) ;
#123 = CARTESIAN_POINT ( 'NONE',  ( 7.987127902323220081E-17, 0.0000000000000000000, 0.6521984875871288390 ) ) ;
#124 = EDGE_CURVE ( 'NONE', #298, #285, #89, .T. ) ;
#125 = CARTESIAN_POINT ( 'NONE',  ( -0.07802189999999993575, 1.051799537592296220E-17, 0.5629999999999999449 ) ) ;
#126 = CARTESIAN_POINT ( 'NONE',  ( -0.07802190000000000514, 0.0000000000000000000, 9.554927009839488851E-18 ) ) ;
#127 = VECTOR ( 'NONE', #167, 39.37007874015747433 ) ;
#128 = DIMENSIONAL_EXPONENTS ( 1.000000000000000000, 0.0000000000000000000, 0.0000000000000000000, 0.0000000000000000000, 0.0000000000000000000, 0.0000000000000000000, 0.0000000000000000000 ) ;
#129 = EDGE_LOOP ( 'NONE', ( #119, #113, #79, #293 ) ) ;
#130 = DIRECTION ( 'NONE',  ( -1.000000000000000000, 0.0000000000000000000, 1.224646799147353207E-16 ) ) ;
#131 = MECHANICAL_DESIGN_GEOMETRIC_PRESENTATION_REPRESENTATION (  '', ( #255 ), #172 ) ;
#132 = MECHANICAL_DESIGN_GEOMETRIC_PRESENTATION_REPRESENTATION (  '', ( #240 ), #23 ) ;
#133 = LINE ( 'NONE', #265, #75 ) ;
#134 =( NAMED_UNIT ( * ) PLANE_ANGLE_UNIT ( ) SI_UNIT ( $, .RADIAN. ) );
#135 = AXIS2_PLACEMENT_3D ( 'NONE', #70, #191, #2 ) ;
#136 = UNCERTAINTY_MEASURE_WITH_UNIT (LENGTH_MEASURE( 1.000000000000000082E-05 ), #177, 'distance_accuracy_value', 'NONE');
#137 = AXIS2_PLACEMENT_3D ( 'NONE', #269, #138, #20 ) ;
#138 = DIRECTION ( 'NONE',  ( -1.224646799147353207E-16, -0.0000000000000000000, -1.000000000000000000 ) ) ;
#139 = ORIENTED_EDGE ( 'NONE', *, *, #295, .F. ) ;
#140 = CARTESIAN_POINT ( 'NONE',  ( -0.07802189999999993575, 9.554927009839488851E-18, 0.5629999999999999449 ) ) ;
#141 = CARTESIAN_POINT ( 'NONE',  ( 0.07802190000000000514, 9.554927009839488851E-18, 0.0000000000000000000 ) ) ;
#142 = FACE_OUTER_BOUND ( 'NONE', #199, .T. ) ;
#143 = AXIS2_PLACEMENT_3D ( 'NONE', #149, #195, #198 ) ;
#144 = EDGE_CURVE ( 'NONE', #64, #90, #224, .T. ) ;
#145 = CARTESIAN_POINT ( 'NONE',  ( 0.0000000000000000000, 0.0000000000000000000, 2.000000000000000000 ) ) ;
#146 = DIRECTION ( 'NONE',  ( -0.0000000000000000000, -0.0000000000000000000, -1.000000000000000000 ) ) ;
#147 =( LENGTH_UNIT ( ) NAMED_UNIT ( * ) SI_UNIT ( $, .METRE. ) );
#148 = AXIS2_PLACEMENT_3D ( 'NONE', #32, #261, #216 ) ;
#149 = CARTESIAN_POINT ( 'NONE',  ( 0.0000000000000000000, 0.0000000000000000000, 0.0000000000000000000 ) ) ;
#150 = EDGE_LOOP ( 'NONE', ( #290, #16, #115, #201 ) ) ;
#151 = EDGE_CURVE ( 'NONE', #90, #159, #95, .T. ) ;
#152 = DIRECTION ( 'NONE',  ( -1.224646799147353207E-16, -0.0000000000000000000, -1.000000000000000000 ) ) ;
#153 = FACE_OUTER_BOUND ( 'NONE', #150, .T. ) ;
#154 = DIMENSIONAL_EXPONENTS ( 1.000000000000000000, 0.0000000000000000000, 0.0000000000000000000, 0.0000000000000000000, 0.0000000000000000000, 0.0000000000000000000, 0.0000000000000000000 ) ;
#155 = AXIS2_PLACEMENT_3D ( 'NONE', #123, #256, #203 ) ;
#156 = AXIS2_PLACEMENT_3D ( 'NONE', #105, #246, #180 ) ;
#157 = ORIENTED_EDGE ( 'NONE', *, *, #71, .T. ) ;
#158 =( NAMED_UNIT ( * ) SI_UNIT ( $, .STERADIAN. ) SOLID_ANGLE_UNIT ( ) );
#159 = VERTEX_POINT ( 'NONE', #271 ) ;
#160 = CARTESIAN_POINT ( 'NONE',  ( 0.07874999999999980627, 1.056257864264590573E-17, 2.000000000000000000 ) ) ;
#161 = EDGE_LOOP ( 'NONE', ( #243, #213 ) ) ;
#162 = EDGE_CURVE ( 'NONE', #117, #39, #228, .T. ) ;
#163 = AXIS2_PLACEMENT_3D ( 'NONE', #209, #214, #130 ) ;
#164 = CARTESIAN_POINT ( 'NONE',  ( -0.07802190000000000514, 0.0000000000000000000, 1.910985401967897770E-17 ) ) ;
#165 = CARTESIAN_POINT ( 'NONE',  ( 0.0000000000000000000, 0.0000000000000000000, 0.0000000000000000000 ) ) ;
#166 = EDGE_CURVE ( 'NONE', #298, #159, #24, .T. ) ;
#167 = DIRECTION ( 'NONE',  ( -0.1736481776669311083, 2.126576849575782084E-17, 0.9848077530122080203 ) ) ;
#168 = CYLINDRICAL_SURFACE ( 'NONE', #112, 0.09375000000000001388 ) ;
#169 = FACE_OUTER_BOUND ( 'NONE', #219, .T. ) ;
#170 = SURFACE_STYLE_FILL_AREA ( #53 ) ;
#171 = DIRECTION ( 'NONE',  ( 0.0000000000000000000, 0.0000000000000000000, 1.000000000000000000 ) ) ;
#172 =( GEOMETRIC_REPRESENTATION_CONTEXT ( 3 ) GLOBAL_UNCERTAINTY_ASSIGNED_CONTEXT ( ( #46 ) ) GLOBAL_UNIT_ASSIGNED_CONTEXT ( ( #101, #235, #100 ) ) REPRESENTATION_CONTEXT ( 'NONE', 'WORKASPACE' ) );
#173 = CARTESIAN_POINT ( 'NONE',  ( 0.0000000000000000000, 0.0000000000000000000, 2.000000000000000000 ) ) ;
#174 = CARTESIAN_POINT ( 'NONE',  ( 0.0000000000000000000, 0.0000000000000000000, 0.0000000000000000000 ) ) ;
#175 = LENGTH_MEASURE_WITH_UNIT ( LENGTH_MEASURE( 0.02539999999999999897 ), #194 );
#176 = VECTOR ( 'NONE', #183, 39.37007874015748143 ) ;
#177 =( CONVERSION_BASED_UNIT ( 'INCH', #108 ) LENGTH_UNIT ( ) NAMED_UNIT ( #190 ) );
#178 = ORIENTED_EDGE ( 'NONE', *, *, #251, .F. ) ;
#179 = CIRCLE ( 'NONE', #229, 0.09375000000000001388 ) ;
#180 = DIRECTION ( 'NONE',  ( 1.000000000000000000, 0.0000000000000000000, 0.0000000000000000000 ) ) ;
#181 = DIRECTION ( 'NONE',  ( -1.224646799147353207E-16, -0.0000000000000000000, -1.000000000000000000 ) ) ;
#182 = ORIENTED_EDGE ( 'NONE', *, *, #144, .T. ) ;
#183 = DIRECTION ( 'NONE',  ( -0.0000000000000000000, -0.0000000000000000000, -1.000000000000000000 ) ) ;
#184 = ORIENTED_EDGE ( 'NONE', *, *, #71, .F. ) ;
#185 = CARTESIAN_POINT ( 'NONE',  ( 1.170141077868652023E-33, 0.0000000000000000000, 9.554927009839488851E-18 ) ) ;
#186 = CARTESIAN_POINT ( 'NONE',  ( 0.0000000000000000000, 0.0000000000000000000, 1.984999999999999654 ) ) ;
#187 = CARTESIAN_POINT ( 'NONE',  ( 0.09375000000000001388, 1.148106374200643863E-17, 1.984999999999999654 ) ) ;
#188 = VECTOR ( 'NONE', #181, 39.37007874015748143 ) ;
#189 =( LENGTH_UNIT ( ) NAMED_UNIT ( * ) SI_UNIT ( $, .METRE. ) );
#190 = DIMENSIONAL_EXPONENTS ( 1.000000000000000000, 0.0000000000000000000, 0.0000000000000000000, 0.0000000000000000000, 0.0000000000000000000, 0.0000000000000000000, 0.0000000000000000000 ) ;
#191 = DIRECTION ( 'NONE',  ( 0.0000000000000000000, 0.0000000000000000000, 1.000000000000000000 ) ) ;
#192 = PLANE ( 'NONE',  #200 ) ;
#193 = LINE ( 'NONE', #126, #218 ) ;
#194 =( LENGTH_UNIT ( ) NAMED_UNIT ( * ) SI_UNIT ( $, .METRE. ) );
#195 = DIRECTION ( 'NONE',  ( -1.224646799147353207E-16, -0.0000000000000000000, -1.000000000000000000 ) ) ;
#196 = CONICAL_SURFACE ( 'NONE', #287, 0.07802190000000000514, 0.1745329251994338082 ) ;
#197 = ADVANCED_FACE ( 'NONE', ( #88 ), #196, .T. ) ;
#198 = DIRECTION ( 'NONE',  ( -1.000000000000000000, 0.0000000000000000000, 1.224646799147353207E-16 ) ) ;
#199 = EDGE_LOOP ( 'NONE', ( #270, #58, #205, #272 ) ) ;
#200 = AXIS2_PLACEMENT_3D ( 'NONE', #174, #171, #98 ) ;
#201 = ORIENTED_EDGE ( 'NONE', *, *, #144, .F. ) ;
#202 = EDGE_CURVE ( 'NONE', #38, #61, #42, .T. ) ;
#203 = DIRECTION ( 'NONE',  ( 1.000000000000000000, 0.0000000000000000000, 0.0000000000000000000 ) ) ;
#204 = CARTESIAN_POINT ( 'NONE',  ( 6.894761479199598081E-17, 0.0000000000000000000, 0.5629999999999999449 ) ) ;
#205 = ORIENTED_EDGE ( 'NONE', *, *, #295, .T. ) ;
#206 = DIRECTION ( 'NONE',  ( 1.000000000000000000, 0.0000000000000000000, 0.0000000000000000000 ) ) ;
#207 = DIRECTION ( 'NONE',  ( 0.7071067811865463515, 8.659560562354916834E-17, -0.7071067811865486830 ) ) ;
#208 = DIRECTION ( 'NONE',  ( 1.000000000000000000, 0.0000000000000000000, 0.0000000000000000000 ) ) ;
#209 = CARTESIAN_POINT ( 'NONE',  ( 1.170141077868652023E-33, 0.0000000000000000000, 9.554927009839488851E-18 ) ) ;
#210 = CIRCLE ( 'NONE', #5, 0.09375000000000001388 ) ;
#211 = EDGE_CURVE ( 'NONE', #43, #159, #210, .T. ) ;
#212 = FILL_AREA_STYLE_COLOUR ( '', #107 ) ;
#213 = ORIENTED_EDGE ( 'NONE', *, *, #284, .T. ) ;
#214 = DIRECTION ( 'NONE',  ( -1.224646799147353207E-16, -0.0000000000000000000, -1.000000000000000000 ) ) ;
#215 = ADVANCED_FACE ( 'NONE', ( #3 ), #192, .F. ) ;
#216 = DIRECTION ( 'NONE',  ( -1.000000000000000000, 0.0000000000000000000, 0.0000000000000000000 ) ) ;
#217 = AXIS2_PLACEMENT_3D ( 'NONE', #118, #68, #62 ) ;
#218 = VECTOR ( 'NONE', #152, 39.37007874015748143 ) ;
#219 = EDGE_LOOP ( 'NONE', ( #59, #274, #184, #84 ) ) ;
#220 = CIRCLE ( 'NONE', #56, 0.07802190000000000514 ) ;
#221 = EDGE_LOOP ( 'NONE', ( #122, #253, #51, #178 ) ) ;
#222 = ADVANCED_FACE ( 'NONE', ( #278 ), #49, .T. ) ;
#223 = PRODUCT_DEFINITION_SHAPE ( 'NONE', 'NONE',  #85 ) ;
#224 = LINE ( 'NONE', #230, #102 ) ;
#225 = ADVANCED_BREP_SHAPE_REPRESENTATION ( 'Micro_EMS-156-4X', ( #291, #156 ), #22 ) ;
#226 = CARTESIAN_POINT ( 'NONE',  ( 6.894761479199598081E-17, 0.0000000000000000000, 0.5629999999999999449 ) ) ;
#227 = ORIENTED_EDGE ( 'NONE', *, *, #124, .F. ) ;
#228 = LINE ( 'NONE', #45, #239 ) ;
#229 = AXIS2_PLACEMENT_3D ( 'NONE', #186, #14, #208 ) ;
#230 = CARTESIAN_POINT ( 'NONE',  ( -0.07874999999999980627, 0.0000000000000000000, 2.000000000000000000 ) ) ;
#231 = ADVANCED_FACE ( 'NONE', ( #169 ), #279, .T. ) ;
#232 = CARTESIAN_POINT ( 'NONE',  ( 0.0000000000000000000, 0.0000000000000000000, 1.984999999999999654 ) ) ;
#233 = CIRCLE ( 'NONE', #82, 0.07874999999999980627 ) ;
#235 =( NAMED_UNIT ( * ) PLANE_ANGLE_UNIT ( ) SI_UNIT ( $, .RADIAN. ) );
#234 = PRODUCT_RELATED_PRODUCT_CATEGORY ( 'part', '', ( #21 ) ) ;
#236 = PRODUCT_DEFINITION_FORMATION_WITH_SPECIFIED_SOURCE ( 'ANY', '', #21, .NOT_KNOWN. ) ;
#237 = DIRECTION ( 'NONE',  ( 1.000000000000000000, 0.0000000000000000000, 0.0000000000000000000 ) ) ;
#238 = DIRECTION ( 'NONE',  ( -1.000000000000000000, 0.0000000000000000000, 0.0000000000000000000 ) ) ;
#239 = VECTOR ( 'NONE', #207, 39.37007874015748143 ) ;
#240 = STYLED_ITEM ( 'NONE', ( #286 ), #225 ) ;
#241 = SURFACE_SIDE_STYLE ('',( #242 ) ) ;
#242 = SURFACE_STYLE_FILL_AREA ( #80 ) ;
#243 = ORIENTED_EDGE ( 'NONE', *, *, #40, .T. ) ;
#244 = EDGE_LOOP ( 'NONE', ( #227, #289, #157, #139 ) ) ;
#245 = DIRECTION ( 'NONE',  ( -0.0000000000000000000, -0.0000000000000000000, -1.000000000000000000 ) ) ;
#246 = DIRECTION ( 'NONE',  ( 0.0000000000000000000, 0.0000000000000000000, 1.000000000000000000 ) ) ;
#247 = EDGE_LOOP ( 'NONE', ( #106, #110, #182, #86 ) ) ;
#248 = CARTESIAN_POINT ( 'NONE',  ( 6.894761479199598081E-17, 0.0000000000000000000, 0.5629999999999999449 ) ) ;
#249 = AXIS2_PLACEMENT_3D ( 'NONE', #204, #44, #206 ) ;
#250 = CYLINDRICAL_SURFACE ( 'NONE', #264, 0.07802190000000000514 ) ;
#251 = EDGE_CURVE ( 'NONE', #61, #38, #77, .T. ) ;
#252 = CARTESIAN_POINT ( 'NONE',  ( -0.09375000000000001388, 0.0000000000000000000, 2.000000000000000000 ) ) ;
#253 = ORIENTED_EDGE ( 'NONE', *, *, #55, .T. ) ;
#254 = DIRECTION ( 'NONE',  ( -1.224646799147353207E-16, -0.0000000000000000000, -1.000000000000000000 ) ) ;
#255 = STYLED_ITEM ( 'NONE', ( #31 ), #291 ) ;
#256 = DIRECTION ( 'NONE',  ( -1.224646799147353207E-16, -0.0000000000000000000, -1.000000000000000000 ) ) ;
#257 = EDGE_CURVE ( 'NONE', #90, #39, #74, .T. ) ;
#258 = DIRECTION ( 'NONE',  ( 1.000000000000000000, 0.0000000000000000000, 0.0000000000000000000 ) ) ;
#259 = DIRECTION ( 'NONE',  ( 0.0000000000000000000, 0.0000000000000000000, 1.000000000000000000 ) ) ;
#260 = AXIS2_PLACEMENT_3D ( 'NONE', #185, #254, #65 ) ;
#261 = DIRECTION ( 'NONE',  ( 0.0000000000000000000, 0.0000000000000000000, -1.000000000000000000 ) ) ;
#262 = CARTESIAN_POINT ( 'NONE',  ( 0.07802190000000007453, 0.0000000000000000000, 0.5629999999999999449 ) ) ;
#263 = CARTESIAN_POINT ( 'NONE',  ( 0.07802190000000007453, 0.0000000000000000000, 0.5629999999999999449 ) ) ;
#264 = AXIS2_PLACEMENT_3D ( 'NONE', #165, #48, #83 ) ;
#265 = CARTESIAN_POINT ( 'NONE',  ( 0.09375000000000001388, 1.148106374200643863E-17, 2.000000000000000000 ) ) ;
#266 = PRODUCT_CONTEXT ( 'NONE', #27, 'mechanical' ) ;
#267 = COLOUR_RGB ( '',0.7921568627450980005, 0.8196078431372548767, 0.9333333333333333481 ) ;
#268 = EDGE_CURVE ( 'NONE', #298, #38, #193, .T. ) ;
#269 = CARTESIAN_POINT ( 'NONE',  ( 6.894761479199598081E-17, 0.0000000000000000000, 0.5629999999999999449 ) ) ;
#270 = ORIENTED_EDGE ( 'NONE', *, *, #166, .F. ) ;
#271 = CARTESIAN_POINT ( 'NONE',  ( -0.09374999999999991673, 0.0000000000000000000, 0.6521984875871288390 ) ) ;
#272 = ORIENTED_EDGE ( 'NONE', *, *, #211, .T. ) ;
#273 = DIRECTION ( 'NONE',  ( -1.000000000000000000, 0.0000000000000000000, 0.0000000000000000000 ) ) ;
#274 = ORIENTED_EDGE ( 'NONE', *, *, #4, .T. ) ;
#275 = DIRECTION ( 'NONE',  ( 1.224646799147353207E-16, 0.0000000000000000000, 1.000000000000000000 ) ) ;
#276 = DIRECTION ( 'NONE',  ( -1.000000000000000000, 0.0000000000000000000, 0.0000000000000000000 ) ) ;
#277 = AXIS2_PLACEMENT_3D ( 'NONE', #145, #299, #116 ) ;
#278 = FACE_OUTER_BOUND ( 'NONE', #161, .T. ) ;
#279 = CYLINDRICAL_SURFACE ( 'NONE', #63, 0.09375000000000001388 ) ;
#280 = ADVANCED_FACE ( 'NONE', ( #153 ), #28, .T. ) ;
#281 = AXIS2_PLACEMENT_3D ( 'NONE', #232, #73, #26 ) ;
#282 = ORIENTED_EDGE ( 'NONE', *, *, #211, .F. ) ;
#283 = LINE ( 'NONE', #263, #37 ) ;
#284 = EDGE_CURVE ( 'NONE', #117, #64, #233, .T. ) ;
#285 = VERTEX_POINT ( 'NONE', #262 ) ;
#286 = PRESENTATION_STYLE_ASSIGNMENT (( #7 ) ) ;
#287 = AXIS2_PLACEMENT_3D ( 'NONE', #226, #275, #17 ) ;
#288 = APPLICATION_PROTOCOL_DEFINITION ( 'draft international standard', 'automotive_design', 1998, #18 ) ;
#289 = ORIENTED_EDGE ( 'NONE', *, *, #166, .T. ) ;
#290 = ORIENTED_EDGE ( 'NONE', *, *, #284, .F. ) ;
#291 = MANIFOLD_SOLID_BREP ( 'Cut-Revolve1', #94 ) ;
#292 = CARTESIAN_POINT ( 'NONE',  ( -0.09375000000000001388, 0.0000000000000000000, 1.984999999999999654 ) ) ;
#293 = ORIENTED_EDGE ( 'NONE', *, *, #268, .F. ) ;
#294 = FACE_OUTER_BOUND ( 'NONE', #92, .T. ) ;
#295 = EDGE_CURVE ( 'NONE', #285, #43, #283, .T. ) ;
#296 = ORIENTED_EDGE ( 'NONE', *, *, #202, .T. ) ;
#297 = CARTESIAN_POINT ( 'NONE',  ( 0.07802190000000000514, 9.554927009839488851E-18, -9.554927009839488851E-18 ) ) ;
#298 = VERTEX_POINT ( 'NONE', #125 ) ;
#299 = DIRECTION ( 'NONE',  ( 0.0000000000000000000, 0.0000000000000000000, 1.000000000000000000 ) ) ;
ENDSEC;
END-ISO-10303-21;
