ISO-10303-21;
HEADER;
FILE_DESCRIPTION (( 'STEP AP214' ),
    '1' );
FILE_NAME ('84083.STEP',
    '2023-06-23T11:29:57',
    ( '' ),
    ( '' ),
    'SwSTEP 2.0',
    'SolidWorks 2023',
    '' );
FILE_SCHEMA (( 'AUTOMOTIVE_DESIGN' ));
ENDSEC;

DATA;
#1 = VERTEX_POINT ( 'NONE', #206 ) ;
#2 = DIRECTION ( 'NONE',  ( -1.000000000000000000, 0.000000000000000000, 0.000000000000000000 ) ) ;
#3 = CIRCLE ( 'NONE', #32, 0.1250000000000000555 ) ;
#4 = CIRCLE ( 'NONE', #173, 0.1250000000000000278 ) ;
#5 = LENGTH_MEASURE_WITH_UNIT ( LENGTH_MEASURE( 0.02539999999999999897 ), #149 );
#6 = CARTESIAN_POINT ( 'NONE',  ( -6.123233995736766036E-17, 2.500000000000000000, 0.000000000000000000 ) ) ;
#7 =( NAMED_UNIT ( * ) SI_UNIT ( $, .STERADIAN. ) SOLID_ANGLE_UNIT ( ) );
#8 = ORIENTED_EDGE ( 'NONE', *, *, #107, .T. ) ;
#9 = EDGE_CURVE ( 'NONE', #95, #113, #201, .T. ) ;
#10 = DIMENSIONAL_EXPONENTS ( 1.000000000000000000, 0.000000000000000000, 0.000000000000000000, 0.000000000000000000, 0.000000000000000000, 0.000000000000000000, 0.000000000000000000 ) ;
#11 = CARTESIAN_POINT ( 'NONE',  ( -0.1250000000000001388, 2.500000000000000000, 0.000000000000000000 ) ) ;
#12 = CIRCLE ( 'NONE', #333, 0.02340000000000000413 ) ;
#13 = AXIS2_PLACEMENT_3D ( 'NONE', #6, #284, #334 ) ;
#14 = COLOUR_RGB ( '',0.7921568627450980005, 0.8196078431372548767, 0.9333333333333333481 ) ;
#15 = DIRECTION ( 'NONE',  ( -0.000000000000000000, -1.000000000000000000, -0.000000000000000000 ) ) ;
#16 =( LENGTH_UNIT ( ) NAMED_UNIT ( * ) SI_UNIT ( $, .METRE. ) );
#17 = FACE_OUTER_BOUND ( 'NONE', #56, .T. ) ;
#18 = UNCERTAINTY_MEASURE_WITH_UNIT (LENGTH_MEASURE( 1.000000000000000082E-05 ), #96, 'distance_accuracy_value', 'NONE');
#19 = CIRCLE ( 'NONE', #150, 0.02340000000000000413 ) ;
#20 = LINE ( 'NONE', #294, #97 ) ;
#21 = COLOUR_RGB ( '',1.000000000000000000, 0.000000000000000000, 0.000000000000000000 ) ;
#22 = DIRECTION ( 'NONE',  ( -1.000000000000000000, 0.000000000000000000, 0.000000000000000000 ) ) ;
#23 = DIRECTION ( 'NONE',  ( -2.612524104333461037E-17, 1.000000000000000000, -0.000000000000000000 ) ) ;
#24 = DIRECTION ( 'NONE',  ( -2.612524104333461037E-17, 1.000000000000000000, -0.000000000000000000 ) ) ;
#25 = EDGE_LOOP ( 'NONE', ( #200, #223, #251, #166 ) ) ;
#26 = COLOUR_RGB ( '',1.000000000000000000, 0.000000000000000000, 0.000000000000000000 ) ;
#27 = STYLED_ITEM ( 'NONE', ( #146 ), #44 ) ;
#28 = PRODUCT_DEFINITION ( 'UNKNOWN', '', #224, #275 ) ;
#29 = LENGTH_MEASURE_WITH_UNIT ( LENGTH_MEASURE( 0.02539999999999999897 ), #180 );
#30 = SURFACE_STYLE_USAGE ( .BOTH. , #169 ) ;
#31 = PRESENTATION_STYLE_ASSIGNMENT (( #273 ) ) ;
#32 = AXIS2_PLACEMENT_3D ( 'NONE', #354, #226, #193 ) ;
#33 = ORIENTED_EDGE ( 'NONE', *, *, #36, .F. ) ;
#34 =( NAMED_UNIT ( * ) PLANE_ANGLE_UNIT ( ) SI_UNIT ( $, .RADIAN. ) );
#35 =( NAMED_UNIT ( * ) SI_UNIT ( $, .STERADIAN. ) SOLID_ANGLE_UNIT ( ) );
#36 = EDGE_CURVE ( 'NONE', #152, #247, #12, .T. ) ;
#37 = LENGTH_MEASURE_WITH_UNIT ( LENGTH_MEASURE( 0.02539999999999999897 ), #16 );
#38 = MECHANICAL_DESIGN_GEOMETRIC_PRESENTATION_REPRESENTATION (  '', ( #259 ), #256 ) ;
#39 =( NAMED_UNIT ( * ) SI_UNIT ( $, .STERADIAN. ) SOLID_ANGLE_UNIT ( ) );
#40 = SURFACE_STYLE_USAGE ( .BOTH. , #316 ) ;
#41 =( LENGTH_UNIT ( ) NAMED_UNIT ( * ) SI_UNIT ( $, .METRE. ) );
#42 = PRESENTATION_LAYER_ASSIGNMENT (  '', '', ( #220 ) ) ;
#43 = COLOUR_RGB ( '',0.7921568627450980005, 0.8196078431372548767, 0.9333333333333333481 ) ;
#44 = MANIFOLD_SOLID_BREP ( 'Revolve - Cutting Edge', #301 ) ;
#45 = CARTESIAN_POINT ( 'NONE',  ( -6.123233995736766036E-17, 2.500000000000000000, 0.000000000000000000 ) ) ;
#46 = PRODUCT_CONTEXT ( 'NONE', #235, 'mechanical' ) ;
#47 = DIRECTION ( 'NONE',  ( 0.2588190451025214611, 0.9659258262890679791, 3.169619151431773569E-17 ) ) ;
#48 = PLANE ( 'NONE',  #74 ) ;
#49 = STYLED_ITEM ( 'NONE', ( #286 ), #160 ) ;
#50 =( NAMED_UNIT ( * ) PLANE_ANGLE_UNIT ( ) SI_UNIT ( $, .RADIAN. ) );
#51 = PLANE ( 'NONE',  #270 ) ;
#52 =( CONVERSION_BASED_UNIT ( 'INCH', #29 ) LENGTH_UNIT ( ) NAMED_UNIT ( #268 ) );
#53 = DIRECTION ( 'NONE',  ( -1.000000000000000000, 0.000000000000000000, 0.000000000000000000 ) ) ;
#54 = ADVANCED_FACE ( 'NONE', ( #77 ), #165, .T. ) ;
#55 = FILL_AREA_STYLE ('',( #312 ) ) ;
#56 = EDGE_LOOP ( 'NONE', ( #228, #313 ) ) ;
#57 = FACE_OUTER_BOUND ( 'NONE', #303, .T. ) ;
#58 = MECHANICAL_DESIGN_GEOMETRIC_PRESENTATION_REPRESENTATION (  '', ( #49 ), #208 ) ;
#59 = LINE ( 'NONE', #63, #319 ) ;
#60 = DIRECTION ( 'NONE',  ( -0.000000000000000000, -1.000000000000000000, -0.000000000000000000 ) ) ;
#61 = DIRECTION ( 'NONE',  ( -0.000000000000000000, -1.000000000000000000, -0.000000000000000000 ) ) ;
#62 = LENGTH_MEASURE_WITH_UNIT ( LENGTH_MEASURE( 0.02539999999999999897 ), #84 );
#63 = CARTESIAN_POINT ( 'NONE',  ( 0.1249999999999999584, 2.500000000000000000, 1.530808498934191817E-17 ) ) ;
#64 = DIRECTION ( 'NONE',  ( 0.000000000000000000, 0.000000000000000000, -1.000000000000000000 ) ) ;
#65 = FACE_OUTER_BOUND ( 'NONE', #225, .T. ) ;
#66 = VECTOR ( 'NONE', #141, 39.37007874015748143 ) ;
#67 =( CONVERSION_BASED_UNIT ( 'INCH', #352 ) LENGTH_UNIT ( ) NAMED_UNIT ( #242 ) );
#68 = STYLED_ITEM ( 'NONE', ( #91 ), #267 ) ;
#69 = DIRECTION ( 'NONE',  ( -0.000000000000000000, -1.000000000000000000, -0.000000000000000000 ) ) ;
#70 = EDGE_LOOP ( 'NONE', ( #124, #285 ) ) ;
#71 =( NAMED_UNIT ( * ) PLANE_ANGLE_UNIT ( ) SI_UNIT ( $, .RADIAN. ) );
#72 = PRESENTATION_LAYER_ASSIGNMENT (  '', '', ( #49 ) ) ;
#73 = ORIENTED_EDGE ( 'NONE', *, *, #317, .F. ) ;
#74 = AXIS2_PLACEMENT_3D ( 'NONE', #222, #245, #177 ) ;
#75 = EDGE_LOOP ( 'NONE', ( #8, #90 ) ) ;
#76 = ORIENTED_EDGE ( 'NONE', *, *, #215, .F. ) ;
#77 = FACE_OUTER_BOUND ( 'NONE', #25, .T. ) ;
#78 = DIRECTION ( 'NONE',  ( -2.612524104333461037E-17, 1.000000000000000000, -0.000000000000000000 ) ) ;
#79 = DIRECTION ( 'NONE',  ( 1.000000000000000000, 0.000000000000000000, 0.000000000000000000 ) ) ;
#80 = ORIENTED_EDGE ( 'NONE', *, *, #221, .F. ) ;
#81 =( LENGTH_UNIT ( ) NAMED_UNIT ( * ) SI_UNIT ( $, .METRE. ) );
#82 = DIRECTION ( 'NONE',  ( -2.612524104333461037E-17, 1.000000000000000000, -0.000000000000000000 ) ) ;
#83 = ORIENTED_EDGE ( 'NONE', *, *, #290, .T. ) ;
#84 =( LENGTH_UNIT ( ) NAMED_UNIT ( * ) SI_UNIT ( $, .METRE. ) );
#85 = CIRCLE ( 'NONE', #172, 0.1250000000000000555 ) ;
#86 = EDGE_LOOP ( 'NONE', ( #161, #108, #249, #337 ) ) ;
#87 = SURFACE_STYLE_FILL_AREA ( #271 ) ;
#88 = PLANE ( 'NONE',  #99 ) ;
#89 = FACE_OUTER_BOUND ( 'NONE', #75, .T. ) ;
#90 = ORIENTED_EDGE ( 'NONE', *, *, #252, .T. ) ;
#91 = PRESENTATION_STYLE_ASSIGNMENT (( #196 ) ) ;
#92 = DIRECTION ( 'NONE',  ( 0.000000000000000000, -0.000000000000000000, 1.000000000000000000 ) ) ;
#93 = LENGTH_MEASURE_WITH_UNIT ( LENGTH_MEASURE( 0.02539999999999999897 ), #81 );
#94 = LINE ( 'NONE', #262, #347 ) ;
#95 = VERTEX_POINT ( 'NONE', #230 ) ;
#96 =( CONVERSION_BASED_UNIT ( 'INCH', #62 ) LENGTH_UNIT ( ) NAMED_UNIT ( #135 ) );
#97 = VECTOR ( 'NONE', #15, 39.37007874015748143 ) ;
#98 = DIMENSIONAL_EXPONENTS ( 1.000000000000000000, 0.000000000000000000, 0.000000000000000000, 0.000000000000000000, 0.000000000000000000, 0.000000000000000000, 0.000000000000000000 ) ;
#99 = AXIS2_PLACEMENT_3D ( 'NONE', #203, #210, #260 ) ;
#100 = ADVANCED_FACE ( 'NONE', ( #332 ), #255, .T. ) ;
#101 = AXIS2_PLACEMENT_3D ( 'NONE', #291, #130, #22 ) ;
#102 = PRESENTATION_STYLE_ASSIGNMENT (( #40 ) ) ;
#103 =( NAMED_UNIT ( * ) PLANE_ANGLE_UNIT ( ) SI_UNIT ( $, .RADIAN. ) );
#104 = CARTESIAN_POINT ( 'NONE',  ( 0.000000000000000000, 0.000000000000000000, 0.000000000000000000 ) ) ;
#105 = ADVANCED_FACE ( 'NONE', ( #111 ), #307, .T. ) ;
#106 = CARTESIAN_POINT ( 'NONE',  ( -9.906073856464757241E-18, 0.5353763620489969677, 0.000000000000000000 ) ) ;
#107 = EDGE_CURVE ( 'NONE', #357, #335, #85, .T. ) ;
#108 = ORIENTED_EDGE ( 'NONE', *, *, #258, .T. ) ;
#109 = CARTESIAN_POINT ( 'NONE',  ( 0.000000000000000000, 0.1562000000000000888, 0.000000000000000000 ) ) ;
#110 = MECHANICAL_DESIGN_GEOMETRIC_PRESENTATION_REPRESENTATION (  '', ( #138 ), #157 ) ;
#111 = FACE_OUTER_BOUND ( 'NONE', #185, .T. ) ;
#112 = CARTESIAN_POINT ( 'NONE',  ( 2.865673510004806939E-18, 0.1562000000000000055, 0.02340000000000000413 ) ) ;
#113 = VERTEX_POINT ( 'NONE', #232 ) ;
#114 = VERTEX_POINT ( 'NONE', #122 ) ;
#115 = FILL_AREA_STYLE ('',( #250 ) ) ;
#116 = ADVANCED_FACE ( 'NONE', ( #89 ), #204, .F. ) ;
#117 = FACE_OUTER_BOUND ( 'NONE', #70, .T. ) ;
#118 = DIRECTION ( 'NONE',  ( -1.000000000000000000, 0.000000000000000000, 0.000000000000000000 ) ) ;
#119 = EDGE_LOOP ( 'NONE', ( #80, #327, #306, #188 ) ) ;
#120 = SURFACE_SIDE_STYLE ('',( #295 ) ) ;
#121 = MECHANICAL_DESIGN_GEOMETRIC_PRESENTATION_REPRESENTATION (  '', ( #27 ), #244 ) ;
#122 = CARTESIAN_POINT ( 'NONE',  ( -0.02340000000000000413, 0.1562000000000000888, 0.000000000000000000 ) ) ;
#123 = PRODUCT_DEFINITION_SHAPE ( 'NONE', 'NONE',  #28 ) ;
#124 = ORIENTED_EDGE ( 'NONE', *, *, #266, .F. ) ;
#125 = AXIS2_PLACEMENT_3D ( 'NONE', #257, #126, #236 ) ;
#126 = DIRECTION ( 'NONE',  ( 2.612524104333461037E-17, -1.000000000000000000, 0.000000000000000000 ) ) ;
#127 = CIRCLE ( 'NONE', #159, 0.02340000000000000413 ) ;
#128 =( NAMED_UNIT ( * ) PLANE_ANGLE_UNIT ( ) SI_UNIT ( $, .RADIAN. ) );
#129 = FACE_OUTER_BOUND ( 'NONE', #304, .T. ) ;
#130 = DIRECTION ( 'NONE',  ( -2.612524104333461037E-17, 1.000000000000000000, -0.000000000000000000 ) ) ;
#131 =( NAMED_UNIT ( * ) SI_UNIT ( $, .STERADIAN. ) SOLID_ANGLE_UNIT ( ) );
#132 = EDGE_CURVE ( 'NONE', #148, #357, #94, .T. ) ;
#133 = COLOUR_RGB ( '',1.000000000000000000, 0.000000000000000000, 0.000000000000000000 ) ;
#134 = AXIS2_PLACEMENT_3D ( 'NONE', #346, #186, #350 ) ;
#135 = DIMENSIONAL_EXPONENTS ( 1.000000000000000000, 0.000000000000000000, 0.000000000000000000, 0.000000000000000000, 0.000000000000000000, 0.000000000000000000, 0.000000000000000000 ) ;
#136 = ADVANCED_BREP_SHAPE_REPRESENTATION ( '84083', ( #44, #305, #199 ), #147 ) ;
#137 = DIRECTION ( 'NONE',  ( -0.2588190451025214611, 0.9659258262890679791, 0.000000000000000000 ) ) ;
#138 = STYLED_ITEM ( 'NONE', ( #102 ), #216 ) ;
#139 = CARTESIAN_POINT ( 'NONE',  ( 0.000000000000000000, 0.1562000000000000055, 0.000000000000000000 ) ) ;
#140 = CARTESIAN_POINT ( 'NONE',  ( 0.1250000000000000278, 2.500000000000000000, 1.530808498934192125E-17 ) ) ;
#141 = DIRECTION ( 'NONE',  ( -0.000000000000000000, -1.000000000000000000, -0.000000000000000000 ) ) ;
#142 = AXIS2_PLACEMENT_3D ( 'NONE', #192, #24, #53 ) ;
#143 = SURFACE_STYLE_USAGE ( .BOTH. , #283 ) ;
#144 = DIRECTION ( 'NONE',  ( -2.612524104333461037E-17, 1.000000000000000000, -0.000000000000000000 ) ) ;
#145 = PRESENTATION_STYLE_ASSIGNMENT (( #143 ) ) ;
#146 = PRESENTATION_STYLE_ASSIGNMENT (( #30 ) ) ;
#147 =( GEOMETRIC_REPRESENTATION_CONTEXT ( 3 ) GLOBAL_UNCERTAINTY_ASSIGNED_CONTEXT ( ( #345 ) ) GLOBAL_UNIT_ASSIGNED_CONTEXT ( ( #67, #128, #39 ) ) REPRESENTATION_CONTEXT ( 'NONE', 'WORKASPACE' ) );
#148 = VERTEX_POINT ( 'NONE', #211 ) ;
#149 =( LENGTH_UNIT ( ) NAMED_UNIT ( * ) SI_UNIT ( $, .METRE. ) );
#150 = AXIS2_PLACEMENT_3D ( 'NONE', #343, #229, #330 ) ;
#151 =( NAMED_UNIT ( * ) SI_UNIT ( $, .STERADIAN. ) SOLID_ANGLE_UNIT ( ) );
#152 = VERTEX_POINT ( 'NONE', #238 ) ;
#153 = DIRECTION ( 'NONE',  ( -1.000000000000000000, 0.000000000000000000, 0.000000000000000000 ) ) ;
#154 = AXIS2_PLACEMENT_3D ( 'NONE', #339, #61, #178 ) ;
#155 =( GEOMETRIC_REPRESENTATION_CONTEXT ( 3 ) GLOBAL_UNCERTAINTY_ASSIGNED_CONTEXT ( ( #298 ) ) GLOBAL_UNIT_ASSIGNED_CONTEXT ( ( #52, #103, #35 ) ) REPRESENTATION_CONTEXT ( 'NONE', 'WORKASPACE' ) );
#156 = EDGE_CURVE ( 'NONE', #95, #114, #19, .T. ) ;
#157 =( GEOMETRIC_REPRESENTATION_CONTEXT ( 3 ) GLOBAL_UNCERTAINTY_ASSIGNED_CONTEXT ( ( #311 ) ) GLOBAL_UNIT_ASSIGNED_CONTEXT ( ( #355, #50, #131 ) ) REPRESENTATION_CONTEXT ( 'NONE', 'WORKASPACE' ) );
#158 = LINE ( 'NONE', #272, #66 ) ;
#159 = AXIS2_PLACEMENT_3D ( 'NONE', #139, #344, #246 ) ;
#160 = ADVANCED_FACE ( 'NONE', ( #117 ), #51, .T. ) ;
#161 = ORIENTED_EDGE ( 'NONE', *, *, #207, .F. ) ;
#162 = SURFACE_SIDE_STYLE ('',( #314 ) ) ;
#163 = CARTESIAN_POINT ( 'NONE',  ( 0.000000000000000000, 0.1562000000000000055, 0.000000000000000000 ) ) ;
#164 = DIRECTION ( 'NONE',  ( 0.000000000000000000, 0.000000000000000000, -1.000000000000000000 ) ) ;
#165 = CONICAL_SURFACE ( 'NONE', #142, 0.02340000000000000413, 0.2617993877991501850 ) ;
#166 = ORIENTED_EDGE ( 'NONE', *, *, #258, .F. ) ;
#167 = ORIENTED_EDGE ( 'NONE', *, *, #107, .F. ) ;
#168 = FILL_AREA_STYLE ('',( #202 ) ) ;
#169 = SURFACE_SIDE_STYLE ('',( #279 ) ) ;
#170 = ADVANCED_FACE ( 'NONE', ( #57 ), #195, .T. ) ;
#171 = SURFACE_STYLE_USAGE ( .BOTH. , #162 ) ;
#172 = AXIS2_PLACEMENT_3D ( 'NONE', #331, #82, #118 ) ;
#173 = AXIS2_PLACEMENT_3D ( 'NONE', #106, #23, #218 ) ;
#174 = DIRECTION ( 'NONE',  ( -2.612524104333461037E-17, 1.000000000000000000, -0.000000000000000000 ) ) ;
#175 =( CONVERSION_BASED_UNIT ( 'INCH', #5 ) LENGTH_UNIT ( ) NAMED_UNIT ( #219 ) );
#176 = EDGE_CURVE ( 'NONE', #114, #95, #265, .T. ) ;
#177 = DIRECTION ( 'NONE',  ( -1.000000000000000000, -2.612524104333461037E-17, 0.000000000000000000 ) ) ;
#178 = DIRECTION ( 'NONE',  ( 0.000000000000000000, 0.000000000000000000, -1.000000000000000000 ) ) ;
#179 = PRESENTATION_LAYER_ASSIGNMENT (  '', '', ( #27 ) ) ;
#180 =( LENGTH_UNIT ( ) NAMED_UNIT ( * ) SI_UNIT ( $, .METRE. ) );
#181 = DIRECTION ( 'NONE',  ( -2.612524104333461037E-17, 1.000000000000000000, -0.000000000000000000 ) ) ;
#182 = FILL_AREA_STYLE_COLOUR ( '', #133 ) ;
#183 = CLOSED_SHELL ( 'NONE', ( #105, #341, #348, #54, #100, #116 ) ) ;
#184 = PRESENTATION_LAYER_ASSIGNMENT (  '', '', ( #259 ) ) ;
#185 = EDGE_LOOP ( 'NONE', ( #253, #324, #167, #274 ) ) ;
#186 = DIRECTION ( 'NONE',  ( -0.000000000000000000, -1.000000000000000000, -0.000000000000000000 ) ) ;
#187 = FILL_AREA_STYLE ('',( #182 ) ) ;
#188 = ORIENTED_EDGE ( 'NONE', *, *, #290, .F. ) ;
#189 = FILL_AREA_STYLE_COLOUR ( '', #14 ) ;
#190 = ORIENTED_EDGE ( 'NONE', *, *, #241, .F. ) ;
#191 = DIRECTION ( 'NONE',  ( 0.000000000000000000, 1.000000000000000000, 0.000000000000000000 ) ) ;
#192 = CARTESIAN_POINT ( 'NONE',  ( 0.000000000000000000, 0.1562000000000000888, 0.000000000000000000 ) ) ;
#193 = DIRECTION ( 'NONE',  ( -1.000000000000000000, 0.000000000000000000, 0.000000000000000000 ) ) ;
#194 = VERTEX_POINT ( 'NONE', #112 ) ;
#195 = CYLINDRICAL_SURFACE ( 'NONE', #154, 0.02340000000000000413 ) ;
#196 = SURFACE_STYLE_USAGE ( .BOTH. , #120 ) ;
#197 = PRODUCT ( '84083', '84083', '', ( #46 ) ) ;
#198 = COLOUR_RGB ( '',1.000000000000000000, 0.000000000000000000, 0.000000000000000000 ) ;
#199 = AXIS2_PLACEMENT_3D ( 'NONE', #356, #227, #79 ) ;
#200 = ORIENTED_EDGE ( 'NONE', *, *, #9, .F. ) ;
#201 = LINE ( 'NONE', #233, #239 ) ;
#202 = FILL_AREA_STYLE_COLOUR ( '', #26 ) ;
#203 = CARTESIAN_POINT ( 'NONE',  ( 0.000000000000000000, 0.000000000000000000, 0.000000000000000000 ) ) ;
#204 = PLANE ( 'NONE',  #125 ) ;
#205 = SURFACE_STYLE_FILL_AREA ( #293 ) ;
#206 = CARTESIAN_POINT ( 'NONE',  ( 0.000000000000000000, 0.1562000000000000055, -0.02340000000000000413 ) ) ;
#207 = EDGE_CURVE ( 'NONE', #113, #335, #59, .T. ) ;
#208 =( GEOMETRIC_REPRESENTATION_CONTEXT ( 3 ) GLOBAL_UNCERTAINTY_ASSIGNED_CONTEXT ( ( #243 ) ) GLOBAL_UNIT_ASSIGNED_CONTEXT ( ( #209, #71, #7 ) ) REPRESENTATION_CONTEXT ( 'NONE', 'WORKASPACE' ) );
#209 =( CONVERSION_BASED_UNIT ( 'INCH', #93 ) LENGTH_UNIT ( ) NAMED_UNIT ( #338 ) );
#210 = DIRECTION ( 'NONE',  ( 0.000000000000000000, -1.000000000000000000, -0.000000000000000000 ) ) ;
#211 = CARTESIAN_POINT ( 'NONE',  ( -0.1250000000000000278, 0.5353763620489969677, 0.000000000000000000 ) ) ;
#212 =( NAMED_UNIT ( * ) PLANE_ANGLE_UNIT ( ) SI_UNIT ( $, .RADIAN. ) );
#213 = MECHANICAL_DESIGN_GEOMETRIC_PRESENTATION_REPRESENTATION (  '', ( #68 ), #349 ) ;
#214 = UNCERTAINTY_MEASURE_WITH_UNIT (LENGTH_MEASURE( 1.000000000000000082E-05 ), #175, 'distance_accuracy_value', 'NONE');
#215 = EDGE_CURVE ( 'NONE', #114, #148, #296, .T. ) ;
#216 = ADVANCED_FACE ( 'NONE', ( #351 ), #261, .T. ) ;
#217 = DIRECTION ( 'NONE',  ( -0.000000000000000000, -1.000000000000000000, -0.000000000000000000 ) ) ;
#218 = DIRECTION ( 'NONE',  ( -1.000000000000000000, 0.000000000000000000, 0.000000000000000000 ) ) ;
#219 = DIMENSIONAL_EXPONENTS ( 1.000000000000000000, 0.000000000000000000, 0.000000000000000000, 0.000000000000000000, 0.000000000000000000, 0.000000000000000000, 0.000000000000000000 ) ;
#220 = STYLED_ITEM ( 'NONE', ( #145 ), #305 ) ;
#221 = EDGE_CURVE ( 'NONE', #194, #247, #20, .T. ) ;
#222 = CARTESIAN_POINT ( 'NONE',  ( 7.985580168996322973E-36, 0.1562000000000000055, 0.000000000000000000 ) ) ;
#223 = ORIENTED_EDGE ( 'NONE', *, *, #156, .T. ) ;
#224 = PRODUCT_DEFINITION_FORMATION_WITH_SPECIFIED_SOURCE ( 'ANY', '', #197, .NOT_KNOWN. ) ;
#225 = EDGE_LOOP ( 'NONE', ( #231, #83 ) ) ;
#226 = DIRECTION ( 'NONE',  ( -2.612524104333461037E-17, 1.000000000000000000, -0.000000000000000000 ) ) ;
#227 = DIRECTION ( 'NONE',  ( 0.000000000000000000, 0.000000000000000000, 1.000000000000000000 ) ) ;
#228 = ORIENTED_EDGE ( 'NONE', *, *, #176, .F. ) ;
#229 = DIRECTION ( 'NONE',  ( -2.612524104333461037E-17, 1.000000000000000000, -0.000000000000000000 ) ) ;
#230 = CARTESIAN_POINT ( 'NONE',  ( 0.02340000000000000413, 0.1562000000000000888, 9.086879249673361014E-18 ) ) ;
#231 = ORIENTED_EDGE ( 'NONE', *, *, #36, .T. ) ;
#232 = CARTESIAN_POINT ( 'NONE',  ( 0.1250000000000000000, 0.5353763620489969677, 1.530808498934191509E-17 ) ) ;
#233 = CARTESIAN_POINT ( 'NONE',  ( 0.02340000000000000413, 0.1562000000000000888, 2.865673510004806939E-18 ) ) ;
#234 = AXIS2_PLACEMENT_3D ( 'NONE', #45, #144, #2 ) ;
#235 = APPLICATION_CONTEXT ( 'automotive_design' ) ;
#236 = DIRECTION ( 'NONE',  ( 1.000000000000000000, 2.612524104333461037E-17, 0.000000000000000000 ) ) ;
#237 = CIRCLE ( 'NONE', #287, 0.02340000000000000413 ) ;
#238 = CARTESIAN_POINT ( 'NONE',  ( 0.000000000000000000, 0.000000000000000000, -0.02340000000000000413 ) ) ;
#239 = VECTOR ( 'NONE', #47, 39.37007874015748143 ) ;
#240 = AXIS2_PLACEMENT_3D ( 'NONE', #328, #78, #326 ) ;
#241 = EDGE_CURVE ( 'NONE', #1, #152, #158, .T. ) ;
#242 = DIMENSIONAL_EXPONENTS ( 1.000000000000000000, 0.000000000000000000, 0.000000000000000000, 0.000000000000000000, 0.000000000000000000, 0.000000000000000000, 0.000000000000000000 ) ;
#243 = UNCERTAINTY_MEASURE_WITH_UNIT (LENGTH_MEASURE( 1.000000000000000082E-05 ), #209, 'distance_accuracy_value', 'NONE');
#244 =( GEOMETRIC_REPRESENTATION_CONTEXT ( 3 ) GLOBAL_UNCERTAINTY_ASSIGNED_CONTEXT ( ( #320 ) ) GLOBAL_UNIT_ASSIGNED_CONTEXT ( ( #297, #358, #151 ) ) REPRESENTATION_CONTEXT ( 'NONE', 'WORKASPACE' ) );
#245 = DIRECTION ( 'NONE',  ( -2.612524104333461037E-17, 1.000000000000000000, 0.000000000000000000 ) ) ;
#246 = DIRECTION ( 'NONE',  ( 0.000000000000000000, 0.000000000000000000, -1.000000000000000000 ) ) ;
#247 = VERTEX_POINT ( 'NONE', #359 ) ;
#248 = PRESENTATION_LAYER_ASSIGNMENT (  '', '', ( #138 ) ) ;
#249 = ORIENTED_EDGE ( 'NONE', *, *, #132, .T. ) ;
#250 = FILL_AREA_STYLE_COLOUR ( '', #21 ) ;
#251 = ORIENTED_EDGE ( 'NONE', *, *, #215, .T. ) ;
#252 = EDGE_CURVE ( 'NONE', #335, #357, #3, .T. ) ;
#253 = ORIENTED_EDGE ( 'NONE', *, *, #317, .T. ) ;
#254 = SURFACE_SIDE_STYLE ('',( #336 ) ) ;
#255 = CYLINDRICAL_SURFACE ( 'NONE', #13, 0.1250000000000000278 ) ;
#256 =( GEOMETRIC_REPRESENTATION_CONTEXT ( 3 ) GLOBAL_UNCERTAINTY_ASSIGNED_CONTEXT ( ( #18 ) ) GLOBAL_UNIT_ASSIGNED_CONTEXT ( ( #96, #212, #318 ) ) REPRESENTATION_CONTEXT ( 'NONE', 'WORKASPACE' ) );
#257 = CARTESIAN_POINT ( 'NONE',  ( 0.1250000000000000000, 2.500000000000000000, 0.000000000000000000 ) ) ;
#258 = EDGE_CURVE ( 'NONE', #113, #148, #276, .T. ) ;
#259 = STYLED_ITEM ( 'NONE', ( #31 ), #170 ) ;
#260 = DIRECTION ( 'NONE',  ( 0.000000000000000000, 0.000000000000000000, -1.000000000000000000 ) ) ;
#261 = CYLINDRICAL_SURFACE ( 'NONE', #302, 0.02340000000000000413 ) ;
#262 = CARTESIAN_POINT ( 'NONE',  ( -0.1250000000000001110, 2.500000000000000000, 0.000000000000000000 ) ) ;
#263 = FILL_AREA_STYLE_COLOUR ( '', #198 ) ;
#264 = APPLICATION_CONTEXT ( 'automotive_design' ) ;
#265 = CIRCLE ( 'NONE', #101, 0.02340000000000000413 ) ;
#266 = EDGE_CURVE ( 'NONE', #1, #194, #237, .T. ) ;
#267 = ADVANCED_FACE ( 'NONE', ( #65 ), #88, .T. ) ;
#268 = DIMENSIONAL_EXPONENTS ( 1.000000000000000000, 0.000000000000000000, 0.000000000000000000, 0.000000000000000000, 0.000000000000000000, 0.000000000000000000, 0.000000000000000000 ) ;
#269 = CARTESIAN_POINT ( 'NONE',  ( -0.02340000000000000413, 0.1562000000000000888, 0.000000000000000000 ) ) ;
#270 = AXIS2_PLACEMENT_3D ( 'NONE', #310, #191, #92 ) ;
#271 = FILL_AREA_STYLE ('',( #189 ) ) ;
#272 = CARTESIAN_POINT ( 'NONE',  ( 0.000000000000000000, 0.000000000000000000, -0.02340000000000000413 ) ) ;
#273 = SURFACE_STYLE_USAGE ( .BOTH. , #254 ) ;
#274 = ORIENTED_EDGE ( 'NONE', *, *, #132, .F. ) ;
#275 = PRODUCT_DEFINITION_CONTEXT ( 'detailed design', #264, 'design' ) ;
#276 = CIRCLE ( 'NONE', #240, 0.1250000000000000278 ) ;
#277 = APPLICATION_PROTOCOL_DEFINITION ( 'draft international standard', 'automotive_design', 1998, #264 ) ;
#278 = CIRCLE ( 'NONE', #134, 0.02340000000000000413 ) ;
#279 = SURFACE_STYLE_FILL_AREA ( #55 ) ;
#280 =( NAMED_UNIT ( * ) SI_UNIT ( $, .STERADIAN. ) SOLID_ANGLE_UNIT ( ) );
#281 = PRODUCT_RELATED_PRODUCT_CATEGORY ( 'part', '', ( #197 ) ) ;
#282 = ORIENTED_EDGE ( 'NONE', *, *, #221, .T. ) ;
#283 = SURFACE_SIDE_STYLE ('',( #87 ) ) ;
#284 = DIRECTION ( 'NONE',  ( -2.612524104333461037E-17, 1.000000000000000000, -0.000000000000000000 ) ) ;
#285 = ORIENTED_EDGE ( 'NONE', *, *, #292, .F. ) ;
#286 = PRESENTATION_STYLE_ASSIGNMENT (( #171 ) ) ;
#287 = AXIS2_PLACEMENT_3D ( 'NONE', #163, #69, #321 ) ;
#288 = PRESENTATION_LAYER_ASSIGNMENT (  '', '', ( #68 ) ) ;
#289 = SHAPE_DEFINITION_REPRESENTATION ( #123, #136 ) ;
#290 = EDGE_CURVE ( 'NONE', #247, #152, #278, .T. ) ;
#291 = CARTESIAN_POINT ( 'NONE',  ( 0.000000000000000000, 0.1562000000000000888, 0.000000000000000000 ) ) ;
#292 = EDGE_CURVE ( 'NONE', #194, #1, #127, .T. ) ;
#293 = FILL_AREA_STYLE ('',( #263 ) ) ;
#294 = CARTESIAN_POINT ( 'NONE',  ( 2.865673510004806939E-18, 0.000000000000000000, 0.02340000000000000413 ) ) ;
#295 = SURFACE_STYLE_FILL_AREA ( #187 ) ;
#296 = LINE ( 'NONE', #269, #353 ) ;
#297 =( CONVERSION_BASED_UNIT ( 'INCH', #342 ) LENGTH_UNIT ( ) NAMED_UNIT ( #10 ) );
#298 = UNCERTAINTY_MEASURE_WITH_UNIT (LENGTH_MEASURE( 1.000000000000000082E-05 ), #52, 'distance_accuracy_value', 'NONE');
#299 = ORIENTED_EDGE ( 'NONE', *, *, #266, .T. ) ;
#300 = MECHANICAL_DESIGN_GEOMETRIC_PRESENTATION_REPRESENTATION (  '', ( #220 ), #155 ) ;
#301 = CLOSED_SHELL ( 'NONE', ( #170, #160, #216, #267 ) ) ;
#302 = AXIS2_PLACEMENT_3D ( 'NONE', #104, #217, #64 ) ;
#303 = EDGE_LOOP ( 'NONE', ( #299, #282, #33, #190 ) ) ;
#304 = EDGE_LOOP ( 'NONE', ( #323, #329, #73, #76 ) ) ;
#305 = MANIFOLD_SOLID_BREP ( 'Revolve - Tool Body (Reduced Cut Diameter)', #183 ) ;
#306 = ORIENTED_EDGE ( 'NONE', *, *, #241, .T. ) ;
#307 = CYLINDRICAL_SURFACE ( 'NONE', #234, 0.1250000000000000278 ) ;
#308 = APPLICATION_PROTOCOL_DEFINITION ( 'draft international standard', 'automotive_design', 1998, #235 ) ;
#309 = CARTESIAN_POINT ( 'NONE',  ( 0.000000000000000000, 0.000000000000000000, 0.000000000000000000 ) ) ;
#310 = CARTESIAN_POINT ( 'NONE',  ( 0.000000000000000000, 0.1562000000000000055, 0.000000000000000000 ) ) ;
#311 = UNCERTAINTY_MEASURE_WITH_UNIT (LENGTH_MEASURE( 1.000000000000000082E-05 ), #355, 'distance_accuracy_value', 'NONE');
#312 = FILL_AREA_STYLE_COLOUR ( '', #43 ) ;
#313 = ORIENTED_EDGE ( 'NONE', *, *, #156, .F. ) ;
#314 = SURFACE_STYLE_FILL_AREA ( #168 ) ;
#315 = DIRECTION ( 'NONE',  ( -2.612524104333461037E-17, 1.000000000000000000, -0.000000000000000000 ) ) ;
#316 = SURFACE_SIDE_STYLE ('',( #205 ) ) ;
#317 = EDGE_CURVE ( 'NONE', #148, #113, #4, .T. ) ;
#318 =( NAMED_UNIT ( * ) SI_UNIT ( $, .STERADIAN. ) SOLID_ANGLE_UNIT ( ) );
#319 = VECTOR ( 'NONE', #181, 39.37007874015748143 ) ;
#320 = UNCERTAINTY_MEASURE_WITH_UNIT (LENGTH_MEASURE( 1.000000000000000082E-05 ), #297, 'distance_accuracy_value', 'NONE');
#321 = DIRECTION ( 'NONE',  ( 0.000000000000000000, 0.000000000000000000, -1.000000000000000000 ) ) ;
#322 = CONICAL_SURFACE ( 'NONE', #325, 0.02340000000000000413, 0.2617993877991501850 ) ;
#323 = ORIENTED_EDGE ( 'NONE', *, *, #176, .T. ) ;
#324 = ORIENTED_EDGE ( 'NONE', *, *, #207, .T. ) ;
#325 = AXIS2_PLACEMENT_3D ( 'NONE', #109, #174, #153 ) ;
#326 = DIRECTION ( 'NONE',  ( -1.000000000000000000, 0.000000000000000000, 0.000000000000000000 ) ) ;
#327 = ORIENTED_EDGE ( 'NONE', *, *, #292, .T. ) ;
#328 = CARTESIAN_POINT ( 'NONE',  ( -9.906073856464757241E-18, 0.5353763620489969677, 0.000000000000000000 ) ) ;
#329 = ORIENTED_EDGE ( 'NONE', *, *, #9, .T. ) ;
#330 = DIRECTION ( 'NONE',  ( -1.000000000000000000, 0.000000000000000000, 0.000000000000000000 ) ) ;
#331 = CARTESIAN_POINT ( 'NONE',  ( -6.123233995736766036E-17, 2.500000000000000000, 0.000000000000000000 ) ) ;
#332 = FACE_OUTER_BOUND ( 'NONE', #86, .T. ) ;
#333 = AXIS2_PLACEMENT_3D ( 'NONE', #309, #60, #164 ) ;
#334 = DIRECTION ( 'NONE',  ( -1.000000000000000000, 0.000000000000000000, 0.000000000000000000 ) ) ;
#335 = VERTEX_POINT ( 'NONE', #140 ) ;
#336 = SURFACE_STYLE_FILL_AREA ( #115 ) ;
#337 = ORIENTED_EDGE ( 'NONE', *, *, #252, .F. ) ;
#338 = DIMENSIONAL_EXPONENTS ( 1.000000000000000000, 0.000000000000000000, 0.000000000000000000, 0.000000000000000000, 0.000000000000000000, 0.000000000000000000, 0.000000000000000000 ) ;
#339 = CARTESIAN_POINT ( 'NONE',  ( 0.000000000000000000, 0.000000000000000000, 0.000000000000000000 ) ) ;
#340 =( LENGTH_UNIT ( ) NAMED_UNIT ( * ) SI_UNIT ( $, .METRE. ) );
#341 = ADVANCED_FACE ( 'NONE', ( #129 ), #322, .T. ) ;
#342 = LENGTH_MEASURE_WITH_UNIT ( LENGTH_MEASURE( 0.02539999999999999897 ), #340 );
#343 = CARTESIAN_POINT ( 'NONE',  ( 0.000000000000000000, 0.1562000000000000888, 0.000000000000000000 ) ) ;
#344 = DIRECTION ( 'NONE',  ( -0.000000000000000000, -1.000000000000000000, -0.000000000000000000 ) ) ;
#345 = UNCERTAINTY_MEASURE_WITH_UNIT (LENGTH_MEASURE( 1.000000000000000082E-05 ), #67, 'distance_accuracy_value', 'NONE');
#346 = CARTESIAN_POINT ( 'NONE',  ( 0.000000000000000000, 0.000000000000000000, 0.000000000000000000 ) ) ;
#347 = VECTOR ( 'NONE', #315, 39.37007874015748143 ) ;
#348 = ADVANCED_FACE ( 'NONE', ( #17 ), #48, .F. ) ;
#349 =( GEOMETRIC_REPRESENTATION_CONTEXT ( 3 ) GLOBAL_UNCERTAINTY_ASSIGNED_CONTEXT ( ( #214 ) ) GLOBAL_UNIT_ASSIGNED_CONTEXT ( ( #175, #34, #280 ) ) REPRESENTATION_CONTEXT ( 'NONE', 'WORKASPACE' ) );
#350 = DIRECTION ( 'NONE',  ( 0.000000000000000000, 0.000000000000000000, -1.000000000000000000 ) ) ;
#351 = FACE_OUTER_BOUND ( 'NONE', #119, .T. ) ;
#352 = LENGTH_MEASURE_WITH_UNIT ( LENGTH_MEASURE( 0.02539999999999999897 ), #41 );
#353 = VECTOR ( 'NONE', #137, 39.37007874015748143 ) ;
#354 = CARTESIAN_POINT ( 'NONE',  ( -6.123233995736766036E-17, 2.500000000000000000, 0.000000000000000000 ) ) ;
#355 =( CONVERSION_BASED_UNIT ( 'INCH', #37 ) LENGTH_UNIT ( ) NAMED_UNIT ( #98 ) );
#356 = CARTESIAN_POINT ( 'NONE',  ( 0.000000000000000000, 0.000000000000000000, 0.000000000000000000 ) ) ;
#357 = VERTEX_POINT ( 'NONE', #11 ) ;
#358 =( NAMED_UNIT ( * ) PLANE_ANGLE_UNIT ( ) SI_UNIT ( $, .RADIAN. ) );
#359 = CARTESIAN_POINT ( 'NONE',  ( 2.865673510004806939E-18, 0.000000000000000000, 0.02340000000000000413 ) ) ;
ENDSEC;
END-ISO-10303-21;
