ISO-10303-21;
HEADER;
FILE_DESCRIPTION (( 'STEP AP214' ),
    '1' );
FILE_NAME ('Micro_RNC-500-1.STEP',
    '2021-09-03T17:38:38',
    ( '' ),
    ( '' ),
    'SwSTEP 2.0',
    'SolidWorks 2020',
    '' );
FILE_SCHEMA (( 'AUTOMOTIVE_DESIGN' ));
ENDSEC;

DATA;
#1 = FILL_AREA_STYLE_COLOUR ( '', #16 ) ;
#2 = EDGE_LOOP ( 'NONE', ( #119, #163, #41, #76 ) ) ;
#3 = CIRCLE ( 'NONE', #151, 0.003999999999999999216 ) ;
#4 = ORIENTED_EDGE ( 'NONE', *, *, #98, .T. ) ;
#5 = ADVANCED_FACE ( 'NONE', ( #107 ), #153, .F. ) ;
#6 = EDGE_CURVE ( 'NONE', #23, #142, #3, .T. ) ;
#7 = MECHANICAL_DESIGN_GEOMETRIC_PRESENTATION_REPRESENTATION (  '', ( #223 ), #75 ) ;
#8 =( NAMED_UNIT ( * ) PLANE_ANGLE_UNIT ( ) SI_UNIT ( $, .RADIAN. ) );
#9 = APPLICATION_CONTEXT ( 'automotive_design' ) ;
#10 = AXIS2_PLACEMENT_3D ( 'NONE', #128, #125, #168 ) ;
#11 = DIRECTION ( 'NONE',  ( 0.0000000000000000000, 0.0000000000000000000, 1.000000000000000000 ) ) ;
#12 = DIRECTION ( 'NONE',  ( 1.000000000000000000, 0.0000000000000000000, 0.0000000000000000000 ) ) ;
#13 = DIRECTION ( 'NONE',  ( -1.000000000000000000, 0.0000000000000000000, 0.0000000000000000000 ) ) ;
#14 = VECTOR ( 'NONE', #110, 39.37007874015748854 ) ;
#15 = LINE ( 'NONE', #68, #20 ) ;
#16 = COLOUR_RGB ( '',0.7921568627450980005, 0.8196078431372548767, 0.9333333333333333481 ) ;
#17 = VERTEX_POINT ( 'NONE', #238 ) ;
#18 = DIMENSIONAL_EXPONENTS ( 1.000000000000000000, 0.0000000000000000000, 0.0000000000000000000, 0.0000000000000000000, 0.0000000000000000000, 0.0000000000000000000, 0.0000000000000000000 ) ;
#19 = EDGE_LOOP ( 'NONE', ( #230, #57, #227, #99 ) ) ;
#20 = VECTOR ( 'NONE', #173, 39.37007874015748854 ) ;
#21 = APPLICATION_CONTEXT ( 'automotive_design' ) ;
#22 = SURFACE_STYLE_USAGE ( .BOTH. , #162 ) ;
#23 = VERTEX_POINT ( 'NONE', #201 ) ;
#24 =( NAMED_UNIT ( * ) SI_UNIT ( $, .STERADIAN. ) SOLID_ANGLE_UNIT ( ) );
#25 = ADVANCED_FACE ( 'NONE', ( #86 ), #217, .T. ) ;
#26 = DIRECTION ( 'NONE',  ( 1.000000000000000000, 0.0000000000000000000, -0.0000000000000000000 ) ) ;
#27 = VECTOR ( 'NONE', #49, 39.37007874015748143 ) ;
#28 = VERTEX_POINT ( 'NONE', #65 ) ;
#29 = EDGE_CURVE ( 'NONE', #142, #232, #220, .T. ) ;
#30 = DIRECTION ( 'NONE',  ( 1.000000000000000000, 0.0000000000000000000, 0.0000000000000000000 ) ) ;
#31 = AXIS2_PLACEMENT_3D ( 'NONE', #183, #116, #100 ) ;
#32 = DIRECTION ( 'NONE',  ( 1.000000000000000000, 0.0000000000000000000, 0.0000000000000000000 ) ) ;
#33 = CARTESIAN_POINT ( 'NONE',  ( 0.0000000000000000000, 0.0000000000000000000, 3.000000000000000444 ) ) ;
#34 =( GEOMETRIC_REPRESENTATION_CONTEXT ( 3 ) GLOBAL_UNCERTAINTY_ASSIGNED_CONTEXT ( ( #70 ) ) GLOBAL_UNIT_ASSIGNED_CONTEXT ( ( #106, #8, #24 ) ) REPRESENTATION_CONTEXT ( 'NONE', 'WORKASPACE' ) );
#35 = ADVANCED_FACE ( 'NONE', ( #154 ), #147, .T. ) ;
#36 = CARTESIAN_POINT ( 'NONE',  ( 0.003999999999999999216, 0.0000000000000000000, 0.0000000000000000000 ) ) ;
#37 = DIRECTION ( 'NONE',  ( -1.000000000000000000, 0.0000000000000000000, 0.0000000000000000000 ) ) ;
#38 = ORIENTED_EDGE ( 'NONE', *, *, #148, .T. ) ;
#39 = APPLICATION_PROTOCOL_DEFINITION ( 'draft international standard', 'automotive_design', 1998, #9 ) ;
#40 = DIMENSIONAL_EXPONENTS ( 1.000000000000000000, 0.0000000000000000000, 0.0000000000000000000, 0.0000000000000000000, 0.0000000000000000000, 0.0000000000000000000, 0.0000000000000000000 ) ;
#41 = ORIENTED_EDGE ( 'NONE', *, *, #196, .T. ) ;
#42 = ORIENTED_EDGE ( 'NONE', *, *, #171, .T. ) ;
#43 = AXIS2_PLACEMENT_3D ( 'NONE', #33, #206, #12 ) ;
#44 = EDGE_LOOP ( 'NONE', ( #80, #144, #102, #78 ) ) ;
#45 = EDGE_CURVE ( 'NONE', #23, #28, #239, .T. ) ;
#46 = ORIENTED_EDGE ( 'NONE', *, *, #138, .T. ) ;
#47 = DIRECTION ( 'NONE',  ( 0.0000000000000000000, 0.0000000000000000000, -1.000000000000000000 ) ) ;
#48 = CIRCLE ( 'NONE', #83, 0.2500000000000000000 ) ;
#49 = DIRECTION ( 'NONE',  ( -0.7071067811865490160, 8.659560562354951347E-17, 0.7071067811865460184 ) ) ;
#50 = CARTESIAN_POINT ( 'NONE',  ( -0.2350000000000011524, 0.0000000000000000000, 3.000000000000000444 ) ) ;
#51 = EDGE_CURVE ( 'NONE', #249, #96, #48, .T. ) ;
#52 = FACE_OUTER_BOUND ( 'NONE', #184, .T. ) ;
#53 = LINE ( 'NONE', #115, #14 ) ;
#54 = MANIFOLD_SOLID_BREP ( 'Cut-Revolve1', #139 ) ;
#55 = CONICAL_SURFACE ( 'NONE', #113, 0.003999999999999999216, 0.7853981633974503884 ) ;
#56 = FACE_OUTER_BOUND ( 'NONE', #44, .T. ) ;
#57 = ORIENTED_EDGE ( 'NONE', *, *, #45, .T. ) ;
#58 = VECTOR ( 'NONE', #209, 39.37007874015748143 ) ;
#59 =( CONVERSION_BASED_UNIT ( 'INCH', #79 ) LENGTH_UNIT ( ) NAMED_UNIT ( #141 ) );
#60 = EDGE_LOOP ( 'NONE', ( #42, #62 ) ) ;
#61 = PRODUCT_DEFINITION ( 'UNKNOWN', '', #118, #213 ) ;
#62 = ORIENTED_EDGE ( 'NONE', *, *, #6, .T. ) ;
#63 = CONICAL_SURFACE ( 'NONE', #131, 0.2350000000000011524, 0.7853981633974380649 ) ;
#64 = DIRECTION ( 'NONE',  ( 0.0000000000000000000, 0.0000000000000000000, 1.000000000000000000 ) ) ;
#65 = CARTESIAN_POINT ( 'NONE',  ( -0.2500000000000000000, 0.0000000000000000000, 0.2459999999999989695 ) ) ;
#66 = CARTESIAN_POINT ( 'NONE',  ( -0.003999999999999999216, 4.898587196589411612E-19, 0.0000000000000000000 ) ) ;
#67 = DIRECTION ( 'NONE',  ( -1.000000000000000000, 0.0000000000000000000, 0.0000000000000000000 ) ) ;
#68 = CARTESIAN_POINT ( 'NONE',  ( -0.2350000000000011524, 0.0000000000000000000, 3.000000000000000444 ) ) ;
#69 = AXIS2_PLACEMENT_3D ( 'NONE', #218, #82, #170 ) ;
#70 = UNCERTAINTY_MEASURE_WITH_UNIT (LENGTH_MEASURE( 1.000000000000000082E-05 ), #106, 'distance_accuracy_value', 'NONE');
#71 = CARTESIAN_POINT ( 'NONE',  ( -0.2500000000000000000, 0.0000000000000000000, 3.000000000000000444 ) ) ;
#72 = CARTESIAN_POINT ( 'NONE',  ( 0.2500000000000000000, 3.061616997868382402E-17, 3.000000000000000444 ) ) ;
#73 = CARTESIAN_POINT ( 'NONE',  ( 0.0000000000000000000, 0.0000000000000000000, 0.0000000000000000000 ) ) ;
#74 = AXIS2_PLACEMENT_3D ( 'NONE', #134, #189, #112 ) ;
#75 =( GEOMETRIC_REPRESENTATION_CONTEXT ( 3 ) GLOBAL_UNCERTAINTY_ASSIGNED_CONTEXT ( ( #90 ) ) GLOBAL_UNIT_ASSIGNED_CONTEXT ( ( #59, #122, #140 ) ) REPRESENTATION_CONTEXT ( 'NONE', 'WORKASPACE' ) );
#76 = ORIENTED_EDGE ( 'NONE', *, *, #185, .F. ) ;
#77 =( LENGTH_UNIT ( ) NAMED_UNIT ( * ) SI_UNIT ( $, .METRE. ) );
#78 = ORIENTED_EDGE ( 'NONE', *, *, #185, .T. ) ;
#79 = LENGTH_MEASURE_WITH_UNIT ( LENGTH_MEASURE( 0.02539999999999999897 ), #77 );
#80 = ORIENTED_EDGE ( 'NONE', *, *, #45, .F. ) ;
#81 = ORIENTED_EDGE ( 'NONE', *, *, #150, .T. ) ;
#82 = DIRECTION ( 'NONE',  ( 0.0000000000000000000, 0.0000000000000000000, 1.000000000000000000 ) ) ;
#83 = AXIS2_PLACEMENT_3D ( 'NONE', #203, #47, #202 ) ;
#84 =( LENGTH_UNIT ( ) NAMED_UNIT ( * ) SI_UNIT ( $, .METRE. ) );
#85 = CARTESIAN_POINT ( 'NONE',  ( 0.003999999999999999216, 0.0000000000000000000, 0.0000000000000000000 ) ) ;
#86 = FACE_OUTER_BOUND ( 'NONE', #180, .T. ) ;
#87 = DIRECTION ( 'NONE',  ( 0.0000000000000000000, 0.0000000000000000000, 1.000000000000000000 ) ) ;
#88 = DIRECTION ( 'NONE',  ( 0.0000000000000000000, 0.0000000000000000000, -1.000000000000000000 ) ) ;
#89 = ADVANCED_BREP_SHAPE_REPRESENTATION ( 'Micro_RNC-500-1', ( #54, #31 ), #237 ) ;
#90 = UNCERTAINTY_MEASURE_WITH_UNIT (LENGTH_MEASURE( 1.000000000000000082E-05 ), #59, 'distance_accuracy_value', 'NONE');
#91 = CARTESIAN_POINT ( 'NONE',  ( 0.0000000000000000000, 0.0000000000000000000, 2.985000000000001208 ) ) ;
#92 = CARTESIAN_POINT ( 'NONE',  ( 0.0000000000000000000, 0.0000000000000000000, 0.2459999999999989695 ) ) ;
#93 = EDGE_CURVE ( 'NONE', #121, #17, #126, .T. ) ;
#94 = CARTESIAN_POINT ( 'NONE',  ( 0.0000000000000000000, 0.0000000000000000000, 0.0000000000000000000 ) ) ;
#95 = AXIS2_PLACEMENT_3D ( 'NONE', #114, #205, #243 ) ;
#96 = VERTEX_POINT ( 'NONE', #104 ) ;
#97 =( NAMED_UNIT ( * ) SI_UNIT ( $, .STERADIAN. ) SOLID_ANGLE_UNIT ( ) );
#98 = EDGE_CURVE ( 'NONE', #249, #232, #186, .T. ) ;
#99 = ORIENTED_EDGE ( 'NONE', *, *, #29, .F. ) ;
#100 = DIRECTION ( 'NONE',  ( 1.000000000000000000, 0.0000000000000000000, 0.0000000000000000000 ) ) ;
#101 = ORIENTED_EDGE ( 'NONE', *, *, #196, .F. ) ;
#102 = ORIENTED_EDGE ( 'NONE', *, *, #29, .T. ) ;
#103 = EDGE_CURVE ( 'NONE', #17, #121, #181, .T. ) ;
#104 = CARTESIAN_POINT ( 'NONE',  ( -0.2500000000000000000, 0.0000000000000000000, 2.985000000000001208 ) ) ;
#105 = MECHANICAL_DESIGN_GEOMETRIC_PRESENTATION_REPRESENTATION (  '', ( #109 ), #34 ) ;
#106 =( CONVERSION_BASED_UNIT ( 'INCH', #204 ) LENGTH_UNIT ( ) NAMED_UNIT ( #18 ) );
#107 = FACE_OUTER_BOUND ( 'NONE', #60, .T. ) ;
#108 = DIRECTION ( 'NONE',  ( 0.7071067811865490160, 0.0000000000000000000, 0.7071067811865460184 ) ) ;
#109 = STYLED_ITEM ( 'NONE', ( #222 ), #54 ) ;
#110 = DIRECTION ( 'NONE',  ( 0.7071067811865402453, 8.659560562354845344E-17, -0.7071067811865546782 ) ) ;
#111 = DIRECTION ( 'NONE',  ( -1.000000000000000000, 0.0000000000000000000, 0.0000000000000000000 ) ) ;
#112 = DIRECTION ( 'NONE',  ( -1.000000000000000000, 0.0000000000000000000, 0.0000000000000000000 ) ) ;
#113 = AXIS2_PLACEMENT_3D ( 'NONE', #73, #193, #32 ) ;
#114 = CARTESIAN_POINT ( 'NONE',  ( 0.0000000000000000000, 0.0000000000000000000, 0.0000000000000000000 ) ) ;
#115 = CARTESIAN_POINT ( 'NONE',  ( 0.2350000000000011524, 2.877919977996294002E-17, 3.000000000000000444 ) ) ;
#116 = DIRECTION ( 'NONE',  ( 0.0000000000000000000, 0.0000000000000000000, 1.000000000000000000 ) ) ;
#117 = PRESENTATION_LAYER_ASSIGNMENT (  '', '', ( #223 ) ) ;
#118 = PRODUCT_DEFINITION_FORMATION_WITH_SPECIFIED_SOURCE ( 'ANY', '', #146, .NOT_KNOWN. ) ;
#119 = ORIENTED_EDGE ( 'NONE', *, *, #98, .F. ) ;
#120 = SHAPE_DEFINITION_REPRESENTATION ( #234, #89 ) ;
#121 = VERTEX_POINT ( 'NONE', #50 ) ;
#122 =( NAMED_UNIT ( * ) PLANE_ANGLE_UNIT ( ) SI_UNIT ( $, .RADIAN. ) );
#123 = EDGE_CURVE ( 'NONE', #28, #232, #156, .T. ) ;
#124 = ORIENTED_EDGE ( 'NONE', *, *, #93, .F. ) ;
#125 = DIRECTION ( 'NONE',  ( -0.0000000000000000000, -0.0000000000000000000, -1.000000000000000000 ) ) ;
#126 = CIRCLE ( 'NONE', #194, 0.2350000000000011524 ) ;
#127 = ADVANCED_FACE ( 'NONE', ( #207 ), #208, .T. ) ;
#128 = CARTESIAN_POINT ( 'NONE',  ( 0.0000000000000000000, 0.0000000000000000000, 3.000000000000000444 ) ) ;
#129 = SURFACE_STYLE_USAGE ( .BOTH. , #233 ) ;
#130 = DIRECTION ( 'NONE',  ( -1.000000000000000000, 0.0000000000000000000, 0.0000000000000000000 ) ) ;
#131 = AXIS2_PLACEMENT_3D ( 'NONE', #195, #88, #111 ) ;
#132 = CARTESIAN_POINT ( 'NONE',  ( 0.0000000000000000000, 0.0000000000000000000, 3.000000000000000444 ) ) ;
#133 = CARTESIAN_POINT ( 'NONE',  ( 0.0000000000000000000, 0.0000000000000000000, 3.000000000000000444 ) ) ;
#134 = CARTESIAN_POINT ( 'NONE',  ( 0.0000000000000000000, 0.0000000000000000000, 0.2459999999999989695 ) ) ;
#135 = DIRECTION ( 'NONE',  ( 1.000000000000000000, 0.0000000000000000000, 0.0000000000000000000 ) ) ;
#136 = PRODUCT_RELATED_PRODUCT_CATEGORY ( 'part', '', ( #146 ) ) ;
#137 = ADVANCED_FACE ( 'NONE', ( #245 ), #55, .T. ) ;
#138 = EDGE_CURVE ( 'NONE', #96, #249, #174, .T. ) ;
#139 = CLOSED_SHELL ( 'NONE', ( #137, #191, #145, #35, #25, #127, #192, #5 ) ) ;
#140 =( NAMED_UNIT ( * ) SI_UNIT ( $, .STERADIAN. ) SOLID_ANGLE_UNIT ( ) );
#141 = DIMENSIONAL_EXPONENTS ( 1.000000000000000000, 0.0000000000000000000, 0.0000000000000000000, 0.0000000000000000000, 0.0000000000000000000, 0.0000000000000000000, 0.0000000000000000000 ) ;
#142 = VERTEX_POINT ( 'NONE', #36 ) ;
#143 = AXIS2_PLACEMENT_3D ( 'NONE', #187, #64, #26 ) ;
#144 = ORIENTED_EDGE ( 'NONE', *, *, #171, .F. ) ;
#145 = ADVANCED_FACE ( 'NONE', ( #52 ), #175, .T. ) ;
#146 = PRODUCT ( 'Micro_RNC-500-1', 'Micro_RNC-500-1', '', ( #199 ) ) ;
#147 = CYLINDRICAL_SURFACE ( 'NONE', #10, 0.2500000000000000000 ) ;
#148 = EDGE_CURVE ( 'NONE', #121, #96, #15, .T. ) ;
#149 = CARTESIAN_POINT ( 'NONE',  ( 0.0000000000000000000, 0.0000000000000000000, 0.0000000000000000000 ) ) ;
#150 = EDGE_CURVE ( 'NONE', #17, #249, #53, .T. ) ;
#151 = AXIS2_PLACEMENT_3D ( 'NONE', #149, #221, #67 ) ;
#152 = CARTESIAN_POINT ( 'NONE',  ( 0.0000000000000000000, 0.0000000000000000000, 3.000000000000000444 ) ) ;
#153 = PLANE ( 'NONE',  #143 ) ;
#154 = FACE_OUTER_BOUND ( 'NONE', #2, .T. ) ;
#155 = DIRECTION ( 'NONE',  ( -0.0000000000000000000, -0.0000000000000000000, -1.000000000000000000 ) ) ;
#156 = CIRCLE ( 'NONE', #74, 0.2500000000000000000 ) ;
#157 = DIRECTION ( 'NONE',  ( -0.0000000000000000000, -0.0000000000000000000, -1.000000000000000000 ) ) ;
#158 = CARTESIAN_POINT ( 'NONE',  ( 0.2500000000000000000, 3.061616997868382402E-17, 2.985000000000001208 ) ) ;
#159 = ORIENTED_EDGE ( 'NONE', *, *, #103, .T. ) ;
#160 = UNCERTAINTY_MEASURE_WITH_UNIT (LENGTH_MEASURE( 1.000000000000000082E-05 ), #240, 'distance_accuracy_value', 'NONE');
#161 = AXIS2_PLACEMENT_3D ( 'NONE', #91, #244, #176 ) ;
#162 = SURFACE_SIDE_STYLE ('',( #248 ) ) ;
#163 = ORIENTED_EDGE ( 'NONE', *, *, #51, .T. ) ;
#164 = ORIENTED_EDGE ( 'NONE', *, *, #103, .F. ) ;
#165 = CONICAL_SURFACE ( 'NONE', #229, 0.003999999999999999216, 0.7853981633974503884 ) ;
#166 = FILL_AREA_STYLE_COLOUR ( '', #241 ) ;
#167 = EDGE_LOOP ( 'NONE', ( #247, #124, #38, #235 ) ) ;
#168 = DIRECTION ( 'NONE',  ( -1.000000000000000000, 0.0000000000000000000, 0.0000000000000000000 ) ) ;
#169 = CIRCLE ( 'NONE', #95, 0.003999999999999999216 ) ;
#170 = DIRECTION ( 'NONE',  ( 1.000000000000000000, 0.0000000000000000000, -0.0000000000000000000 ) ) ;
#171 = EDGE_CURVE ( 'NONE', #142, #23, #169, .T. ) ;
#172 = LINE ( 'NONE', #71, #58 ) ;
#173 = DIRECTION ( 'NONE',  ( -0.7071067811865402453, 0.0000000000000000000, -0.7071067811865546782 ) ) ;
#174 = CIRCLE ( 'NONE', #161, 0.2500000000000000000 ) ;
#175 = CYLINDRICAL_SURFACE ( 'NONE', #178, 0.2500000000000000000 ) ;
#176 = DIRECTION ( 'NONE',  ( 1.000000000000000000, 0.0000000000000000000, 0.0000000000000000000 ) ) ;
#177 =( LENGTH_UNIT ( ) NAMED_UNIT ( * ) SI_UNIT ( $, .METRE. ) );
#178 = AXIS2_PLACEMENT_3D ( 'NONE', #133, #155, #130 ) ;
#179 = EDGE_LOOP ( 'NONE', ( #164, #81, #214, #216 ) ) ;
#180 = EDGE_LOOP ( 'NONE', ( #182, #159 ) ) ;
#181 = CIRCLE ( 'NONE', #43, 0.2350000000000011524 ) ;
#182 = ORIENTED_EDGE ( 'NONE', *, *, #93, .T. ) ;
#183 = CARTESIAN_POINT ( 'NONE',  ( 0.0000000000000000000, 0.0000000000000000000, 0.0000000000000000000 ) ) ;
#184 = EDGE_LOOP ( 'NONE', ( #46, #4, #211, #101 ) ) ;
#185 = EDGE_CURVE ( 'NONE', #232, #28, #198, .T. ) ;
#186 = LINE ( 'NONE', #72, #219 ) ;
#187 = CARTESIAN_POINT ( 'NONE',  ( 0.0000000000000000000, 0.0000000000000000000, 0.0000000000000000000 ) ) ;
#188 = FILL_AREA_STYLE ('',( #166 ) ) ;
#189 = DIRECTION ( 'NONE',  ( -0.0000000000000000000, -0.0000000000000000000, -1.000000000000000000 ) ) ;
#190 =( NAMED_UNIT ( * ) PLANE_ANGLE_UNIT ( ) SI_UNIT ( $, .RADIAN. ) );
#191 = ADVANCED_FACE ( 'NONE', ( #226 ), #63, .T. ) ;
#192 = ADVANCED_FACE ( 'NONE', ( #56 ), #165, .T. ) ;
#193 = DIRECTION ( 'NONE',  ( 0.0000000000000000000, 0.0000000000000000000, 1.000000000000000000 ) ) ;
#194 = AXIS2_PLACEMENT_3D ( 'NONE', #152, #11, #30 ) ;
#195 = CARTESIAN_POINT ( 'NONE',  ( 0.0000000000000000000, 0.0000000000000000000, 3.000000000000000444 ) ) ;
#196 = EDGE_CURVE ( 'NONE', #96, #28, #172, .T. ) ;
#197 = CARTESIAN_POINT ( 'NONE',  ( 0.2500000000000000000, 3.061616997868382402E-17, 0.2459999999999989695 ) ) ;
#198 = CIRCLE ( 'NONE', #246, 0.2500000000000000000 ) ;
#199 = PRODUCT_CONTEXT ( 'NONE', #21, 'mechanical' ) ;
#200 = VECTOR ( 'NONE', #108, 39.37007874015748143 ) ;
#201 = CARTESIAN_POINT ( 'NONE',  ( -0.003999999999999999216, 1.555301434917138211E-17, 0.0000000000000000000 ) ) ;
#202 = DIRECTION ( 'NONE',  ( 1.000000000000000000, 0.0000000000000000000, 0.0000000000000000000 ) ) ;
#203 = CARTESIAN_POINT ( 'NONE',  ( 0.0000000000000000000, 0.0000000000000000000, 2.985000000000001208 ) ) ;
#204 = LENGTH_MEASURE_WITH_UNIT ( LENGTH_MEASURE( 0.02539999999999999897 ), #84 );
#205 = DIRECTION ( 'NONE',  ( -0.0000000000000000000, -0.0000000000000000000, -1.000000000000000000 ) ) ;
#206 = DIRECTION ( 'NONE',  ( 0.0000000000000000000, 0.0000000000000000000, 1.000000000000000000 ) ) ;
#207 = FACE_OUTER_BOUND ( 'NONE', #167, .T. ) ;
#208 = CONICAL_SURFACE ( 'NONE', #215, 0.2350000000000011524, 0.7853981633974380649 ) ;
#209 = DIRECTION ( 'NONE',  ( -0.0000000000000000000, -0.0000000000000000000, -1.000000000000000000 ) ) ;
#210 = FILL_AREA_STYLE ('',( #1 ) ) ;
#211 = ORIENTED_EDGE ( 'NONE', *, *, #123, .F. ) ;
#212 = PRESENTATION_LAYER_ASSIGNMENT (  '', '', ( #109 ) ) ;
#213 = PRODUCT_DEFINITION_CONTEXT ( 'detailed design', #9, 'design' ) ;
#214 = ORIENTED_EDGE ( 'NONE', *, *, #138, .F. ) ;
#215 = AXIS2_PLACEMENT_3D ( 'NONE', #132, #242, #37 ) ;
#216 = ORIENTED_EDGE ( 'NONE', *, *, #148, .F. ) ;
#217 = PLANE ( 'NONE',  #69 ) ;
#218 = CARTESIAN_POINT ( 'NONE',  ( 0.0000000000000000000, 0.0000000000000000000, 3.000000000000000444 ) ) ;
#219 = VECTOR ( 'NONE', #225, 39.37007874015748143 ) ;
#220 = LINE ( 'NONE', #85, #200 ) ;
#221 = DIRECTION ( 'NONE',  ( -0.0000000000000000000, -0.0000000000000000000, -1.000000000000000000 ) ) ;
#222 = PRESENTATION_STYLE_ASSIGNMENT (( #129 ) ) ;
#223 = STYLED_ITEM ( 'NONE', ( #228 ), #89 ) ;
#224 = LENGTH_MEASURE_WITH_UNIT ( LENGTH_MEASURE( 0.02539999999999999897 ), #177 );
#225 = DIRECTION ( 'NONE',  ( -0.0000000000000000000, -0.0000000000000000000, -1.000000000000000000 ) ) ;
#226 = FACE_OUTER_BOUND ( 'NONE', #179, .T. ) ;
#227 = ORIENTED_EDGE ( 'NONE', *, *, #123, .T. ) ;
#228 = PRESENTATION_STYLE_ASSIGNMENT (( #22 ) ) ;
#229 = AXIS2_PLACEMENT_3D ( 'NONE', #94, #87, #135 ) ;
#230 = ORIENTED_EDGE ( 'NONE', *, *, #6, .F. ) ;
#231 = APPLICATION_PROTOCOL_DEFINITION ( 'draft international standard', 'automotive_design', 1998, #21 ) ;
#232 = VERTEX_POINT ( 'NONE', #197 ) ;
#233 = SURFACE_SIDE_STYLE ('',( #236 ) ) ;
#234 = PRODUCT_DEFINITION_SHAPE ( 'NONE', 'NONE',  #61 ) ;
#235 = ORIENTED_EDGE ( 'NONE', *, *, #51, .F. ) ;
#236 = SURFACE_STYLE_FILL_AREA ( #188 ) ;
#237 =( GEOMETRIC_REPRESENTATION_CONTEXT ( 3 ) GLOBAL_UNCERTAINTY_ASSIGNED_CONTEXT ( ( #160 ) ) GLOBAL_UNIT_ASSIGNED_CONTEXT ( ( #240, #190, #97 ) ) REPRESENTATION_CONTEXT ( 'NONE', 'WORKASPACE' ) );
#238 = CARTESIAN_POINT ( 'NONE',  ( 0.2350000000000011524, 2.969768487932338510E-17, 3.000000000000000444 ) ) ;
#239 = LINE ( 'NONE', #66, #27 ) ;
#240 =( CONVERSION_BASED_UNIT ( 'INCH', #224 ) LENGTH_UNIT ( ) NAMED_UNIT ( #40 ) );
#241 = COLOUR_RGB ( '',0.7921568627450980005, 0.8196078431372548767, 0.9333333333333333481 ) ;
#242 = DIRECTION ( 'NONE',  ( 0.0000000000000000000, 0.0000000000000000000, -1.000000000000000000 ) ) ;
#243 = DIRECTION ( 'NONE',  ( -1.000000000000000000, 0.0000000000000000000, 0.0000000000000000000 ) ) ;
#244 = DIRECTION ( 'NONE',  ( 0.0000000000000000000, 0.0000000000000000000, -1.000000000000000000 ) ) ;
#245 = FACE_OUTER_BOUND ( 'NONE', #19, .T. ) ;
#246 = AXIS2_PLACEMENT_3D ( 'NONE', #92, #157, #13 ) ;
#247 = ORIENTED_EDGE ( 'NONE', *, *, #150, .F. ) ;
#248 = SURFACE_STYLE_FILL_AREA ( #210 ) ;
#249 = VERTEX_POINT ( 'NONE', #158 ) ;
ENDSEC;
END-ISO-10303-21;
