ISO-10303-21;
HEADER;
FILE_DESCRIPTION (( 'STEP AP214' ),
    '1' );
FILE_NAME ('01017.STEP',
    '2023-06-22T14:17:46',
    ( '' ),
    ( '' ),
    'SwSTEP 2.0',
    'SolidWorks 2023',
    '' );
FILE_SCHEMA (( 'AUTOMOTIVE_DESIGN' ));
ENDSEC;

DATA;
#1 = PRESENTATION_LAYER_ASSIGNMENT (  '', '', ( #203 ) ) ;
#2 = FILL_AREA_STYLE ('',( #48 ) ) ;
#3 = CYLINDRICAL_SURFACE ( 'NONE', #264, 0.06249999999999967387 ) ;
#4 = MANIFOLD_SOLID_BREP ( 'Revolve - Cutting Edge', #181 ) ;
#5 =( CONVERSION_BASED_UNIT ( 'INCH', #224 ) LENGTH_UNIT ( ) NAMED_UNIT ( #92 ) );
#6 = SURFACE_SIDE_STYLE ('',( #176 ) ) ;
#7 = DIRECTION ( 'NONE',  ( -1.000000000000000000, 0.000000000000000000, 0.000000000000000000 ) ) ;
#8 = ADVANCED_FACE ( 'NONE', ( #248 ), #53, .T. ) ;
#9 = MANIFOLD_SOLID_BREP ( 'Revolve - Tool Body (Straight Shanked)', #292 ) ;
#10 =( GEOMETRIC_REPRESENTATION_CONTEXT ( 3 ) GLOBAL_UNCERTAINTY_ASSIGNED_CONTEXT ( ( #132 ) ) GLOBAL_UNIT_ASSIGNED_CONTEXT ( ( #147, #245, #308 ) ) REPRESENTATION_CONTEXT ( 'NONE', 'WORKASPACE' ) );
#11 = CARTESIAN_POINT ( 'NONE',  ( -1.213184216936841517E-31, 0.2499999999999998057, 0.000000000000000000 ) ) ;
#12 =( NAMED_UNIT ( * ) SI_UNIT ( $, .STERADIAN. ) SOLID_ANGLE_UNIT ( ) );
#13 =( NAMED_UNIT ( * ) PLANE_ANGLE_UNIT ( ) SI_UNIT ( $, .RADIAN. ) );
#14 =( NAMED_UNIT ( * ) PLANE_ANGLE_UNIT ( ) SI_UNIT ( $, .RADIAN. ) );
#15 = VECTOR ( 'NONE', #166, 39.37007874015748143 ) ;
#16 = ORIENTED_EDGE ( 'NONE', *, *, #253, .T. ) ;
#17 = DIRECTION ( 'NONE',  ( -0.000000000000000000, -1.000000000000000000, -0.000000000000000000 ) ) ;
#18 = EDGE_LOOP ( 'NONE', ( #288, #306, #113, #254 ) ) ;
#19 = CARTESIAN_POINT ( 'NONE',  ( 0.000000000000000000, 0.000000000000000000, 0.000000000000000000 ) ) ;
#20 = UNCERTAINTY_MEASURE_WITH_UNIT (LENGTH_MEASURE( 1.000000000000000082E-05 ), #93, 'distance_accuracy_value', 'NONE');
#21 = ORIENTED_EDGE ( 'NONE', *, *, #123, .T. ) ;
#22 = LINE ( 'NONE', #307, #275 ) ;
#23 = COLOUR_RGB ( '',1.000000000000000000, 0.000000000000000000, 0.000000000000000000 ) ;
#24 = VERTEX_POINT ( 'NONE', #121 ) ;
#25 = DIRECTION ( 'NONE',  ( -0.000000000000000000, -1.000000000000000000, -0.000000000000000000 ) ) ;
#26 = SURFACE_STYLE_USAGE ( .BOTH. , #246 ) ;
#27 = DIRECTION ( 'NONE',  ( 0.000000000000000000, 0.000000000000000000, 1.000000000000000000 ) ) ;
#28 = FACE_OUTER_BOUND ( 'NONE', #238, .T. ) ;
#29 = CARTESIAN_POINT ( 'NONE',  ( 0.06250000000000001388, 1.499999999999999778, 0.000000000000000000 ) ) ;
#30 = ADVANCED_FACE ( 'NONE', ( #177 ), #268, .F. ) ;
#31 = CIRCLE ( 'NONE', #127, 0.06250000000000001388 ) ;
#32 = STYLED_ITEM ( 'NONE', ( #137 ), #160 ) ;
#33 = LENGTH_MEASURE_WITH_UNIT ( LENGTH_MEASURE( 0.02539999999999999897 ), #130 );
#34 = PRODUCT ( '01017', '01017', '', ( #185 ) ) ;
#35 =( LENGTH_UNIT ( ) NAMED_UNIT ( * ) SI_UNIT ( $, .METRE. ) );
#36 = ADVANCED_FACE ( 'NONE', ( #293 ), #178, .T. ) ;
#37 = LENGTH_MEASURE_WITH_UNIT ( LENGTH_MEASURE( 0.02539999999999999897 ), #61 );
#38 = DIRECTION ( 'NONE',  ( -0.000000000000000000, -1.000000000000000000, -0.000000000000000000 ) ) ;
#39 = AXIS2_PLACEMENT_3D ( 'NONE', #207, #17, #282 ) ;
#40 = COLOUR_RGB ( '',0.7921568627450980005, 0.8196078431372548767, 0.9333333333333333481 ) ;
#41 = FILL_AREA_STYLE ('',( #304 ) ) ;
#42 = SURFACE_SIDE_STYLE ('',( #167 ) ) ;
#43 = CARTESIAN_POINT ( 'NONE',  ( 7.654042494670959086E-18, 0.2499999999999998057, 0.06250000000000001388 ) ) ;
#44 = DIRECTION ( 'NONE',  ( 5.388445916248354013E-16, 1.000000000000000000, -0.000000000000000000 ) ) ;
#45 = CIRCLE ( 'NONE', #204, 0.06249999999999934081 ) ;
#46 = FACE_OUTER_BOUND ( 'NONE', #301, .T. ) ;
#47 = PRESENTATION_LAYER_ASSIGNMENT (  '', '', ( #249 ) ) ;
#48 = FILL_AREA_STYLE_COLOUR ( '', #152 ) ;
#49 = DIRECTION ( 'NONE',  ( 5.388445916248354013E-16, 1.000000000000000000, -0.000000000000000000 ) ) ;
#50 = EDGE_CURVE ( 'NONE', #211, #141, #234, .T. ) ;
#51 = LENGTH_MEASURE_WITH_UNIT ( LENGTH_MEASURE( 0.02539999999999999897 ), #77 );
#52 = MECHANICAL_DESIGN_GEOMETRIC_PRESENTATION_REPRESENTATION (  '', ( #59 ), #106 ) ;
#53 = CYLINDRICAL_SURFACE ( 'NONE', #65, 0.06250000000000001388 ) ;
#54 = PRODUCT_DEFINITION ( 'UNKNOWN', '', #276, #162 ) ;
#55 = EDGE_CURVE ( 'NONE', #24, #118, #90, .T. ) ;
#56 = FILL_AREA_STYLE ('',( #309 ) ) ;
#57 = AXIS2_PLACEMENT_3D ( 'NONE', #272, #49, #101 ) ;
#58 = CARTESIAN_POINT ( 'NONE',  ( 0.000000000000000000, 0.000000000000000000, 0.000000000000000000 ) ) ;
#59 = STYLED_ITEM ( 'NONE', ( #148 ), #297 ) ;
#60 = MECHANICAL_DESIGN_GEOMETRIC_PRESENTATION_REPRESENTATION (  '', ( #32 ), #247 ) ;
#61 =( LENGTH_UNIT ( ) NAMED_UNIT ( * ) SI_UNIT ( $, .METRE. ) );
#62 = PRESENTATION_STYLE_ASSIGNMENT (( #64 ) ) ;
#63 =( CONVERSION_BASED_UNIT ( 'INCH', #91 ) LENGTH_UNIT ( ) NAMED_UNIT ( #233 ) );
#64 = SURFACE_STYLE_USAGE ( .BOTH. , #42 ) ;
#65 = AXIS2_PLACEMENT_3D ( 'NONE', #175, #194, #153 ) ;
#66 = LINE ( 'NONE', #184, #15 ) ;
#67 = ORIENTED_EDGE ( 'NONE', *, *, #107, .F. ) ;
#68 = EDGE_CURVE ( 'NONE', #86, #24, #302, .T. ) ;
#69 = DIRECTION ( 'NONE',  ( -0.000000000000000000, -1.000000000000000000, -0.000000000000000000 ) ) ;
#70 = ORIENTED_EDGE ( 'NONE', *, *, #232, .T. ) ;
#71 =( NAMED_UNIT ( * ) PLANE_ANGLE_UNIT ( ) SI_UNIT ( $, .RADIAN. ) );
#72 = VECTOR ( 'NONE', #25, 39.37007874015748143 ) ;
#73 = APPLICATION_CONTEXT ( 'automotive_design' ) ;
#74 = DIRECTION ( 'NONE',  ( 5.388445916248354013E-16, 1.000000000000000000, -0.000000000000000000 ) ) ;
#75 = DIRECTION ( 'NONE',  ( 0.000000000000000000, 0.000000000000000000, -1.000000000000000000 ) ) ;
#76 = STYLED_ITEM ( 'NONE', ( #201 ), #36 ) ;
#77 =( LENGTH_UNIT ( ) NAMED_UNIT ( * ) SI_UNIT ( $, .METRE. ) );
#78 = SURFACE_SIDE_STYLE ('',( #228 ) ) ;
#79 = ADVANCED_FACE ( 'NONE', ( #46 ), #218, .T. ) ;
#80 =( GEOMETRIC_REPRESENTATION_CONTEXT ( 3 ) GLOBAL_UNCERTAINTY_ASSIGNED_CONTEXT ( ( #20 ) ) GLOBAL_UNIT_ASSIGNED_CONTEXT ( ( #93, #144, #98 ) ) REPRESENTATION_CONTEXT ( 'NONE', 'WORKASPACE' ) );
#81 =( CONVERSION_BASED_UNIT ( 'INCH', #180 ) LENGTH_UNIT ( ) NAMED_UNIT ( #236 ) );
#82 = EDGE_CURVE ( 'NONE', #118, #24, #131, .T. ) ;
#83 = ORIENTED_EDGE ( 'NONE', *, *, #50, .F. ) ;
#84 = DIRECTION ( 'NONE',  ( 0.000000000000000000, 0.000000000000000000, -1.000000000000000000 ) ) ;
#85 = UNCERTAINTY_MEASURE_WITH_UNIT (LENGTH_MEASURE( 1.000000000000000082E-05 ), #200, 'distance_accuracy_value', 'NONE');
#86 = VERTEX_POINT ( 'NONE', #96 ) ;
#87 = CARTESIAN_POINT ( 'NONE',  ( -1.213184216936841517E-31, 0.2499999999999998057, 0.000000000000000000 ) ) ;
#88 = AXIS2_PLACEMENT_3D ( 'NONE', #259, #278, #161 ) ;
#89 = ORIENTED_EDGE ( 'NONE', *, *, #143, .T. ) ;
#90 = CIRCLE ( 'NONE', #159, 0.06250000000000001388 ) ;
#91 = LENGTH_MEASURE_WITH_UNIT ( LENGTH_MEASURE( 0.02539999999999999897 ), #215 );
#92 = DIMENSIONAL_EXPONENTS ( 1.000000000000000000, 0.000000000000000000, 0.000000000000000000, 0.000000000000000000, 0.000000000000000000, 0.000000000000000000, 0.000000000000000000 ) ;
#93 =( CONVERSION_BASED_UNIT ( 'INCH', #169 ) LENGTH_UNIT ( ) NAMED_UNIT ( #139 ) );
#94 = SURFACE_STYLE_USAGE ( .BOTH. , #210 ) ;
#95 = ORIENTED_EDGE ( 'NONE', *, *, #123, .F. ) ;
#96 = CARTESIAN_POINT ( 'NONE',  ( 0.000000000000000000, 0.2499999999999998057, -0.06250000000000001388 ) ) ;
#97 = MECHANICAL_DESIGN_GEOMETRIC_PRESENTATION_REPRESENTATION (  '', ( #76 ), #163 ) ;
#98 =( NAMED_UNIT ( * ) SI_UNIT ( $, .STERADIAN. ) SOLID_ANGLE_UNIT ( ) );
#99 = FACE_OUTER_BOUND ( 'NONE', #214, .T. ) ;
#100 =( NAMED_UNIT ( * ) PLANE_ANGLE_UNIT ( ) SI_UNIT ( $, .RADIAN. ) );
#101 = DIRECTION ( 'NONE',  ( -1.000000000000000000, 5.388445916248354013E-16, 0.000000000000000000 ) ) ;
#102 = DIRECTION ( 'NONE',  ( 1.000000000000000000, -5.388445916248354013E-16, 0.000000000000000000 ) ) ;
#103 = DIRECTION ( 'NONE',  ( -0.000000000000000000, -1.000000000000000000, -0.000000000000000000 ) ) ;
#104 = SURFACE_SIDE_STYLE ('',( #155 ) ) ;
#105 = DIRECTION ( 'NONE',  ( 5.388445916248354013E-16, 1.000000000000000000, -0.000000000000000000 ) ) ;
#106 =( GEOMETRIC_REPRESENTATION_CONTEXT ( 3 ) GLOBAL_UNCERTAINTY_ASSIGNED_CONTEXT ( ( #280 ) ) GLOBAL_UNIT_ASSIGNED_CONTEXT ( ( #81, #14, #12 ) ) REPRESENTATION_CONTEXT ( 'NONE', 'WORKASPACE' ) );
#107 = EDGE_CURVE ( 'NONE', #141, #258, #22, .T. ) ;
#108 = AXIS2_PLACEMENT_3D ( 'NONE', #242, #191, #212 ) ;
#109 = ORIENTED_EDGE ( 'NONE', *, *, #143, .F. ) ;
#110 = CYLINDRICAL_SURFACE ( 'NONE', #39, 0.06250000000000001388 ) ;
#111 = ORIENTED_EDGE ( 'NONE', *, *, #107, .T. ) ;
#112 = DIRECTION ( 'NONE',  ( -1.000000000000000000, 0.000000000000000000, 0.000000000000000000 ) ) ;
#113 = ORIENTED_EDGE ( 'NONE', *, *, #55, .F. ) ;
#114 = DIRECTION ( 'NONE',  ( 5.388445916248354013E-16, 1.000000000000000000, -0.000000000000000000 ) ) ;
#115 =( LENGTH_UNIT ( ) NAMED_UNIT ( * ) SI_UNIT ( $, .METRE. ) );
#116 = MECHANICAL_DESIGN_GEOMETRIC_PRESENTATION_REPRESENTATION (  '', ( #202 ), #10 ) ;
#117 = SURFACE_STYLE_FILL_AREA ( #41 ) ;
#118 = VERTEX_POINT ( 'NONE', #189 ) ;
#119 = DIRECTION ( 'NONE',  ( -1.000000000000000000, 5.463695987328525451E-16, 0.000000000000000000 ) ) ;
#120 = CARTESIAN_POINT ( 'NONE',  ( -0.06249999999999866773, 1.499999999999999778, 0.000000000000000000 ) ) ;
#121 = CARTESIAN_POINT ( 'NONE',  ( 0.000000000000000000, 0.000000000000000000, -0.06250000000000001388 ) ) ;
#122 =( CONVERSION_BASED_UNIT ( 'INCH', #37 ) LENGTH_UNIT ( ) NAMED_UNIT ( #256 ) );
#123 = EDGE_CURVE ( 'NONE', #235, #86, #173, .T. ) ;
#124 = PRODUCT_RELATED_PRODUCT_CATEGORY ( 'part', '', ( #34 ) ) ;
#125 = DIRECTION ( 'NONE',  ( 5.388445916248354013E-16, 1.000000000000000000, -0.000000000000000000 ) ) ;
#126 = FILL_AREA_STYLE ('',( #251 ) ) ;
#127 = AXIS2_PLACEMENT_3D ( 'NONE', #291, #103, #75 ) ;
#128 = AXIS2_PLACEMENT_3D ( 'NONE', #58, #156, #158 ) ;
#129 = AXIS2_PLACEMENT_3D ( 'NONE', #205, #193, #136 ) ;
#130 =( LENGTH_UNIT ( ) NAMED_UNIT ( * ) SI_UNIT ( $, .METRE. ) );
#131 = CIRCLE ( 'NONE', #305, 0.06250000000000001388 ) ;
#132 = UNCERTAINTY_MEASURE_WITH_UNIT (LENGTH_MEASURE( 1.000000000000000082E-05 ), #147, 'distance_accuracy_value', 'NONE');
#133 = APPLICATION_PROTOCOL_DEFINITION ( 'draft international standard', 'automotive_design', 1998, #73 ) ;
#134 = PRODUCT_DEFINITION_SHAPE ( 'NONE', 'NONE',  #54 ) ;
#135 = AXIS2_PLACEMENT_3D ( 'NONE', #87, #44, #119 ) ;
#136 = DIRECTION ( 'NONE',  ( 0.000000000000000000, -0.000000000000000000, 1.000000000000000000 ) ) ;
#137 = PRESENTATION_STYLE_ASSIGNMENT (( #94 ) ) ;
#138 = ORIENTED_EDGE ( 'NONE', *, *, #55, .T. ) ;
#139 = DIMENSIONAL_EXPONENTS ( 1.000000000000000000, 0.000000000000000000, 0.000000000000000000, 0.000000000000000000, 0.000000000000000000, 0.000000000000000000, 0.000000000000000000 ) ;
#140 = LINE ( 'NONE', #199, #229 ) ;
#141 = VERTEX_POINT ( 'NONE', #244 ) ;
#142 = CARTESIAN_POINT ( 'NONE',  ( 0.06250000000000001388, 1.499999999999999778, 7.654042494670939056E-18 ) ) ;
#143 = EDGE_CURVE ( 'NONE', #141, #211, #289, .T. ) ;
#144 =( NAMED_UNIT ( * ) PLANE_ANGLE_UNIT ( ) SI_UNIT ( $, .RADIAN. ) );
#145 = PRESENTATION_LAYER_ASSIGNMENT (  '', '', ( #202 ) ) ;
#146 = DIRECTION ( 'NONE',  ( 5.388445916248354013E-16, 1.000000000000000000, -0.000000000000000000 ) ) ;
#147 =( CONVERSION_BASED_UNIT ( 'INCH', #51 ) LENGTH_UNIT ( ) NAMED_UNIT ( #216 ) );
#148 = PRESENTATION_STYLE_ASSIGNMENT (( #294 ) ) ;
#149 =( NAMED_UNIT ( * ) SI_UNIT ( $, .STERADIAN. ) SOLID_ANGLE_UNIT ( ) );
#150 = DIRECTION ( 'NONE',  ( 1.000000000000000000, 0.000000000000000000, 0.000000000000000000 ) ) ;
#151 = CIRCLE ( 'NONE', #88, 0.06249999999999934081 ) ;
#152 = COLOUR_RGB ( '',1.000000000000000000, 0.000000000000000000, 0.000000000000000000 ) ;
#153 = DIRECTION ( 'NONE',  ( 0.000000000000000000, 0.000000000000000000, -1.000000000000000000 ) ) ;
#154 = FACE_OUTER_BOUND ( 'NONE', #165, .T. ) ;
#155 = SURFACE_STYLE_FILL_AREA ( #56 ) ;
#156 = DIRECTION ( 'NONE',  ( 0.000000000000000000, -1.000000000000000000, -0.000000000000000000 ) ) ;
#157 = AXIS2_PLACEMENT_3D ( 'NONE', #29, #226, #102 ) ;
#158 = DIRECTION ( 'NONE',  ( 0.000000000000000000, 0.000000000000000000, -1.000000000000000000 ) ) ;
#159 = AXIS2_PLACEMENT_3D ( 'NONE', #170, #69, #263 ) ;
#160 = ADVANCED_FACE ( 'NONE', ( #261 ), #110, .T. ) ;
#161 = DIRECTION ( 'NONE',  ( -1.000000000000000000, 0.000000000000000000, 0.000000000000000000 ) ) ;
#162 = PRODUCT_DEFINITION_CONTEXT ( 'detailed design', #239, 'design' ) ;
#163 =( GEOMETRIC_REPRESENTATION_CONTEXT ( 3 ) GLOBAL_UNCERTAINTY_ASSIGNED_CONTEXT ( ( #85 ) ) GLOBAL_UNIT_ASSIGNED_CONTEXT ( ( #200, #13, #295 ) ) REPRESENTATION_CONTEXT ( 'NONE', 'WORKASPACE' ) );
#164 = SHAPE_DEFINITION_REPRESENTATION ( #134, #227 ) ;
#165 = EDGE_LOOP ( 'NONE', ( #217, #95 ) ) ;
#166 = DIRECTION ( 'NONE',  ( -0.000000000000000000, -1.000000000000000000, -0.000000000000000000 ) ) ;
#167 = SURFACE_STYLE_FILL_AREA ( #284 ) ;
#168 = CARTESIAN_POINT ( 'NONE',  ( 6.735557395310442023E-16, 1.499999999999999778, 0.000000000000000000 ) ) ;
#169 = LENGTH_MEASURE_WITH_UNIT ( LENGTH_MEASURE( 0.02539999999999999897 ), #115 );
#170 = CARTESIAN_POINT ( 'NONE',  ( 0.000000000000000000, 0.000000000000000000, 0.000000000000000000 ) ) ;
#171 = COLOUR_RGB ( '',1.000000000000000000, 0.000000000000000000, 0.000000000000000000 ) ;
#172 = ORIENTED_EDGE ( 'NONE', *, *, #82, .T. ) ;
#173 = CIRCLE ( 'NONE', #108, 0.06250000000000001388 ) ;
#174 = APPLICATION_PROTOCOL_DEFINITION ( 'draft international standard', 'automotive_design', 1998, #239 ) ;
#175 = CARTESIAN_POINT ( 'NONE',  ( 0.000000000000000000, 0.000000000000000000, 0.000000000000000000 ) ) ;
#176 = SURFACE_STYLE_FILL_AREA ( #271 ) ;
#177 = FACE_OUTER_BOUND ( 'NONE', #183, .T. ) ;
#178 = PLANE ( 'NONE',  #128 ) ;
#179 = DIRECTION ( 'NONE',  ( 5.388445916248354013E-16, 1.000000000000000000, -0.000000000000000000 ) ) ;
#180 = LENGTH_MEASURE_WITH_UNIT ( LENGTH_MEASURE( 0.02539999999999999897 ), #35 );
#181 = CLOSED_SHELL ( 'NONE', ( #8, #297, #160, #36 ) ) ;
#182 = COLOUR_RGB ( '',1.000000000000000000, 0.000000000000000000, 0.000000000000000000 ) ;
#183 = EDGE_LOOP ( 'NONE', ( #303, #70 ) ) ;
#184 = CARTESIAN_POINT ( 'NONE',  ( 7.654042494670959086E-18, 0.000000000000000000, 0.06250000000000001388 ) ) ;
#185 = PRODUCT_CONTEXT ( 'NONE', #73, 'mechanical' ) ;
#186 = ORIENTED_EDGE ( 'NONE', *, *, #50, .T. ) ;
#187 = AXIS2_PLACEMENT_3D ( 'NONE', #11, #105, #240 ) ;
#188 = ORIENTED_EDGE ( 'NONE', *, *, #82, .F. ) ;
#189 = CARTESIAN_POINT ( 'NONE',  ( 7.654042494670959086E-18, 0.000000000000000000, 0.06250000000000001388 ) ) ;
#190 = ORIENTED_EDGE ( 'NONE', *, *, #68, .T. ) ;
#191 = DIRECTION ( 'NONE',  ( -0.000000000000000000, -1.000000000000000000, -0.000000000000000000 ) ) ;
#192 =( GEOMETRIC_REPRESENTATION_CONTEXT ( 3 ) GLOBAL_UNCERTAINTY_ASSIGNED_CONTEXT ( ( #208 ) ) GLOBAL_UNIT_ASSIGNED_CONTEXT ( ( #5, #100, #149 ) ) REPRESENTATION_CONTEXT ( 'NONE', 'WORKASPACE' ) );
#193 = DIRECTION ( 'NONE',  ( 0.000000000000000000, 1.000000000000000000, 0.000000000000000000 ) ) ;
#194 = DIRECTION ( 'NONE',  ( -0.000000000000000000, -1.000000000000000000, -0.000000000000000000 ) ) ;
#195 = PLANE ( 'NONE',  #57 ) ;
#196 = CARTESIAN_POINT ( 'NONE',  ( 6.735557395310442023E-16, 1.499999999999999778, 0.000000000000000000 ) ) ;
#197 = SURFACE_STYLE_FILL_AREA ( #2 ) ;
#198 = PRESENTATION_LAYER_ASSIGNMENT (  '', '', ( #32 ) ) ;
#199 = CARTESIAN_POINT ( 'NONE',  ( 0.06250000000000034694, 1.499999999999999778, 7.654042494670917485E-18 ) ) ;
#200 =( CONVERSION_BASED_UNIT ( 'INCH', #33 ) LENGTH_UNIT ( ) NAMED_UNIT ( #285 ) );
#201 = PRESENTATION_STYLE_ASSIGNMENT (( #252 ) ) ;
#202 = STYLED_ITEM ( 'NONE', ( #273 ), #8 ) ;
#203 = STYLED_ITEM ( 'NONE', ( #62 ), #4 ) ;
#204 = AXIS2_PLACEMENT_3D ( 'NONE', #196, #74, #220 ) ;
#205 = CARTESIAN_POINT ( 'NONE',  ( 0.000000000000000000, 0.2499999999999998057, 0.000000000000000000 ) ) ;
#206 = VERTEX_POINT ( 'NONE', #142 ) ;
#207 = CARTESIAN_POINT ( 'NONE',  ( 0.000000000000000000, 0.000000000000000000, 0.000000000000000000 ) ) ;
#208 = UNCERTAINTY_MEASURE_WITH_UNIT (LENGTH_MEASURE( 1.000000000000000082E-05 ), #5, 'distance_accuracy_value', 'NONE');
#209 = EDGE_LOOP ( 'NONE', ( #138, #172 ) ) ;
#210 = SURFACE_SIDE_STYLE ('',( #117 ) ) ;
#211 = VERTEX_POINT ( 'NONE', #299 ) ;
#212 = DIRECTION ( 'NONE',  ( 0.000000000000000000, 0.000000000000000000, -1.000000000000000000 ) ) ;
#213 = MECHANICAL_DESIGN_GEOMETRIC_PRESENTATION_REPRESENTATION (  '', ( #203 ), #80 ) ;
#214 = EDGE_LOOP ( 'NONE', ( #109, #83 ) ) ;
#215 =( LENGTH_UNIT ( ) NAMED_UNIT ( * ) SI_UNIT ( $, .METRE. ) );
#216 = DIMENSIONAL_EXPONENTS ( 1.000000000000000000, 0.000000000000000000, 0.000000000000000000, 0.000000000000000000, 0.000000000000000000, 0.000000000000000000, 0.000000000000000000 ) ;
#217 = ORIENTED_EDGE ( 'NONE', *, *, #277, .F. ) ;
#218 = CYLINDRICAL_SURFACE ( 'NONE', #298, 0.06249999999999967387 ) ;
#219 = FILL_AREA_STYLE_COLOUR ( '', #40 ) ;
#220 = DIRECTION ( 'NONE',  ( -1.000000000000000000, 0.000000000000000000, 0.000000000000000000 ) ) ;
#221 =( GEOMETRIC_REPRESENTATION_CONTEXT ( 3 ) GLOBAL_UNCERTAINTY_ASSIGNED_CONTEXT ( ( #230 ) ) GLOBAL_UNIT_ASSIGNED_CONTEXT ( ( #122, #223, #237 ) ) REPRESENTATION_CONTEXT ( 'NONE', 'WORKASPACE' ) );
#222 = PRESENTATION_STYLE_ASSIGNMENT (( #267 ) ) ;
#223 =( NAMED_UNIT ( * ) PLANE_ANGLE_UNIT ( ) SI_UNIT ( $, .RADIAN. ) );
#224 = LENGTH_MEASURE_WITH_UNIT ( LENGTH_MEASURE( 0.02539999999999999897 ), #290 );
#225 = CARTESIAN_POINT ( 'NONE',  ( 6.735557395310442023E-16, 1.499999999999999778, 0.000000000000000000 ) ) ;
#226 = DIRECTION ( 'NONE',  ( -5.388445916248354013E-16, -1.000000000000000000, 0.000000000000000000 ) ) ;
#227 = ADVANCED_BREP_SHAPE_REPRESENTATION ( '01017', ( #4, #9, #296 ), #221 ) ;
#228 = SURFACE_STYLE_FILL_AREA ( #126 ) ;
#229 = VECTOR ( 'NONE', #179, 39.37007874015748143 ) ;
#230 = UNCERTAINTY_MEASURE_WITH_UNIT (LENGTH_MEASURE( 1.000000000000000082E-05 ), #122, 'distance_accuracy_value', 'NONE');
#231 = EDGE_CURVE ( 'NONE', #235, #118, #66, .T. ) ;
#232 = EDGE_CURVE ( 'NONE', #206, #258, #151, .T. ) ;
#233 = DIMENSIONAL_EXPONENTS ( 1.000000000000000000, 0.000000000000000000, 0.000000000000000000, 0.000000000000000000, 0.000000000000000000, 0.000000000000000000, 0.000000000000000000 ) ;
#234 = CIRCLE ( 'NONE', #187, 0.06250000000000001388 ) ;
#235 = VERTEX_POINT ( 'NONE', #43 ) ;
#236 = DIMENSIONAL_EXPONENTS ( 1.000000000000000000, 0.000000000000000000, 0.000000000000000000, 0.000000000000000000, 0.000000000000000000, 0.000000000000000000, 0.000000000000000000 ) ;
#237 =( NAMED_UNIT ( * ) SI_UNIT ( $, .STERADIAN. ) SOLID_ANGLE_UNIT ( ) );
#238 = EDGE_LOOP ( 'NONE', ( #262, #186, #111, #243 ) ) ;
#239 = APPLICATION_CONTEXT ( 'automotive_design' ) ;
#240 = DIRECTION ( 'NONE',  ( -1.000000000000000000, 5.463695987328525451E-16, 0.000000000000000000 ) ) ;
#241 = ORIENTED_EDGE ( 'NONE', *, *, #279, .F. ) ;
#242 = CARTESIAN_POINT ( 'NONE',  ( 0.000000000000000000, 0.2499999999999998057, 0.000000000000000000 ) ) ;
#243 = ORIENTED_EDGE ( 'NONE', *, *, #232, .F. ) ;
#244 = CARTESIAN_POINT ( 'NONE',  ( -0.06250000000000001388, 0.2499999999999998335, 0.000000000000000000 ) ) ;
#245 =( NAMED_UNIT ( * ) PLANE_ANGLE_UNIT ( ) SI_UNIT ( $, .RADIAN. ) );
#246 = SURFACE_SIDE_STYLE ('',( #197 ) ) ;
#247 =( GEOMETRIC_REPRESENTATION_CONTEXT ( 3 ) GLOBAL_UNCERTAINTY_ASSIGNED_CONTEXT ( ( #260 ) ) GLOBAL_UNIT_ASSIGNED_CONTEXT ( ( #63, #71, #286 ) ) REPRESENTATION_CONTEXT ( 'NONE', 'WORKASPACE' ) );
#248 = FACE_OUTER_BOUND ( 'NONE', #18, .T. ) ;
#249 = STYLED_ITEM ( 'NONE', ( #222 ), #9 ) ;
#250 = PLANE ( 'NONE',  #129 ) ;
#251 = FILL_AREA_STYLE_COLOUR ( '', #182 ) ;
#252 = SURFACE_STYLE_USAGE ( .BOTH. , #78 ) ;
#253 = EDGE_CURVE ( 'NONE', #211, #206, #140, .T. ) ;
#254 = ORIENTED_EDGE ( 'NONE', *, *, #68, .F. ) ;
#255 = CARTESIAN_POINT ( 'NONE',  ( 0.000000000000000000, 0.000000000000000000, -0.06250000000000001388 ) ) ;
#256 = DIMENSIONAL_EXPONENTS ( 1.000000000000000000, 0.000000000000000000, 0.000000000000000000, 0.000000000000000000, 0.000000000000000000, 0.000000000000000000, 0.000000000000000000 ) ;
#257 = MECHANICAL_DESIGN_GEOMETRIC_PRESENTATION_REPRESENTATION (  '', ( #249 ), #192 ) ;
#258 = VERTEX_POINT ( 'NONE', #120 ) ;
#259 = CARTESIAN_POINT ( 'NONE',  ( 6.735557395310442023E-16, 1.499999999999999778, 0.000000000000000000 ) ) ;
#260 = UNCERTAINTY_MEASURE_WITH_UNIT (LENGTH_MEASURE( 1.000000000000000082E-05 ), #63, 'distance_accuracy_value', 'NONE');
#261 = FACE_OUTER_BOUND ( 'NONE', #266, .T. ) ;
#262 = ORIENTED_EDGE ( 'NONE', *, *, #253, .F. ) ;
#263 = DIRECTION ( 'NONE',  ( 0.000000000000000000, 0.000000000000000000, -1.000000000000000000 ) ) ;
#264 = AXIS2_PLACEMENT_3D ( 'NONE', #225, #125, #7 ) ;
#265 = PRESENTATION_LAYER_ASSIGNMENT (  '', '', ( #59 ) ) ;
#266 = EDGE_LOOP ( 'NONE', ( #287, #21, #190, #188 ) ) ;
#267 = SURFACE_STYLE_USAGE ( .BOTH. , #6 ) ;
#268 = PLANE ( 'NONE',  #157 ) ;
#269 = COLOUR_RGB ( '',0.7921568627450980005, 0.8196078431372548767, 0.9333333333333333481 ) ;
#270 = ADVANCED_FACE ( 'NONE', ( #28 ), #3, .T. ) ;
#271 = FILL_AREA_STYLE ('',( #219 ) ) ;
#272 = CARTESIAN_POINT ( 'NONE',  ( 9.073546685104240443E-33, 0.2499999999999998057, 0.000000000000000000 ) ) ;
#273 = PRESENTATION_STYLE_ASSIGNMENT (( #26 ) ) ;
#274 = ADVANCED_FACE ( 'NONE', ( #99 ), #195, .F. ) ;
#275 = VECTOR ( 'NONE', #114, 39.37007874015748143 ) ;
#276 = PRODUCT_DEFINITION_FORMATION_WITH_SPECIFIED_SOURCE ( 'ANY', '', #34, .NOT_KNOWN. ) ;
#277 = EDGE_CURVE ( 'NONE', #86, #235, #31, .T. ) ;
#278 = DIRECTION ( 'NONE',  ( 5.388445916248354013E-16, 1.000000000000000000, -0.000000000000000000 ) ) ;
#279 = EDGE_CURVE ( 'NONE', #258, #206, #45, .T. ) ;
#280 = UNCERTAINTY_MEASURE_WITH_UNIT (LENGTH_MEASURE( 1.000000000000000082E-05 ), #81, 'distance_accuracy_value', 'NONE');
#281 = FILL_AREA_STYLE_COLOUR ( '', #269 ) ;
#282 = DIRECTION ( 'NONE',  ( 0.000000000000000000, 0.000000000000000000, -1.000000000000000000 ) ) ;
#283 = PRESENTATION_LAYER_ASSIGNMENT (  '', '', ( #76 ) ) ;
#284 = FILL_AREA_STYLE ('',( #281 ) ) ;
#285 = DIMENSIONAL_EXPONENTS ( 1.000000000000000000, 0.000000000000000000, 0.000000000000000000, 0.000000000000000000, 0.000000000000000000, 0.000000000000000000, 0.000000000000000000 ) ;
#286 =( NAMED_UNIT ( * ) SI_UNIT ( $, .STERADIAN. ) SOLID_ANGLE_UNIT ( ) );
#287 = ORIENTED_EDGE ( 'NONE', *, *, #231, .F. ) ;
#288 = ORIENTED_EDGE ( 'NONE', *, *, #277, .T. ) ;
#289 = CIRCLE ( 'NONE', #135, 0.06250000000000001388 ) ;
#290 =( LENGTH_UNIT ( ) NAMED_UNIT ( * ) SI_UNIT ( $, .METRE. ) );
#291 = CARTESIAN_POINT ( 'NONE',  ( 0.000000000000000000, 0.2499999999999998057, 0.000000000000000000 ) ) ;
#292 = CLOSED_SHELL ( 'NONE', ( #79, #274, #270, #30 ) ) ;
#293 = FACE_OUTER_BOUND ( 'NONE', #209, .T. ) ;
#294 = SURFACE_STYLE_USAGE ( .BOTH. , #104 ) ;
#295 =( NAMED_UNIT ( * ) SI_UNIT ( $, .STERADIAN. ) SOLID_ANGLE_UNIT ( ) );
#296 = AXIS2_PLACEMENT_3D ( 'NONE', #300, #27, #150 ) ;
#297 = ADVANCED_FACE ( 'NONE', ( #154 ), #250, .T. ) ;
#298 = AXIS2_PLACEMENT_3D ( 'NONE', #168, #146, #112 ) ;
#299 = CARTESIAN_POINT ( 'NONE',  ( 0.06250000000000001388, 0.2499999999999997502, 7.654042494670939056E-18 ) ) ;
#300 = CARTESIAN_POINT ( 'NONE',  ( 0.000000000000000000, 0.000000000000000000, 0.000000000000000000 ) ) ;
#301 = EDGE_LOOP ( 'NONE', ( #89, #16, #241, #67 ) ) ;
#302 = LINE ( 'NONE', #255, #72 ) ;
#303 = ORIENTED_EDGE ( 'NONE', *, *, #279, .T. ) ;
#304 = FILL_AREA_STYLE_COLOUR ( '', #23 ) ;
#305 = AXIS2_PLACEMENT_3D ( 'NONE', #19, #38, #84 ) ;
#306 = ORIENTED_EDGE ( 'NONE', *, *, #231, .T. ) ;
#307 = CARTESIAN_POINT ( 'NONE',  ( -0.06249999999999900080, 1.499999999999999778, 0.000000000000000000 ) ) ;
#308 =( NAMED_UNIT ( * ) SI_UNIT ( $, .STERADIAN. ) SOLID_ANGLE_UNIT ( ) );
#309 = FILL_AREA_STYLE_COLOUR ( '', #171 ) ;
ENDSEC;
END-ISO-10303-21;
