ISO-10303-21;
HEADER;
FILE_DESCRIPTION (( 'STEP AP214' ),
    '1' );
FILE_NAME ('59597.STEP',
    '2023-07-24T15:13:56',
    ( '' ),
    ( '' ),
    'SwSTEP 2.0',
    'SolidWorks 2023',
    '' );
FILE_SCHEMA (( 'AUTOMOTIVE_DESIGN' ));
ENDSEC;

DATA;
#1 =( NAMED_UNIT ( * ) SI_UNIT ( $, .STERADIAN. ) SOLID_ANGLE_UNIT ( ) );
#2 =( NAMED_UNIT ( * ) SI_UNIT ( $, .STERADIAN. ) SOLID_ANGLE_UNIT ( ) );
#3 = EDGE_CURVE ( 'NONE', #57, #32, #240, .T. ) ;
#4 = AXIS2_PLACEMENT_3D ( 'NONE', #15, #338, #186 ) ;
#5 = PRESENTATION_STYLE_ASSIGNMENT (( #33 ) ) ;
#6 = PRESENTATION_STYLE_ASSIGNMENT (( #65 ) ) ;
#7 = EDGE_LOOP ( 'NONE', ( #204, #323 ) ) ;
#8 = ORIENTED_EDGE ( 'NONE', *, *, #364, .T. ) ;
#9 = PRODUCT ( '59597', '59597', '', ( #75 ) ) ;
#10 = AXIS2_PLACEMENT_3D ( 'NONE', #129, #236, #362 ) ;
#11 = CARTESIAN_POINT ( 'NONE',  ( -3.999999999999991562, 63.00000000000000000, 0.000000000000000000 ) ) ;
#12 = PRODUCT_DEFINITION_FORMATION_WITH_SPECIFIED_SOURCE ( 'ANY', '', #9, .NOT_KNOWN. ) ;
#13 =( NAMED_UNIT ( * ) PLANE_ANGLE_UNIT ( ) SI_UNIT ( $, .RADIAN. ) );
#14 =( NAMED_UNIT ( * ) SI_UNIT ( $, .STERADIAN. ) SOLID_ANGLE_UNIT ( ) );
#15 = CARTESIAN_POINT ( 'NONE',  ( 0.000000000000000000, 1.000000000000000000, 0.000000000000000000 ) ) ;
#16 = EDGE_CURVE ( 'NONE', #342, #289, #343, .T. ) ;
#17 =( LENGTH_UNIT ( ) NAMED_UNIT ( * ) SI_UNIT ( .MILLI., .METRE. ) );
#18 = PRESENTATION_LAYER_ASSIGNMENT (  '', '', ( #278 ) ) ;
#19 = AXIS2_PLACEMENT_3D ( 'NONE', #225, #222, #341 ) ;
#20 = ADVANCED_FACE ( 'NONE', ( #183 ), #42, .T. ) ;
#21 = SURFACE_SIDE_STYLE ('',( #168 ) ) ;
#22 = FILL_AREA_STYLE_COLOUR ( '', #365 ) ;
#23 = ORIENTED_EDGE ( 'NONE', *, *, #95, .F. ) ;
#24 = AXIS2_PLACEMENT_3D ( 'NONE', #48, #337, #297 ) ;
#25 = PLANE ( 'NONE',  #219 ) ;
#26 = ORIENTED_EDGE ( 'NONE', *, *, #237, .F. ) ;
#27 = UNCERTAINTY_MEASURE_WITH_UNIT (LENGTH_MEASURE( 1.000000000000000082E-05 ), #79, 'distance_accuracy_value', 'NONE');
#28 = CARTESIAN_POINT ( 'NONE',  ( 0.000000000000000000, 0.000000000000000000, -4.000000000000000000 ) ) ;
#29 = AXIS2_PLACEMENT_3D ( 'NONE', #215, #50, #336 ) ;
#30 = PRESENTATION_LAYER_ASSIGNMENT (  '', '', ( #287 ) ) ;
#31 = CARTESIAN_POINT ( 'NONE',  ( 0.000000000000000000, 16.00000000000000000, 0.000000000000000000 ) ) ;
#32 = VERTEX_POINT ( 'NONE', #124 ) ;
#33 = SURFACE_STYLE_USAGE ( .BOTH. , #62 ) ;
#34 = SURFACE_SIDE_STYLE ('',( #321 ) ) ;
#35 = UNCERTAINTY_MEASURE_WITH_UNIT (LENGTH_MEASURE( 1.000000000000000082E-05 ), #17, 'distance_accuracy_value', 'NONE');
#36 = CIRCLE ( 'NONE', #103, 3.999999999999994227 ) ;
#37 = FILL_AREA_STYLE_COLOUR ( '', #88 ) ;
#38 = VERTEX_POINT ( 'NONE', #282 ) ;
#39 = SURFACE_STYLE_FILL_AREA ( #348 ) ;
#40 = PLANE ( 'NONE',  #145 ) ;
#41 = DIRECTION ( 'NONE',  ( -0.000000000000000000, -1.000000000000000000, -0.000000000000000000 ) ) ;
#42 = TOROIDAL_SURFACE ( 'NONE', #10, 3.000000000000000000, 1.000000000000000000 ) ;
#43 = MECHANICAL_DESIGN_GEOMETRIC_PRESENTATION_REPRESENTATION (  '', ( #315 ), #224 ) ;
#44 = CARTESIAN_POINT ( 'NONE',  ( 0.000000000000000000, 0.000000000000000000, 0.000000000000000000 ) ) ;
#45 = DIRECTION ( 'NONE',  ( -0.000000000000000000, -1.000000000000000000, -0.000000000000000000 ) ) ;
#46 = ADVANCED_FACE ( 'NONE', ( #334 ), #114, .T. ) ;
#47 = DIRECTION ( 'NONE',  ( -1.000000000000000000, 0.000000000000000000, 0.000000000000000000 ) ) ;
#48 = CARTESIAN_POINT ( 'NONE',  ( 4.000000000000000000, 63.00000000000000000, 0.000000000000000000 ) ) ;
#49 = APPLICATION_PROTOCOL_DEFINITION ( 'draft international standard', 'automotive_design', 1998, #357 ) ;
#50 = DIRECTION ( 'NONE',  ( -5.682149050294907483E-17, 1.000000000000000000, -0.000000000000000000 ) ) ;
#51 = LINE ( 'NONE', #28, #78 ) ;
#52 = CARTESIAN_POINT ( 'NONE',  ( 0.000000000000000000, 0.000000000000000000, -3.000000000000000000 ) ) ;
#53 = ORIENTED_EDGE ( 'NONE', *, *, #262, .F. ) ;
#54 =( NAMED_UNIT ( * ) PLANE_ANGLE_UNIT ( ) SI_UNIT ( $, .RADIAN. ) );
#55 = ORIENTED_EDGE ( 'NONE', *, *, #320, .F. ) ;
#56 = CIRCLE ( 'NONE', #150, 3.000000000000000000 ) ;
#57 = VERTEX_POINT ( 'NONE', #83 ) ;
#58 = PLANE ( 'NONE',  #110 ) ;
#59 = ORIENTED_EDGE ( 'NONE', *, *, #213, .T. ) ;
#60 = SURFACE_STYLE_USAGE ( .BOTH. , #97 ) ;
#61 = ORIENTED_EDGE ( 'NONE', *, *, #16, .F. ) ;
#62 = SURFACE_SIDE_STYLE ('',( #39 ) ) ;
#63 =( NAMED_UNIT ( * ) PLANE_ANGLE_UNIT ( ) SI_UNIT ( $, .RADIAN. ) );
#64 = ORIENTED_EDGE ( 'NONE', *, *, #237, .T. ) ;
#65 = SURFACE_STYLE_USAGE ( .BOTH. , #203 ) ;
#66 = EDGE_CURVE ( 'NONE', #193, #267, #223, .T. ) ;
#67 = ORIENTED_EDGE ( 'NONE', *, *, #187, .T. ) ;
#68 = CLOSED_SHELL ( 'NONE', ( #76, #351, #84, #330 ) ) ;
#69 = COLOUR_RGB ( '',0.7921568627450980005, 0.8196078431372548767, 0.9333333333333333481 ) ;
#70 = FILL_AREA_STYLE_COLOUR ( '', #141 ) ;
#71 = DIRECTION ( 'NONE',  ( -0.000000000000000000, -1.000000000000000000, -0.000000000000000000 ) ) ;
#72 = FACE_OUTER_BOUND ( 'NONE', #181, .T. ) ;
#73 = CARTESIAN_POINT ( 'NONE',  ( 0.000000000000000000, 0.000000000000000000, 0.000000000000000000 ) ) ;
#74 = UNCERTAINTY_MEASURE_WITH_UNIT (LENGTH_MEASURE( 1.000000000000000082E-05 ), #100, 'distance_accuracy_value', 'NONE');
#75 = PRODUCT_CONTEXT ( 'NONE', #357, 'mechanical' ) ;
#76 = ADVANCED_FACE ( 'NONE', ( #271 ), #304, .T. ) ;
#77 = AXIS2_PLACEMENT_3D ( 'NONE', #73, #184, #162 ) ;
#78 = VECTOR ( 'NONE', #191, 1000.000000000000000 ) ;
#79 =( LENGTH_UNIT ( ) NAMED_UNIT ( * ) SI_UNIT ( .MILLI., .METRE. ) );
#80 = CARTESIAN_POINT ( 'NONE',  ( 0.000000000000000000, 0.000000000000000000, 0.000000000000000000 ) ) ;
#81 = FACE_OUTER_BOUND ( 'NONE', #122, .T. ) ;
#82 = CARTESIAN_POINT ( 'NONE',  ( 3.184081677783117402E-15, 63.00000000000000000, 0.000000000000000000 ) ) ;
#83 = CARTESIAN_POINT ( 'NONE',  ( 0.000000000000000000, 16.00000000000000000, -4.000000000000000000 ) ) ;
#84 = ADVANCED_FACE ( 'NONE', ( #81 ), #275, .T. ) ;
#85 = MECHANICAL_DESIGN_GEOMETRIC_PRESENTATION_REPRESENTATION (  '', ( #278 ), #259 ) ;
#86 = MECHANICAL_DESIGN_GEOMETRIC_PRESENTATION_REPRESENTATION (  '', ( #207 ), #116 ) ;
#87 = DIRECTION ( 'NONE',  ( -0.000000000000000000, -1.000000000000000000, -0.000000000000000000 ) ) ;
#88 = COLOUR_RGB ( '',1.000000000000000000, 0.000000000000000000, 0.000000000000000000 ) ;
#89 = CARTESIAN_POINT ( 'NONE',  ( 4.286263797015736595E-16, 0.000000000000000000, 3.000000000000000000 ) ) ;
#90 = FACE_OUTER_BOUND ( 'NONE', #7, .T. ) ;
#91 = MECHANICAL_DESIGN_GEOMETRIC_PRESENTATION_REPRESENTATION (  '', ( #287 ), #260 ) ;
#92 = CARTESIAN_POINT ( 'NONE',  ( 3.999999999999998224, 63.00000000000000000, 4.898587196589406912E-16 ) ) ;
#93 = EDGE_LOOP ( 'NONE', ( #317, #206 ) ) ;
#94 = CYLINDRICAL_SURFACE ( 'NONE', #160, 4.000000000000000000 ) ;
#95 = EDGE_CURVE ( 'NONE', #32, #342, #164, .T. ) ;
#96 = UNCERTAINTY_MEASURE_WITH_UNIT (LENGTH_MEASURE( 1.000000000000000082E-05 ), #252, 'distance_accuracy_value', 'NONE');
#97 = SURFACE_SIDE_STYLE ('',( #157 ) ) ;
#98 = UNCERTAINTY_MEASURE_WITH_UNIT (LENGTH_MEASURE( 1.000000000000000082E-05 ), #229, 'distance_accuracy_value', 'NONE');
#99 = SURFACE_STYLE_FILL_AREA ( #205 ) ;
#100 =( LENGTH_UNIT ( ) NAMED_UNIT ( * ) SI_UNIT ( .MILLI., .METRE. ) );
#101 = ORIENTED_EDGE ( 'NONE', *, *, #364, .F. ) ;
#102 = AXIS2_PLACEMENT_3D ( 'NONE', #44, #41, #306 ) ;
#103 = AXIS2_PLACEMENT_3D ( 'NONE', #366, #220, #363 ) ;
#104 = AXIS2_PLACEMENT_3D ( 'NONE', #80, #354, #105 ) ;
#105 = DIRECTION ( 'NONE',  ( 1.000000000000000000, 0.000000000000000000, 0.000000000000000000 ) ) ;
#106 = ORIENTED_EDGE ( 'NONE', *, *, #262, .T. ) ;
#107 = DIRECTION ( 'NONE',  ( -1.224646799147352961E-16, 0.000000000000000000, -1.000000000000000000 ) ) ;
#108 = CARTESIAN_POINT ( 'NONE',  ( 4.000000000000000000, 16.00000000000000000, 4.898587196589407898E-16 ) ) ;
#109 = SURFACE_SIDE_STYLE ('',( #245 ) ) ;
#110 = AXIS2_PLACEMENT_3D ( 'NONE', #340, #311, #261 ) ;
#111 = DIRECTION ( 'NONE',  ( -5.682149050294907483E-17, 1.000000000000000000, -0.000000000000000000 ) ) ;
#112 = CARTESIAN_POINT ( 'NONE',  ( 3.673940397442059868E-16, 1.000000000000000000, 3.000000000000000000 ) ) ;
#113 = CARTESIAN_POINT ( 'NONE',  ( 3.184081677783117402E-15, 63.00000000000000000, 0.000000000000000000 ) ) ;
#114 = CYLINDRICAL_SURFACE ( 'NONE', #102, 4.000000000000000000 ) ;
#115 =( GEOMETRIC_REPRESENTATION_CONTEXT ( 3 ) GLOBAL_UNCERTAINTY_ASSIGNED_CONTEXT ( ( #27 ) ) GLOBAL_UNIT_ASSIGNED_CONTEXT ( ( #79, #360, #251 ) ) REPRESENTATION_CONTEXT ( 'NONE', 'WORKASPACE' ) );
#116 =( GEOMETRIC_REPRESENTATION_CONTEXT ( 3 ) GLOBAL_UNCERTAINTY_ASSIGNED_CONTEXT ( ( #98 ) ) GLOBAL_UNIT_ASSIGNED_CONTEXT ( ( #229, #177, #14 ) ) REPRESENTATION_CONTEXT ( 'NONE', 'WORKASPACE' ) );
#117 = DIRECTION ( 'NONE',  ( 0.000000000000000000, 0.000000000000000000, -1.000000000000000000 ) ) ;
#118 =( NAMED_UNIT ( * ) SI_UNIT ( $, .STERADIAN. ) SOLID_ANGLE_UNIT ( ) );
#119 = ORIENTED_EDGE ( 'NONE', *, *, #134, .T. ) ;
#120 = APPLICATION_CONTEXT ( 'automotive_design' ) ;
#121 = CARTESIAN_POINT ( 'NONE',  ( 0.000000000000000000, 0.000000000000000000, 0.000000000000000000 ) ) ;
#122 = EDGE_LOOP ( 'NONE', ( #53, #67, #8, #367 ) ) ;
#123 = PRESENTATION_LAYER_ASSIGNMENT (  '', '', ( #279 ) ) ;
#124 = CARTESIAN_POINT ( 'NONE',  ( 4.898587196589412829E-16, 16.00000000000000000, 4.000000000000000000 ) ) ;
#125 =( NAMED_UNIT ( * ) PLANE_ANGLE_UNIT ( ) SI_UNIT ( $, .RADIAN. ) );
#126 = ORIENTED_EDGE ( 'NONE', *, *, #139, .T. ) ;
#127 = CIRCLE ( 'NONE', #308, 1.000000000000000000 ) ;
#128 = VECTOR ( 'NONE', #246, 1000.000000000000000 ) ;
#129 = CARTESIAN_POINT ( 'NONE',  ( 0.000000000000000000, 1.000000000000000000, 0.000000000000000000 ) ) ;
#130 = SURFACE_STYLE_USAGE ( .BOTH. , #34 ) ;
#131 = ORIENTED_EDGE ( 'NONE', *, *, #325, .F. ) ;
#132 = AXIS2_PLACEMENT_3D ( 'NONE', #152, #230, #370 ) ;
#133 = CIRCLE ( 'NONE', #243, 3.999999999999996447 ) ;
#134 = EDGE_CURVE ( 'NONE', #289, #267, #127, .T. ) ;
#135 = PRESENTATION_STYLE_ASSIGNMENT (( #329 ) ) ;
#136 = PRODUCT_DEFINITION_SHAPE ( 'NONE', 'NONE',  #295 ) ;
#137 = PRODUCT_DEFINITION_CONTEXT ( 'detailed design', #120, 'design' ) ;
#138 = DIRECTION ( 'NONE',  ( -5.682149050294907483E-17, 1.000000000000000000, -0.000000000000000000 ) ) ;
#139 = EDGE_CURVE ( 'NONE', #289, #342, #171, .T. ) ;
#140 = CLOSED_SHELL ( 'NONE', ( #46, #20, #255, #148, #290, #280 ) ) ;
#141 = COLOUR_RGB ( '',0.7921568627450980005, 0.8196078431372548767, 0.9333333333333333481 ) ;
#142 = FILL_AREA_STYLE ('',( #159 ) ) ;
#143 = CIRCLE ( 'NONE', #349, 3.999999999999996447 ) ;
#144 = DIRECTION ( 'NONE',  ( -5.682149050294907483E-17, 1.000000000000000000, -0.000000000000000000 ) ) ;
#145 = AXIS2_PLACEMENT_3D ( 'NONE', #249, #216, #239 ) ;
#146 = SURFACE_SIDE_STYLE ('',( #316 ) ) ;
#147 = VERTEX_POINT ( 'NONE', #108 ) ;
#148 = ADVANCED_FACE ( 'NONE', ( #332 ), #175, .T. ) ;
#149 = PRESENTATION_LAYER_ASSIGNMENT (  '', '', ( #265 ) ) ;
#150 = AXIS2_PLACEMENT_3D ( 'NONE', #121, #169, #117 ) ;
#151 = FILL_AREA_STYLE_COLOUR ( '', #69 ) ;
#152 = CARTESIAN_POINT ( 'NONE',  ( 0.000000000000000000, 16.00000000000000000, 0.000000000000000000 ) ) ;
#153 = ORIENTED_EDGE ( 'NONE', *, *, #231, .F. ) ;
#154 = PRESENTATION_STYLE_ASSIGNMENT (( #130 ) ) ;
#155 = CARTESIAN_POINT ( 'NONE',  ( 0.000000000000000000, 1.000000000000000000, 0.000000000000000000 ) ) ;
#156 = EDGE_CURVE ( 'NONE', #32, #57, #335, .T. ) ;
#157 = SURFACE_STYLE_FILL_AREA ( #350 ) ;
#158 = DIRECTION ( 'NONE',  ( -1.000000000000000000, 0.000000000000000000, 0.000000000000000000 ) ) ;
#159 = FILL_AREA_STYLE_COLOUR ( '', #270 ) ;
#160 = AXIS2_PLACEMENT_3D ( 'NONE', #303, #45, #272 ) ;
#161 = FACE_OUTER_BOUND ( 'NONE', #93, .T. ) ;
#162 = DIRECTION ( 'NONE',  ( 0.000000000000000000, 0.000000000000000000, -1.000000000000000000 ) ) ;
#163 = CARTESIAN_POINT ( 'NONE',  ( 3.184081677783117402E-15, 63.00000000000000000, 0.000000000000000000 ) ) ;
#164 = LINE ( 'NONE', #277, #369 ) ;
#165 = PRESENTATION_LAYER_ASSIGNMENT (  '', '', ( #218 ) ) ;
#166 = STYLED_ITEM ( 'NONE', ( #345 ), #255 ) ;
#167 = FILL_AREA_STYLE ('',( #307 ) ) ;
#168 = SURFACE_STYLE_FILL_AREA ( #221 ) ;
#169 = DIRECTION ( 'NONE',  ( -0.000000000000000000, -1.000000000000000000, -0.000000000000000000 ) ) ;
#170 = ORIENTED_EDGE ( 'NONE', *, *, #66, .T. ) ;
#171 = CIRCLE ( 'NONE', #4, 4.000000000000000000 ) ;
#172 = CIRCLE ( 'NONE', #19, 3.999999999999994227 ) ;
#173 =( NAMED_UNIT ( * ) SI_UNIT ( $, .STERADIAN. ) SOLID_ANGLE_UNIT ( ) );
#174 = LINE ( 'NONE', #92, #190 ) ;
#175 = TOROIDAL_SURFACE ( 'NONE', #355, 3.000000000000000000, 1.000000000000000000 ) ;
#176 = ORIENTED_EDGE ( 'NONE', *, *, #3, .T. ) ;
#177 =( NAMED_UNIT ( * ) PLANE_ANGLE_UNIT ( ) SI_UNIT ( $, .RADIAN. ) );
#178 = ADVANCED_BREP_SHAPE_REPRESENTATION ( '59597', ( #286, #281, #104 ), #226 ) ;
#179 =( NAMED_UNIT ( * ) PLANE_ANGLE_UNIT ( ) SI_UNIT ( $, .RADIAN. ) );
#180 = DIRECTION ( 'NONE',  ( 0.000000000000000000, -0.000000000000000000, 1.000000000000000000 ) ) ;
#181 = EDGE_LOOP ( 'NONE', ( #26, #241 ) ) ;
#182 = AXIS2_PLACEMENT_3D ( 'NONE', #113, #111, #47 ) ;
#183 = FACE_OUTER_BOUND ( 'NONE', #238, .T. ) ;
#184 = DIRECTION ( 'NONE',  ( -0.000000000000000000, -1.000000000000000000, -0.000000000000000000 ) ) ;
#185 = APPLICATION_PROTOCOL_DEFINITION ( 'draft international standard', 'automotive_design', 1998, #120 ) ;
#186 = DIRECTION ( 'NONE',  ( 0.000000000000000000, 0.000000000000000000, -1.000000000000000000 ) ) ;
#187 = EDGE_CURVE ( 'NONE', #147, #319, #36, .T. ) ;
#188 =( NAMED_UNIT ( * ) PLANE_ANGLE_UNIT ( ) SI_UNIT ( $, .RADIAN. ) );
#189 = CARTESIAN_POINT ( 'NONE',  ( 0.000000000000000000, 16.00000000000000000, 0.000000000000000000 ) ) ;
#190 = VECTOR ( 'NONE', #144, 1000.000000000000000 ) ;
#191 = DIRECTION ( 'NONE',  ( -0.000000000000000000, -1.000000000000000000, -0.000000000000000000 ) ) ;
#192 = CARTESIAN_POINT ( 'NONE',  ( 0.000000000000000000, 1.000000000000000000, 0.000000000000000000 ) ) ;
#193 = VERTEX_POINT ( 'NONE', #89 ) ;
#194 = ORIENTED_EDGE ( 'NONE', *, *, #213, .F. ) ;
#195 = AXIS2_PLACEMENT_3D ( 'NONE', #189, #256, #339 ) ;
#196 = FILL_AREA_STYLE ('',( #288 ) ) ;
#197 = EDGE_LOOP ( 'NONE', ( #64, #106, #131, #101 ) ) ;
#198 = SURFACE_STYLE_USAGE ( .BOTH. , #146 ) ;
#199 = PRESENTATION_STYLE_ASSIGNMENT (( #60 ) ) ;
#200 =( NAMED_UNIT ( * ) SI_UNIT ( $, .STERADIAN. ) SOLID_ANGLE_UNIT ( ) );
#201 = MECHANICAL_DESIGN_GEOMETRIC_PRESENTATION_REPRESENTATION (  '', ( #218 ), #115 ) ;
#202 = CIRCLE ( 'NONE', #253, 1.000000000000000000 ) ;
#203 = SURFACE_SIDE_STYLE ('',( #99 ) ) ;
#204 = ORIENTED_EDGE ( 'NONE', *, *, #3, .F. ) ;
#205 = FILL_AREA_STYLE ('',( #70 ) ) ;
#206 = ORIENTED_EDGE ( 'NONE', *, *, #361, .T. ) ;
#207 = STYLED_ITEM ( 'NONE', ( #199 ), #290 ) ;
#208 = VERTEX_POINT ( 'NONE', #368 ) ;
#209 = PLANE ( 'NONE',  #24 ) ;
#210 = SURFACE_STYLE_FILL_AREA ( #167 ) ;
#211 = COLOUR_RGB ( '',1.000000000000000000, 0.000000000000000000, 0.000000000000000000 ) ;
#212 =( GEOMETRIC_REPRESENTATION_CONTEXT ( 3 ) GLOBAL_UNCERTAINTY_ASSIGNED_CONTEXT ( ( #258 ) ) GLOBAL_UNIT_ASSIGNED_CONTEXT ( ( #301, #13, #118 ) ) REPRESENTATION_CONTEXT ( 'NONE', 'WORKASPACE' ) );
#213 = EDGE_CURVE ( 'NONE', #57, #289, #51, .T. ) ;
#214 =( NAMED_UNIT ( * ) SI_UNIT ( $, .STERADIAN. ) SOLID_ANGLE_UNIT ( ) );
#215 = CARTESIAN_POINT ( 'NONE',  ( 3.184081677783117402E-15, 63.00000000000000000, 0.000000000000000000 ) ) ;
#216 = DIRECTION ( 'NONE',  ( -5.682149050294907483E-17, 1.000000000000000000, 0.000000000000000000 ) ) ;
#217 = DIRECTION ( 'NONE',  ( -1.000000000000000000, 0.000000000000000000, 0.000000000000000000 ) ) ;
#218 = STYLED_ITEM ( 'NONE', ( #135 ), #46 ) ;
#219 = AXIS2_PLACEMENT_3D ( 'NONE', #31, #352, #180 ) ;
#220 = DIRECTION ( 'NONE',  ( -5.682149050294907483E-17, 1.000000000000000000, -0.000000000000000000 ) ) ;
#221 = FILL_AREA_STYLE ('',( #22 ) ) ;
#222 = DIRECTION ( 'NONE',  ( -5.682149050294907483E-17, 1.000000000000000000, -0.000000000000000000 ) ) ;
#223 = CIRCLE ( 'NONE', #77, 3.000000000000000000 ) ;
#224 =( GEOMETRIC_REPRESENTATION_CONTEXT ( 3 ) GLOBAL_UNCERTAINTY_ASSIGNED_CONTEXT ( ( #305 ) ) GLOBAL_UNIT_ASSIGNED_CONTEXT ( ( #347, #179, #1 ) ) REPRESENTATION_CONTEXT ( 'NONE', 'WORKASPACE' ) );
#225 = CARTESIAN_POINT ( 'NONE',  ( 5.854691731421723944E-15, 16.00000000000000000, 0.000000000000000000 ) ) ;
#226 =( GEOMETRIC_REPRESENTATION_CONTEXT ( 3 ) GLOBAL_UNCERTAINTY_ASSIGNED_CONTEXT ( ( #35 ) ) GLOBAL_UNIT_ASSIGNED_CONTEXT ( ( #17, #188, #214 ) ) REPRESENTATION_CONTEXT ( 'NONE', 'WORKASPACE' ) );
#227 = ORIENTED_EDGE ( 'NONE', *, *, #231, .T. ) ;
#228 = FILL_AREA_STYLE ('',( #151 ) ) ;
#229 =( LENGTH_UNIT ( ) NAMED_UNIT ( * ) SI_UNIT ( .MILLI., .METRE. ) );
#230 = DIRECTION ( 'NONE',  ( -0.000000000000000000, -1.000000000000000000, -0.000000000000000000 ) ) ;
#231 = EDGE_CURVE ( 'NONE', #267, #193, #56, .T. ) ;
#232 = FACE_OUTER_BOUND ( 'NONE', #356, .T. ) ;
#233 = COLOUR_RGB ( '',1.000000000000000000, 0.000000000000000000, 0.000000000000000000 ) ;
#234 = MECHANICAL_DESIGN_GEOMETRIC_PRESENTATION_REPRESENTATION (  '', ( #279 ), #242 ) ;
#235 = ORIENTED_EDGE ( 'NONE', *, *, #156, .T. ) ;
#236 = DIRECTION ( 'NONE',  ( -0.000000000000000000, -1.000000000000000000, -0.000000000000000000 ) ) ;
#237 = EDGE_CURVE ( 'NONE', #319, #147, #172, .T. ) ;
#238 = EDGE_LOOP ( 'NONE', ( #126, #294, #153, #263 ) ) ;
#239 = DIRECTION ( 'NONE',  ( -1.000000000000000000, -5.682149050294907483E-17, 0.000000000000000000 ) ) ;
#240 = CIRCLE ( 'NONE', #132, 4.000000000000000000 ) ;
#241 = ORIENTED_EDGE ( 'NONE', *, *, #187, .F. ) ;
#242 =( GEOMETRIC_REPRESENTATION_CONTEXT ( 3 ) GLOBAL_UNCERTAINTY_ASSIGNED_CONTEXT ( ( #324 ) ) GLOBAL_UNIT_ASSIGNED_CONTEXT ( ( #268, #63, #264 ) ) REPRESENTATION_CONTEXT ( 'NONE', 'WORKASPACE' ) );
#243 = AXIS2_PLACEMENT_3D ( 'NONE', #82, #269, #331 ) ;
#244 = DIRECTION ( 'NONE',  ( 0.000000000000000000, 0.000000000000000000, 1.000000000000000000 ) ) ;
#245 = SURFACE_STYLE_FILL_AREA ( #142 ) ;
#246 = DIRECTION ( 'NONE',  ( -5.682149050294907483E-17, 1.000000000000000000, -0.000000000000000000 ) ) ;
#247 = AXIS2_PLACEMENT_3D ( 'NONE', #155, #71, #353 ) ;
#248 = COLOUR_RGB ( '',1.000000000000000000, 0.000000000000000000, 0.000000000000000000 ) ;
#249 = CARTESIAN_POINT ( 'NONE',  ( 5.854691731421723944E-15, 16.00000000000000000, 0.000000000000000000 ) ) ;
#250 = DIRECTION ( 'NONE',  ( -0.000000000000000000, -1.000000000000000000, -0.000000000000000000 ) ) ;
#251 =( NAMED_UNIT ( * ) SI_UNIT ( $, .STERADIAN. ) SOLID_ANGLE_UNIT ( ) );
#252 =( LENGTH_UNIT ( ) NAMED_UNIT ( * ) SI_UNIT ( .MILLI., .METRE. ) );
#253 = AXIS2_PLACEMENT_3D ( 'NONE', #112, #328, #107 ) ;
#254 = ORIENTED_EDGE ( 'NONE', *, *, #95, .T. ) ;
#255 = ADVANCED_FACE ( 'NONE', ( #313 ), #58, .T. ) ;
#256 = DIRECTION ( 'NONE',  ( -0.000000000000000000, -1.000000000000000000, -0.000000000000000000 ) ) ;
#257 = EDGE_LOOP ( 'NONE', ( #55, #285, #119, #326 ) ) ;
#258 = UNCERTAINTY_MEASURE_WITH_UNIT (LENGTH_MEASURE( 1.000000000000000082E-05 ), #301, 'distance_accuracy_value', 'NONE');
#259 =( GEOMETRIC_REPRESENTATION_CONTEXT ( 3 ) GLOBAL_UNCERTAINTY_ASSIGNED_CONTEXT ( ( #74 ) ) GLOBAL_UNIT_ASSIGNED_CONTEXT ( ( #100, #322, #2 ) ) REPRESENTATION_CONTEXT ( 'NONE', 'WORKASPACE' ) );
#260 =( GEOMETRIC_REPRESENTATION_CONTEXT ( 3 ) GLOBAL_UNCERTAINTY_ASSIGNED_CONTEXT ( ( #299 ) ) GLOBAL_UNIT_ASSIGNED_CONTEXT ( ( #310, #125, #200 ) ) REPRESENTATION_CONTEXT ( 'NONE', 'WORKASPACE' ) );
#261 = DIRECTION ( 'NONE',  ( 0.000000000000000000, 0.000000000000000000, -1.000000000000000000 ) ) ;
#262 = EDGE_CURVE ( 'NONE', #147, #38, #174, .T. ) ;
#263 = ORIENTED_EDGE ( 'NONE', *, *, #134, .F. ) ;
#264 =( NAMED_UNIT ( * ) SI_UNIT ( $, .STERADIAN. ) SOLID_ANGLE_UNIT ( ) );
#265 = STYLED_ITEM ( 'NONE', ( #358 ), #148 ) ;
#266 = MECHANICAL_DESIGN_GEOMETRIC_PRESENTATION_REPRESENTATION (  '', ( #166 ), #309 ) ;
#267 = VERTEX_POINT ( 'NONE', #52 ) ;
#268 =( LENGTH_UNIT ( ) NAMED_UNIT ( * ) SI_UNIT ( .MILLI., .METRE. ) );
#269 = DIRECTION ( 'NONE',  ( -5.682149050294907483E-17, 1.000000000000000000, -0.000000000000000000 ) ) ;
#270 = COLOUR_RGB ( '',1.000000000000000000, 0.000000000000000000, 0.000000000000000000 ) ;
#271 = FACE_OUTER_BOUND ( 'NONE', #197, .T. ) ;
#272 = DIRECTION ( 'NONE',  ( 0.000000000000000000, 0.000000000000000000, -1.000000000000000000 ) ) ;
#273 = CARTESIAN_POINT ( 'NONE',  ( 0.000000000000000000, 1.000000000000000000, -3.000000000000000000 ) ) ;
#274 = CARTESIAN_POINT ( 'NONE',  ( 4.898587196589412829E-16, 1.000000000000000000, 4.000000000000000000 ) ) ;
#275 = CYLINDRICAL_SURFACE ( 'NONE', #29, 3.999999999999994671 ) ;
#276 = LINE ( 'NONE', #11, #128 ) ;
#277 = CARTESIAN_POINT ( 'NONE',  ( 4.898587196589412829E-16, 0.000000000000000000, 4.000000000000000000 ) ) ;
#278 = STYLED_ITEM ( 'NONE', ( #5 ), #20 ) ;
#279 = STYLED_ITEM ( 'NONE', ( #154 ), #286 ) ;
#280 = ADVANCED_FACE ( 'NONE', ( #90 ), #25, .T. ) ;
#281 = MANIFOLD_SOLID_BREP ( 'Revolve - Tool Body (Straight Shanked)', #68 ) ;
#282 = CARTESIAN_POINT ( 'NONE',  ( 4.000000000000000000, 63.00000000000000000, 4.898587196589407898E-16 ) ) ;
#283 = SURFACE_STYLE_USAGE ( .BOTH. , #21 ) ;
#284 = PRESENTATION_STYLE_ASSIGNMENT (( #198 ) ) ;
#285 = ORIENTED_EDGE ( 'NONE', *, *, #16, .T. ) ;
#286 = MANIFOLD_SOLID_BREP ( 'Revolve - Cutting Edge', #140 ) ;
#287 = STYLED_ITEM ( 'NONE', ( #284 ), #280 ) ;
#288 = FILL_AREA_STYLE_COLOUR ( '', #248 ) ;
#289 = VERTEX_POINT ( 'NONE', #346 ) ;
#290 = ADVANCED_FACE ( 'NONE', ( #232 ), #94, .T. ) ;
#291 = PRESENTATION_LAYER_ASSIGNMENT (  '', '', ( #166 ) ) ;
#292 = EDGE_LOOP ( 'NONE', ( #227, #170 ) ) ;
#293 = EDGE_LOOP ( 'NONE', ( #176, #254, #327, #194 ) ) ;
#294 = ORIENTED_EDGE ( 'NONE', *, *, #320, .T. ) ;
#295 = PRODUCT_DEFINITION ( 'UNKNOWN', '', #12, #137 ) ;
#296 = FILL_AREA_STYLE_COLOUR ( '', #233 ) ;
#297 = DIRECTION ( 'NONE',  ( 1.000000000000000000, 5.682149050294907483E-17, 0.000000000000000000 ) ) ;
#298 = SURFACE_SIDE_STYLE ('',( #210 ) ) ;
#299 = UNCERTAINTY_MEASURE_WITH_UNIT (LENGTH_MEASURE( 1.000000000000000082E-05 ), #310, 'distance_accuracy_value', 'NONE');
#300 = SHAPE_DEFINITION_REPRESENTATION ( #136, #178 ) ;
#301 =( LENGTH_UNIT ( ) NAMED_UNIT ( * ) SI_UNIT ( .MILLI., .METRE. ) );
#302 = PRESENTATION_LAYER_ASSIGNMENT (  '', '', ( #207 ) ) ;
#303 = CARTESIAN_POINT ( 'NONE',  ( 0.000000000000000000, 0.000000000000000000, 0.000000000000000000 ) ) ;
#304 = CYLINDRICAL_SURFACE ( 'NONE', #182, 3.999999999999994671 ) ;
#305 = UNCERTAINTY_MEASURE_WITH_UNIT (LENGTH_MEASURE( 1.000000000000000082E-05 ), #347, 'distance_accuracy_value', 'NONE');
#306 = DIRECTION ( 'NONE',  ( 0.000000000000000000, 0.000000000000000000, -1.000000000000000000 ) ) ;
#307 = FILL_AREA_STYLE_COLOUR ( '', #211 ) ;
#308 = AXIS2_PLACEMENT_3D ( 'NONE', #273, #217, #244 ) ;
#309 =( GEOMETRIC_REPRESENTATION_CONTEXT ( 3 ) GLOBAL_UNCERTAINTY_ASSIGNED_CONTEXT ( ( #96 ) ) GLOBAL_UNIT_ASSIGNED_CONTEXT ( ( #252, #54, #173 ) ) REPRESENTATION_CONTEXT ( 'NONE', 'WORKASPACE' ) );
#310 =( LENGTH_UNIT ( ) NAMED_UNIT ( * ) SI_UNIT ( .MILLI., .METRE. ) );
#311 = DIRECTION ( 'NONE',  ( 0.000000000000000000, -1.000000000000000000, -0.000000000000000000 ) ) ;
#312 = PRODUCT_RELATED_PRODUCT_CATEGORY ( 'part', '', ( #9 ) ) ;
#313 = FACE_OUTER_BOUND ( 'NONE', #292, .T. ) ;
#314 = MECHANICAL_DESIGN_GEOMETRIC_PRESENTATION_REPRESENTATION (  '', ( #265 ), #212 ) ;
#315 = STYLED_ITEM ( 'NONE', ( #6 ), #281 ) ;
#316 = SURFACE_STYLE_FILL_AREA ( #196 ) ;
#317 = ORIENTED_EDGE ( 'NONE', *, *, #325, .T. ) ;
#318 = DIRECTION ( 'NONE',  ( 0.000000000000000000, 0.000000000000000000, -1.000000000000000000 ) ) ;
#319 = VERTEX_POINT ( 'NONE', #333 ) ;
#320 = EDGE_CURVE ( 'NONE', #342, #193, #202, .T. ) ;
#321 = SURFACE_STYLE_FILL_AREA ( #228 ) ;
#322 =( NAMED_UNIT ( * ) PLANE_ANGLE_UNIT ( ) SI_UNIT ( $, .RADIAN. ) );
#323 = ORIENTED_EDGE ( 'NONE', *, *, #156, .F. ) ;
#324 = UNCERTAINTY_MEASURE_WITH_UNIT (LENGTH_MEASURE( 1.000000000000000082E-05 ), #268, 'distance_accuracy_value', 'NONE');
#325 = EDGE_CURVE ( 'NONE', #208, #38, #143, .T. ) ;
#326 = ORIENTED_EDGE ( 'NONE', *, *, #66, .F. ) ;
#327 = ORIENTED_EDGE ( 'NONE', *, *, #139, .F. ) ;
#328 = DIRECTION ( 'NONE',  ( 1.000000000000000000, 0.000000000000000000, -1.224646799147353207E-16 ) ) ;
#329 = SURFACE_STYLE_USAGE ( .BOTH. , #109 ) ;
#330 = ADVANCED_FACE ( 'NONE', ( #161 ), #209, .F. ) ;
#331 = DIRECTION ( 'NONE',  ( -1.000000000000000000, 0.000000000000000000, 0.000000000000000000 ) ) ;
#332 = FACE_OUTER_BOUND ( 'NONE', #257, .T. ) ;
#333 = CARTESIAN_POINT ( 'NONE',  ( -3.999999999999988010, 16.00000000000000000, 0.000000000000000000 ) ) ;
#334 = FACE_OUTER_BOUND ( 'NONE', #293, .T. ) ;
#335 = CIRCLE ( 'NONE', #195, 4.000000000000000000 ) ;
#336 = DIRECTION ( 'NONE',  ( -1.000000000000000000, 0.000000000000000000, 0.000000000000000000 ) ) ;
#337 = DIRECTION ( 'NONE',  ( 5.682149050294907483E-17, -1.000000000000000000, 0.000000000000000000 ) ) ;
#338 = DIRECTION ( 'NONE',  ( -0.000000000000000000, -1.000000000000000000, -0.000000000000000000 ) ) ;
#339 = DIRECTION ( 'NONE',  ( 0.000000000000000000, 0.000000000000000000, -1.000000000000000000 ) ) ;
#340 = CARTESIAN_POINT ( 'NONE',  ( 0.000000000000000000, 0.000000000000000000, 0.000000000000000000 ) ) ;
#341 = DIRECTION ( 'NONE',  ( -1.000000000000000000, 0.000000000000000000, 0.000000000000000000 ) ) ;
#342 = VERTEX_POINT ( 'NONE', #274 ) ;
#343 = CIRCLE ( 'NONE', #247, 4.000000000000000000 ) ;
#344 = PRESENTATION_LAYER_ASSIGNMENT (  '', '', ( #315 ) ) ;
#345 = PRESENTATION_STYLE_ASSIGNMENT (( #283 ) ) ;
#346 = CARTESIAN_POINT ( 'NONE',  ( 0.000000000000000000, 1.000000000000000000, -4.000000000000000000 ) ) ;
#347 =( LENGTH_UNIT ( ) NAMED_UNIT ( * ) SI_UNIT ( .MILLI., .METRE. ) );
#348 = FILL_AREA_STYLE ('',( #296 ) ) ;
#349 = AXIS2_PLACEMENT_3D ( 'NONE', #163, #138, #158 ) ;
#350 = FILL_AREA_STYLE ('',( #37 ) ) ;
#351 = ADVANCED_FACE ( 'NONE', ( #72 ), #40, .F. ) ;
#352 = DIRECTION ( 'NONE',  ( 0.000000000000000000, 1.000000000000000000, 0.000000000000000000 ) ) ;
#353 = DIRECTION ( 'NONE',  ( 0.000000000000000000, 0.000000000000000000, -1.000000000000000000 ) ) ;
#354 = DIRECTION ( 'NONE',  ( 0.000000000000000000, 0.000000000000000000, 1.000000000000000000 ) ) ;
#355 = AXIS2_PLACEMENT_3D ( 'NONE', #192, #87, #318 ) ;
#356 = EDGE_LOOP ( 'NONE', ( #23, #235, #59, #61 ) ) ;
#357 = APPLICATION_CONTEXT ( 'automotive_design' ) ;
#358 = PRESENTATION_STYLE_ASSIGNMENT (( #359 ) ) ;
#359 = SURFACE_STYLE_USAGE ( .BOTH. , #298 ) ;
#360 =( NAMED_UNIT ( * ) PLANE_ANGLE_UNIT ( ) SI_UNIT ( $, .RADIAN. ) );
#361 = EDGE_CURVE ( 'NONE', #38, #208, #133, .T. ) ;
#362 = DIRECTION ( 'NONE',  ( 0.000000000000000000, 0.000000000000000000, -1.000000000000000000 ) ) ;
#363 = DIRECTION ( 'NONE',  ( -1.000000000000000000, 0.000000000000000000, 0.000000000000000000 ) ) ;
#364 = EDGE_CURVE ( 'NONE', #319, #208, #276, .T. ) ;
#365 = COLOUR_RGB ( '',1.000000000000000000, 0.000000000000000000, 0.000000000000000000 ) ;
#366 = CARTESIAN_POINT ( 'NONE',  ( 5.854691731421723944E-15, 16.00000000000000000, 0.000000000000000000 ) ) ;
#367 = ORIENTED_EDGE ( 'NONE', *, *, #361, .F. ) ;
#368 = CARTESIAN_POINT ( 'NONE',  ( -3.999999999999993339, 63.00000000000000000, 0.000000000000000000 ) ) ;
#369 = VECTOR ( 'NONE', #250, 1000.000000000000000 ) ;
#370 = DIRECTION ( 'NONE',  ( 0.000000000000000000, 0.000000000000000000, -1.000000000000000000 ) ) ;
ENDSEC;
END-ISO-10303-21;
