ISO-10303-21;
HEADER;
FILE_DESCRIPTION (( 'STEP AP214' ),
    '1' );
FILE_NAME ('59255.STEP',
    '2023-06-22T22:15:31',
    ( '' ),
    ( '' ),
    'SwSTEP 2.0',
    'SolidWorks 2023',
    '' );
FILE_SCHEMA (( 'AUTOMOTIVE_DESIGN' ));
ENDSEC;

DATA;
#1 = LENGTH_MEASURE_WITH_UNIT ( LENGTH_MEASURE( 0.02539999999999999897 ), #121 );
#2 = AXIS2_PLACEMENT_3D ( 'NONE', #186, #13, #87 ) ;
#3 = ORIENTED_EDGE ( 'NONE', *, *, #147, .T. ) ;
#4 = ADVANCED_FACE ( 'NONE', ( #157 ), #195, .T. ) ;
#5 = SURFACE_STYLE_FILL_AREA ( #116 ) ;
#6 = ORIENTED_EDGE ( 'NONE', *, *, #258, .F. ) ;
#7 = CARTESIAN_POINT ( 'NONE',  ( 0.000000000000000000, 0.000000000000000000, 0.000000000000000000 ) ) ;
#8 = AXIS2_PLACEMENT_3D ( 'NONE', #20, #255, #307 ) ;
#9 = ORIENTED_EDGE ( 'NONE', *, *, #39, .F. ) ;
#10 = DIRECTION ( 'NONE',  ( -0.000000000000000000, -1.000000000000000000, -0.000000000000000000 ) ) ;
#11 = EDGE_CURVE ( 'NONE', #102, #267, #224, .T. ) ;
#12 = SURFACE_SIDE_STYLE ('',( #245 ) ) ;
#13 = DIRECTION ( 'NONE',  ( 7.837739514543064125E-17, 1.000000000000000000, -0.000000000000000000 ) ) ;
#14 =( NAMED_UNIT ( * ) SI_UNIT ( $, .STERADIAN. ) SOLID_ANGLE_UNIT ( ) );
#15 = CARTESIAN_POINT ( 'NONE',  ( 1.224646799147353700E-16, 2.000000000000000000, 0.000000000000000000 ) ) ;
#16 = AXIS2_PLACEMENT_3D ( 'NONE', #291, #85, #108 ) ;
#17 = CARTESIAN_POINT ( 'NONE',  ( -0.1562499999999998335, 2.000000000000000000, 0.000000000000000000 ) ) ;
#18 = CARTESIAN_POINT ( 'NONE',  ( 1.913510623667739771E-17, 0.4374999999999998890, 0.1562500000000000278 ) ) ;
#19 = LENGTH_MEASURE_WITH_UNIT ( LENGTH_MEASURE( 0.02539999999999999897 ), #105 );
#20 = CARTESIAN_POINT ( 'NONE',  ( 0.000000000000000000, 0.000000000000000000, 0.000000000000000000 ) ) ;
#21 = MANIFOLD_SOLID_BREP ( 'Revolve - Tool Body (Straight Shanked)', #72 ) ;
#22 =( GEOMETRIC_REPRESENTATION_CONTEXT ( 3 ) GLOBAL_UNCERTAINTY_ASSIGNED_CONTEXT ( ( #91 ) ) GLOBAL_UNIT_ASSIGNED_CONTEXT ( ( #80, #134, #14 ) ) REPRESENTATION_CONTEXT ( 'NONE', 'WORKASPACE' ) );
#23 = PRODUCT_DEFINITION_FORMATION_WITH_SPECIFIED_SOURCE ( 'ANY', '', #173, .NOT_KNOWN. ) ;
#24 = UNCERTAINTY_MEASURE_WITH_UNIT (LENGTH_MEASURE( 1.000000000000000082E-05 ), #59, 'distance_accuracy_value', 'NONE');
#25 = SURFACE_STYLE_FILL_AREA ( #235 ) ;
#26 =( LENGTH_UNIT ( ) NAMED_UNIT ( * ) SI_UNIT ( $, .METRE. ) );
#27 = ORIENTED_EDGE ( 'NONE', *, *, #118, .T. ) ;
#28 = DIMENSIONAL_EXPONENTS ( 1.000000000000000000, 0.000000000000000000, 0.000000000000000000, 0.000000000000000000, 0.000000000000000000, 0.000000000000000000, 0.000000000000000000 ) ;
#29 = VERTEX_POINT ( 'NONE', #89 ) ;
#30 = VERTEX_POINT ( 'NONE', #37 ) ;
#31 = DIRECTION ( 'NONE',  ( -0.000000000000000000, -1.000000000000000000, -0.000000000000000000 ) ) ;
#32 = DIRECTION ( 'NONE',  ( -0.000000000000000000, -1.000000000000000000, -0.000000000000000000 ) ) ;
#33 = DIRECTION ( 'NONE',  ( 0.000000000000000000, 0.000000000000000000, -1.000000000000000000 ) ) ;
#34 = ORIENTED_EDGE ( 'NONE', *, *, #285, .T. ) ;
#35 = LINE ( 'NONE', #17, #94 ) ;
#36 = LENGTH_MEASURE_WITH_UNIT ( LENGTH_MEASURE( 0.02539999999999999897 ), #222 );
#37 = CARTESIAN_POINT ( 'NONE',  ( 0.000000000000000000, 0.000000000000000000, -0.1562500000000000000 ) ) ;
#38 = AXIS2_PLACEMENT_3D ( 'NONE', #86, #160, #250 ) ;
#39 = EDGE_CURVE ( 'NONE', #100, #30, #263, .T. ) ;
#40 = APPLICATION_PROTOCOL_DEFINITION ( 'draft international standard', 'automotive_design', 1998, #124 ) ;
#41 = FILL_AREA_STYLE_COLOUR ( '', #165 ) ;
#42 = CARTESIAN_POINT ( 'NONE',  ( 0.000000000000000000, 0.000000000000000000, 0.000000000000000000 ) ) ;
#43 = FILL_AREA_STYLE_COLOUR ( '', #114 ) ;
#44 = DIMENSIONAL_EXPONENTS ( 1.000000000000000000, 0.000000000000000000, 0.000000000000000000, 0.000000000000000000, 0.000000000000000000, 0.000000000000000000, 0.000000000000000000 ) ;
#45 = FILL_AREA_STYLE ('',( #280 ) ) ;
#46 = DIMENSIONAL_EXPONENTS ( 1.000000000000000000, 0.000000000000000000, 0.000000000000000000, 0.000000000000000000, 0.000000000000000000, 0.000000000000000000, 0.000000000000000000 ) ;
#47 = PRESENTATION_LAYER_ASSIGNMENT (  '', '', ( #269 ) ) ;
#48 = SURFACE_SIDE_STYLE ('',( #25 ) ) ;
#49 = VERTEX_POINT ( 'NONE', #84 ) ;
#50 = ADVANCED_FACE ( 'NONE', ( #252 ), #158, .T. ) ;
#51 = DIRECTION ( 'NONE',  ( 0.000000000000000000, -1.000000000000000000, -0.000000000000000000 ) ) ;
#52 = COLOUR_RGB ( '',0.7921568627450980005, 0.8196078431372548767, 0.9333333333333333481 ) ;
#53 = EDGE_LOOP ( 'NONE', ( #268, #69 ) ) ;
#54 = DIRECTION ( 'NONE',  ( 7.837739514543064125E-17, 1.000000000000000000, -0.000000000000000000 ) ) ;
#55 = ORIENTED_EDGE ( 'NONE', *, *, #258, .T. ) ;
#56 = STYLED_ITEM ( 'NONE', ( #130 ), #4 ) ;
#57 = PRESENTATION_LAYER_ASSIGNMENT (  '', '', ( #183 ) ) ;
#58 =( NAMED_UNIT ( * ) PLANE_ANGLE_UNIT ( ) SI_UNIT ( $, .RADIAN. ) );
#59 =( CONVERSION_BASED_UNIT ( 'INCH', #83 ) LENGTH_UNIT ( ) NAMED_UNIT ( #46 ) );
#60 = ADVANCED_FACE ( 'NONE', ( #184 ), #226, .T. ) ;
#61 = SURFACE_STYLE_USAGE ( .BOTH. , #110 ) ;
#62 =( LENGTH_UNIT ( ) NAMED_UNIT ( * ) SI_UNIT ( $, .METRE. ) );
#63 = CIRCLE ( 'NONE', #125, 0.1562500000000000278 ) ;
#64 = LINE ( 'NONE', #109, #214 ) ;
#65 = SURFACE_STYLE_FILL_AREA ( #164 ) ;
#66 = UNCERTAINTY_MEASURE_WITH_UNIT (LENGTH_MEASURE( 1.000000000000000082E-05 ), #166, 'distance_accuracy_value', 'NONE');
#67 =( LENGTH_UNIT ( ) NAMED_UNIT ( * ) SI_UNIT ( $, .METRE. ) );
#68 = AXIS2_PLACEMENT_3D ( 'NONE', #76, #51, #104 ) ;
#69 = ORIENTED_EDGE ( 'NONE', *, *, #285, .F. ) ;
#70 = PRESENTATION_STYLE_ASSIGNMENT (( #277 ) ) ;
#71 = CARTESIAN_POINT ( 'NONE',  ( 0.000000000000000000, 0.4374999999999998890, 0.000000000000000000 ) ) ;
#72 = CLOSED_SHELL ( 'NONE', ( #90, #305, #60, #212 ) ) ;
#73 = AXIS2_PLACEMENT_3D ( 'NONE', #71, #146, #77 ) ;
#74 = EDGE_LOOP ( 'NONE', ( #120, #145 ) ) ;
#75 = EDGE_LOOP ( 'NONE', ( #148, #194 ) ) ;
#76 = CARTESIAN_POINT ( 'NONE',  ( 0.000000000000000000, 0.000000000000000000, 0.000000000000000000 ) ) ;
#77 = DIRECTION ( 'NONE',  ( 0.000000000000000000, -0.000000000000000000, 1.000000000000000000 ) ) ;
#78 = CARTESIAN_POINT ( 'NONE',  ( 1.913510623667739463E-17, 0.000000000000000000, 0.1562500000000000000 ) ) ;
#79 = DIRECTION ( 'NONE',  ( -0.000000000000000000, -1.000000000000000000, -0.000000000000000000 ) ) ;
#80 =( CONVERSION_BASED_UNIT ( 'INCH', #36 ) LENGTH_UNIT ( ) NAMED_UNIT ( #171 ) );
#81 = DIRECTION ( 'NONE',  ( -1.000000000000000000, 0.000000000000000000, 0.000000000000000000 ) ) ;
#82 = SURFACE_SIDE_STYLE ('',( #288 ) ) ;
#83 = LENGTH_MEASURE_WITH_UNIT ( LENGTH_MEASURE( 0.02539999999999999897 ), #62 );
#84 = CARTESIAN_POINT ( 'NONE',  ( 0.1562500000000000278, 0.4374999999999998890, 1.913510623667739463E-17 ) ) ;
#85 = DIRECTION ( 'NONE',  ( 7.837739514543064125E-17, 1.000000000000000000, -0.000000000000000000 ) ) ;
#86 = CARTESIAN_POINT ( 'NONE',  ( 1.224646799147353700E-16, 2.000000000000000000, 0.000000000000000000 ) ) ;
#87 = DIRECTION ( 'NONE',  ( -1.000000000000000000, 7.837739514543064125E-17, 0.000000000000000000 ) ) ;
#88 = FILL_AREA_STYLE_COLOUR ( '', #275 ) ;
#89 = CARTESIAN_POINT ( 'NONE',  ( 0.1562500000000000278, 2.000000000000000000, 1.913510623667739463E-17 ) ) ;
#90 = ADVANCED_FACE ( 'NONE', ( #107 ), #207, .T. ) ;
#91 = UNCERTAINTY_MEASURE_WITH_UNIT (LENGTH_MEASURE( 1.000000000000000082E-05 ), #80, 'distance_accuracy_value', 'NONE');
#92 = SHAPE_DEFINITION_REPRESENTATION ( #140, #111 ) ;
#93 =( NAMED_UNIT ( * ) PLANE_ANGLE_UNIT ( ) SI_UNIT ( $, .RADIAN. ) );
#94 = VECTOR ( 'NONE', #132, 39.37007874015748143 ) ;
#95 = LENGTH_MEASURE_WITH_UNIT ( LENGTH_MEASURE( 0.02539999999999999897 ), #26 );
#96 = CLOSED_SHELL ( 'NONE', ( #50, #136, #156, #4 ) ) ;
#97 = AXIS2_PLACEMENT_3D ( 'NONE', #266, #54, #151 ) ;
#98 = EDGE_LOOP ( 'NONE', ( #259, #172, #167, #177 ) ) ;
#99 = PLANE ( 'NONE',  #73 ) ;
#100 = VERTEX_POINT ( 'NONE', #230 ) ;
#101 = VECTOR ( 'NONE', #299, 39.37007874015748143 ) ;
#102 = VERTEX_POINT ( 'NONE', #18 ) ;
#103 =( NAMED_UNIT ( * ) SI_UNIT ( $, .STERADIAN. ) SOLID_ANGLE_UNIT ( ) );
#104 = DIRECTION ( 'NONE',  ( 0.000000000000000000, 0.000000000000000000, -1.000000000000000000 ) ) ;
#105 =( LENGTH_UNIT ( ) NAMED_UNIT ( * ) SI_UNIT ( $, .METRE. ) );
#106 = AXIS2_PLACEMENT_3D ( 'NONE', #169, #240, #215 ) ;
#107 = FACE_OUTER_BOUND ( 'NONE', #283, .T. ) ;
#108 = DIRECTION ( 'NONE',  ( -1.000000000000000000, 0.000000000000000000, 0.000000000000000000 ) ) ;
#109 = CARTESIAN_POINT ( 'NONE',  ( 0.1562500000000001110, 2.000000000000000000, 1.913510623667738847E-17 ) ) ;
#110 = SURFACE_SIDE_STYLE ('',( #65 ) ) ;
#111 = ADVANCED_BREP_SHAPE_REPRESENTATION ( '59255', ( #119, #21, #8 ), #262 ) ;
#112 = PRODUCT_CONTEXT ( 'NONE', #131, 'mechanical' ) ;
#113 = VECTOR ( 'NONE', #32, 39.37007874015748143 ) ;
#114 = COLOUR_RGB ( '',1.000000000000000000, 0.000000000000000000, 0.000000000000000000 ) ;
#115 =( NAMED_UNIT ( * ) SI_UNIT ( $, .STERADIAN. ) SOLID_ANGLE_UNIT ( ) );
#116 = FILL_AREA_STYLE ('',( #88 ) ) ;
#117 = PRODUCT_DEFINITION_CONTEXT ( 'detailed design', #124, 'design' ) ;
#118 = EDGE_CURVE ( 'NONE', #49, #29, #64, .T. ) ;
#119 = MANIFOLD_SOLID_BREP ( 'Revolve - Cutting Edge', #96 ) ;
#120 = ORIENTED_EDGE ( 'NONE', *, *, #249, .F. ) ;
#121 =( LENGTH_UNIT ( ) NAMED_UNIT ( * ) SI_UNIT ( $, .METRE. ) );
#122 = EDGE_CURVE ( 'NONE', #29, #284, #308, .T. ) ;
#123 = ORIENTED_EDGE ( 'NONE', *, *, #11, .F. ) ;
#124 = APPLICATION_CONTEXT ( 'automotive_design' ) ;
#125 = AXIS2_PLACEMENT_3D ( 'NONE', #296, #10, #135 ) ;
#126 = AXIS2_PLACEMENT_3D ( 'NONE', #210, #176, #256 ) ;
#127 = EDGE_LOOP ( 'NONE', ( #55, #242 ) ) ;
#128 = SURFACE_STYLE_FILL_AREA ( #45 ) ;
#129 =( NAMED_UNIT ( * ) PLANE_ANGLE_UNIT ( ) SI_UNIT ( $, .RADIAN. ) );
#130 = PRESENTATION_STYLE_ASSIGNMENT (( #265 ) ) ;
#131 = APPLICATION_CONTEXT ( 'automotive_design' ) ;
#132 = DIRECTION ( 'NONE',  ( 7.837739514543064125E-17, 1.000000000000000000, -0.000000000000000000 ) ) ;
#133 = AXIS2_PLACEMENT_3D ( 'NONE', #201, #178, #202 ) ;
#134 =( NAMED_UNIT ( * ) PLANE_ANGLE_UNIT ( ) SI_UNIT ( $, .RADIAN. ) );
#135 = DIRECTION ( 'NONE',  ( 0.000000000000000000, 0.000000000000000000, -1.000000000000000000 ) ) ;
#136 = ADVANCED_FACE ( 'NONE', ( #192 ), #99, .T. ) ;
#137 = FACE_OUTER_BOUND ( 'NONE', #127, .T. ) ;
#138 = DIRECTION ( 'NONE',  ( -0.000000000000000000, -1.000000000000000000, -0.000000000000000000 ) ) ;
#139 = AXIS2_PLACEMENT_3D ( 'NONE', #15, #142, #297 ) ;
#140 = PRODUCT_DEFINITION_SHAPE ( 'NONE', 'NONE',  #237 ) ;
#141 = DIRECTION ( 'NONE',  ( -0.000000000000000000, -1.000000000000000000, -0.000000000000000000 ) ) ;
#142 = DIRECTION ( 'NONE',  ( 7.837739514543064125E-17, 1.000000000000000000, -0.000000000000000000 ) ) ;
#143 = UNCERTAINTY_MEASURE_WITH_UNIT (LENGTH_MEASURE( 1.000000000000000082E-05 ), #180, 'distance_accuracy_value', 'NONE');
#144 = PRESENTATION_STYLE_ASSIGNMENT (( #306 ) ) ;
#145 = ORIENTED_EDGE ( 'NONE', *, *, #231, .F. ) ;
#146 = DIRECTION ( 'NONE',  ( 0.000000000000000000, 1.000000000000000000, 0.000000000000000000 ) ) ;
#147 = EDGE_CURVE ( 'NONE', #100, #102, #155, .T. ) ;
#148 = ORIENTED_EDGE ( 'NONE', *, *, #196, .T. ) ;
#149 = PRESENTATION_STYLE_ASSIGNMENT (( #203 ) ) ;
#150 = CIRCLE ( 'NONE', #200, 0.1562500000000000000 ) ;
#151 = DIRECTION ( 'NONE',  ( -1.000000000000000000, 0.000000000000000000, 0.000000000000000000 ) ) ;
#152 = FILL_AREA_STYLE ('',( #220 ) ) ;
#153 =( GEOMETRIC_REPRESENTATION_CONTEXT ( 3 ) GLOBAL_UNCERTAINTY_ASSIGNED_CONTEXT ( ( #232 ) ) GLOBAL_UNIT_ASSIGNED_CONTEXT ( ( #189, #304, #205 ) ) REPRESENTATION_CONTEXT ( 'NONE', 'WORKASPACE' ) );
#154 = CARTESIAN_POINT ( 'NONE',  ( 1.224646799147353700E-16, 2.000000000000000000, 0.000000000000000000 ) ) ;
#155 = CIRCLE ( 'NONE', #106, 0.1562500000000000278 ) ;
#156 = ADVANCED_FACE ( 'NONE', ( #264 ), #260, .T. ) ;
#157 = FACE_OUTER_BOUND ( 'NONE', #75, .T. ) ;
#158 = CYLINDRICAL_SURFACE ( 'NONE', #182, 0.1562500000000000000 ) ;
#159 = PLANE ( 'NONE',  #133 ) ;
#160 = DIRECTION ( 'NONE',  ( 7.837739514543064125E-17, 1.000000000000000000, -0.000000000000000000 ) ) ;
#161 = CIRCLE ( 'NONE', #97, 0.1562500000000000278 ) ;
#162 = DIRECTION ( 'NONE',  ( 7.837739514543064125E-17, 1.000000000000000000, -0.000000000000000000 ) ) ;
#163 = UNCERTAINTY_MEASURE_WITH_UNIT (LENGTH_MEASURE( 1.000000000000000082E-05 ), #234, 'distance_accuracy_value', 'NONE');
#164 = FILL_AREA_STYLE ('',( #41 ) ) ;
#165 = COLOUR_RGB ( '',1.000000000000000000, 0.000000000000000000, 0.000000000000000000 ) ;
#166 =( CONVERSION_BASED_UNIT ( 'INCH', #1 ) LENGTH_UNIT ( ) NAMED_UNIT ( #193 ) );
#167 = ORIENTED_EDGE ( 'NONE', *, *, #274, .T. ) ;
#168 =( CONVERSION_BASED_UNIT ( 'INCH', #95 ) LENGTH_UNIT ( ) NAMED_UNIT ( #187 ) );
#169 = CARTESIAN_POINT ( 'NONE',  ( 0.000000000000000000, 0.4374999999999998890, 0.000000000000000000 ) ) ;
#170 = COLOUR_RGB ( '',1.000000000000000000, 0.000000000000000000, 0.000000000000000000 ) ;
#171 = DIMENSIONAL_EXPONENTS ( 1.000000000000000000, 0.000000000000000000, 0.000000000000000000, 0.000000000000000000, 0.000000000000000000, 0.000000000000000000, 0.000000000000000000 ) ;
#172 = ORIENTED_EDGE ( 'NONE', *, *, #231, .T. ) ;
#173 = PRODUCT ( '59255', '59255', '', ( #112 ) ) ;
#174 = FILL_AREA_STYLE ('',( #243 ) ) ;
#175 = STYLED_ITEM ( 'NONE', ( #70 ), #156 ) ;
#176 = DIRECTION ( 'NONE',  ( 7.837739514543064125E-17, 1.000000000000000000, -0.000000000000000000 ) ) ;
#177 = ORIENTED_EDGE ( 'NONE', *, *, #122, .F. ) ;
#178 = DIRECTION ( 'NONE',  ( -7.837739514543064125E-17, -1.000000000000000000, 0.000000000000000000 ) ) ;
#179 = EDGE_CURVE ( 'NONE', #267, #30, #150, .T. ) ;
#180 =( CONVERSION_BASED_UNIT ( 'INCH', #289 ) LENGTH_UNIT ( ) NAMED_UNIT ( #28 ) );
#181 = ORIENTED_EDGE ( 'NONE', *, *, #196, .F. ) ;
#182 = AXIS2_PLACEMENT_3D ( 'NONE', #42, #141, #253 ) ;
#183 = STYLED_ITEM ( 'NONE', ( #144 ), #136 ) ;
#184 = FACE_OUTER_BOUND ( 'NONE', #98, .T. ) ;
#185 = CARTESIAN_POINT ( 'NONE',  ( 0.000000000000000000, 0.000000000000000000, -0.1562500000000000000 ) ) ;
#186 = CARTESIAN_POINT ( 'NONE',  ( 4.799231304517950640E-34, 0.4374999999999998890, 0.000000000000000000 ) ) ;
#187 = DIMENSIONAL_EXPONENTS ( 1.000000000000000000, 0.000000000000000000, 0.000000000000000000, 0.000000000000000000, 0.000000000000000000, 0.000000000000000000, 0.000000000000000000 ) ;
#188 = MECHANICAL_DESIGN_GEOMETRIC_PRESENTATION_REPRESENTATION (  '', ( #251 ), #153 ) ;
#189 =( CONVERSION_BASED_UNIT ( 'INCH', #19 ) LENGTH_UNIT ( ) NAMED_UNIT ( #44 ) );
#190 = PRESENTATION_LAYER_ASSIGNMENT (  '', '', ( #56 ) ) ;
#191 = AXIS2_PLACEMENT_3D ( 'NONE', #229, #79, #272 ) ;
#192 = FACE_OUTER_BOUND ( 'NONE', #53, .T. ) ;
#193 = DIMENSIONAL_EXPONENTS ( 1.000000000000000000, 0.000000000000000000, 0.000000000000000000, 0.000000000000000000, 0.000000000000000000, 0.000000000000000000, 0.000000000000000000 ) ;
#194 = ORIENTED_EDGE ( 'NONE', *, *, #179, .T. ) ;
#195 = PLANE ( 'NONE',  #68 ) ;
#196 = EDGE_CURVE ( 'NONE', #30, #267, #295, .T. ) ;
#197 = ORIENTED_EDGE ( 'NONE', *, *, #274, .F. ) ;
#198 = PRESENTATION_STYLE_ASSIGNMENT (( #213 ) ) ;
#199 = ORIENTED_EDGE ( 'NONE', *, *, #11, .T. ) ;
#200 = AXIS2_PLACEMENT_3D ( 'NONE', #7, #31, #206 ) ;
#201 = CARTESIAN_POINT ( 'NONE',  ( 0.1562500000000000278, 2.000000000000000000, 0.000000000000000000 ) ) ;
#202 = DIRECTION ( 'NONE',  ( 1.000000000000000000, -7.837739514543064125E-17, 0.000000000000000000 ) ) ;
#203 = SURFACE_STYLE_USAGE ( .BOTH. , #12 ) ;
#204 = CARTESIAN_POINT ( 'NONE',  ( 0.000000000000000000, 0.000000000000000000, 0.000000000000000000 ) ) ;
#205 =( NAMED_UNIT ( * ) SI_UNIT ( $, .STERADIAN. ) SOLID_ANGLE_UNIT ( ) );
#206 = DIRECTION ( 'NONE',  ( 0.000000000000000000, 0.000000000000000000, -1.000000000000000000 ) ) ;
#207 = CYLINDRICAL_SURFACE ( 'NONE', #38, 0.1562499999999999722 ) ;
#208 = FACE_OUTER_BOUND ( 'NONE', #74, .T. ) ;
#209 = PRODUCT_RELATED_PRODUCT_CATEGORY ( 'part', '', ( #173 ) ) ;
#210 = CARTESIAN_POINT ( 'NONE',  ( 1.224646799147353700E-16, 2.000000000000000000, 0.000000000000000000 ) ) ;
#211 =( LENGTH_UNIT ( ) NAMED_UNIT ( * ) SI_UNIT ( $, .METRE. ) );
#212 = ADVANCED_FACE ( 'NONE', ( #137 ), #159, .F. ) ;
#213 = SURFACE_STYLE_USAGE ( .BOTH. , #236 ) ;
#214 = VECTOR ( 'NONE', #162, 39.37007874015748143 ) ;
#215 = DIRECTION ( 'NONE',  ( 0.000000000000000000, 0.000000000000000000, -1.000000000000000000 ) ) ;
#216 = EDGE_LOOP ( 'NONE', ( #3, #199, #181, #9 ) ) ;
#217 = DIMENSIONAL_EXPONENTS ( 1.000000000000000000, 0.000000000000000000, 0.000000000000000000, 0.000000000000000000, 0.000000000000000000, 0.000000000000000000, 0.000000000000000000 ) ;
#218 = ORIENTED_EDGE ( 'NONE', *, *, #179, .F. ) ;
#219 = ORIENTED_EDGE ( 'NONE', *, *, #39, .T. ) ;
#220 = FILL_AREA_STYLE_COLOUR ( '', #52 ) ;
#221 = CARTESIAN_POINT ( 'NONE',  ( -0.1562499999999997780, 2.000000000000000000, 0.000000000000000000 ) ) ;
#222 =( LENGTH_UNIT ( ) NAMED_UNIT ( * ) SI_UNIT ( $, .METRE. ) );
#223 = CARTESIAN_POINT ( 'NONE',  ( -0.1562500000000000278, 0.4374999999999998890, 0.000000000000000000 ) ) ;
#224 = LINE ( 'NONE', #78, #113 ) ;
#225 =( NAMED_UNIT ( * ) SI_UNIT ( $, .STERADIAN. ) SOLID_ANGLE_UNIT ( ) );
#226 = CYLINDRICAL_SURFACE ( 'NONE', #139, 0.1562499999999999722 ) ;
#227 = PRESENTATION_LAYER_ASSIGNMENT (  '', '', ( #251 ) ) ;
#228 = CIRCLE ( 'NONE', #246, 0.1562499999999999167 ) ;
#229 = CARTESIAN_POINT ( 'NONE',  ( 0.000000000000000000, 0.000000000000000000, 0.000000000000000000 ) ) ;
#230 = CARTESIAN_POINT ( 'NONE',  ( 0.000000000000000000, 0.4374999999999998890, -0.1562500000000000278 ) ) ;
#231 = EDGE_CURVE ( 'NONE', #49, #290, #287, .T. ) ;
#232 = UNCERTAINTY_MEASURE_WITH_UNIT (LENGTH_MEASURE( 1.000000000000000082E-05 ), #189, 'distance_accuracy_value', 'NONE');
#233 =( GEOMETRIC_REPRESENTATION_CONTEXT ( 3 ) GLOBAL_UNCERTAINTY_ASSIGNED_CONTEXT ( ( #143 ) ) GLOBAL_UNIT_ASSIGNED_CONTEXT ( ( #180, #129, #103 ) ) REPRESENTATION_CONTEXT ( 'NONE', 'WORKASPACE' ) );
#234 =( CONVERSION_BASED_UNIT ( 'INCH', #301 ) LENGTH_UNIT ( ) NAMED_UNIT ( #217 ) );
#235 = FILL_AREA_STYLE ('',( #43 ) ) ;
#236 = SURFACE_SIDE_STYLE ('',( #5 ) ) ;
#237 = PRODUCT_DEFINITION ( 'UNKNOWN', '', #23, #117 ) ;
#238 = PRESENTATION_LAYER_ASSIGNMENT (  '', '', ( #286 ) ) ;
#239 = PRESENTATION_LAYER_ASSIGNMENT (  '', '', ( #175 ) ) ;
#240 = DIRECTION ( 'NONE',  ( -0.000000000000000000, -1.000000000000000000, -0.000000000000000000 ) ) ;
#241 =( NAMED_UNIT ( * ) PLANE_ANGLE_UNIT ( ) SI_UNIT ( $, .RADIAN. ) );
#242 = ORIENTED_EDGE ( 'NONE', *, *, #122, .T. ) ;
#243 = FILL_AREA_STYLE_COLOUR ( '', #302 ) ;
#244 = DIRECTION ( 'NONE',  ( 7.837739514543064125E-17, 1.000000000000000000, -0.000000000000000000 ) ) ;
#245 = SURFACE_STYLE_FILL_AREA ( #152 ) ;
#246 = AXIS2_PLACEMENT_3D ( 'NONE', #154, #244, #81 ) ;
#247 = CARTESIAN_POINT ( 'NONE',  ( 1.913510623667739463E-17, 0.000000000000000000, 0.1562500000000000000 ) ) ;
#248 = ORIENTED_EDGE ( 'NONE', *, *, #249, .T. ) ;
#249 = EDGE_CURVE ( 'NONE', #290, #49, #161, .T. ) ;
#250 = DIRECTION ( 'NONE',  ( -1.000000000000000000, 0.000000000000000000, 0.000000000000000000 ) ) ;
#251 = STYLED_ITEM ( 'NONE', ( #271 ), #50 ) ;
#252 = FACE_OUTER_BOUND ( 'NONE', #216, .T. ) ;
#253 = DIRECTION ( 'NONE',  ( 0.000000000000000000, 0.000000000000000000, -1.000000000000000000 ) ) ;
#254 = UNCERTAINTY_MEASURE_WITH_UNIT (LENGTH_MEASURE( 1.000000000000000082E-05 ), #168, 'distance_accuracy_value', 'NONE');
#255 = DIRECTION ( 'NONE',  ( 0.000000000000000000, 0.000000000000000000, 1.000000000000000000 ) ) ;
#256 = DIRECTION ( 'NONE',  ( -1.000000000000000000, 0.000000000000000000, 0.000000000000000000 ) ) ;
#257 =( NAMED_UNIT ( * ) SI_UNIT ( $, .STERADIAN. ) SOLID_ANGLE_UNIT ( ) );
#258 = EDGE_CURVE ( 'NONE', #284, #29, #228, .T. ) ;
#259 = ORIENTED_EDGE ( 'NONE', *, *, #118, .F. ) ;
#260 = CYLINDRICAL_SURFACE ( 'NONE', #303, 0.1562500000000000000 ) ;
#261 = MECHANICAL_DESIGN_GEOMETRIC_PRESENTATION_REPRESENTATION (  '', ( #56 ), #22 ) ;
#262 =( GEOMETRIC_REPRESENTATION_CONTEXT ( 3 ) GLOBAL_UNCERTAINTY_ASSIGNED_CONTEXT ( ( #24 ) ) GLOBAL_UNIT_ASSIGNED_CONTEXT ( ( #59, #58, #225 ) ) REPRESENTATION_CONTEXT ( 'NONE', 'WORKASPACE' ) );
#263 = LINE ( 'NONE', #185, #101 ) ;
#264 = FACE_OUTER_BOUND ( 'NONE', #292, .T. ) ;
#265 = SURFACE_STYLE_USAGE ( .BOTH. , #82 ) ;
#266 = CARTESIAN_POINT ( 'NONE',  ( 0.000000000000000000, 0.4374999999999998890, 0.000000000000000000 ) ) ;
#267 = VERTEX_POINT ( 'NONE', #247 ) ;
#268 = ORIENTED_EDGE ( 'NONE', *, *, #147, .F. ) ;
#269 = STYLED_ITEM ( 'NONE', ( #198 ), #119 ) ;
#270 = MECHANICAL_DESIGN_GEOMETRIC_PRESENTATION_REPRESENTATION (  '', ( #183 ), #276 ) ;
#271 = PRESENTATION_STYLE_ASSIGNMENT (( #61 ) ) ;
#272 = DIRECTION ( 'NONE',  ( 0.000000000000000000, 0.000000000000000000, -1.000000000000000000 ) ) ;
#273 =( NAMED_UNIT ( * ) PLANE_ANGLE_UNIT ( ) SI_UNIT ( $, .RADIAN. ) );
#274 = EDGE_CURVE ( 'NONE', #290, #284, #35, .T. ) ;
#275 = COLOUR_RGB ( '',0.7921568627450980005, 0.8196078431372548767, 0.9333333333333333481 ) ;
#276 =( GEOMETRIC_REPRESENTATION_CONTEXT ( 3 ) GLOBAL_UNCERTAINTY_ASSIGNED_CONTEXT ( ( #254 ) ) GLOBAL_UNIT_ASSIGNED_CONTEXT ( ( #168, #93, #115 ) ) REPRESENTATION_CONTEXT ( 'NONE', 'WORKASPACE' ) );
#277 = SURFACE_STYLE_USAGE ( .BOTH. , #48 ) ;
#278 = MECHANICAL_DESIGN_GEOMETRIC_PRESENTATION_REPRESENTATION (  '', ( #286 ), #293 ) ;
#279 =( GEOMETRIC_REPRESENTATION_CONTEXT ( 3 ) GLOBAL_UNCERTAINTY_ASSIGNED_CONTEXT ( ( #66 ) ) GLOBAL_UNIT_ASSIGNED_CONTEXT ( ( #166, #241, #257 ) ) REPRESENTATION_CONTEXT ( 'NONE', 'WORKASPACE' ) );
#280 = FILL_AREA_STYLE_COLOUR ( '', #170 ) ;
#281 = MECHANICAL_DESIGN_GEOMETRIC_PRESENTATION_REPRESENTATION (  '', ( #269 ), #279 ) ;
#282 = MECHANICAL_DESIGN_GEOMETRIC_PRESENTATION_REPRESENTATION (  '', ( #175 ), #233 ) ;
#283 = EDGE_LOOP ( 'NONE', ( #248, #27, #6, #197 ) ) ;
#284 = VERTEX_POINT ( 'NONE', #221 ) ;
#285 = EDGE_CURVE ( 'NONE', #102, #100, #63, .T. ) ;
#286 = STYLED_ITEM ( 'NONE', ( #149 ), #21 ) ;
#287 = CIRCLE ( 'NONE', #16, 0.1562500000000000278 ) ;
#288 = SURFACE_STYLE_FILL_AREA ( #174 ) ;
#289 = LENGTH_MEASURE_WITH_UNIT ( LENGTH_MEASURE( 0.02539999999999999897 ), #67 );
#290 = VERTEX_POINT ( 'NONE', #223 ) ;
#291 = CARTESIAN_POINT ( 'NONE',  ( 0.000000000000000000, 0.4374999999999998890, 0.000000000000000000 ) ) ;
#292 = EDGE_LOOP ( 'NONE', ( #123, #34, #219, #218 ) ) ;
#293 =( GEOMETRIC_REPRESENTATION_CONTEXT ( 3 ) GLOBAL_UNCERTAINTY_ASSIGNED_CONTEXT ( ( #163 ) ) GLOBAL_UNIT_ASSIGNED_CONTEXT ( ( #234, #273, #294 ) ) REPRESENTATION_CONTEXT ( 'NONE', 'WORKASPACE' ) );
#294 =( NAMED_UNIT ( * ) SI_UNIT ( $, .STERADIAN. ) SOLID_ANGLE_UNIT ( ) );
#295 = CIRCLE ( 'NONE', #191, 0.1562500000000000000 ) ;
#296 = CARTESIAN_POINT ( 'NONE',  ( 0.000000000000000000, 0.4374999999999998890, 0.000000000000000000 ) ) ;
#297 = DIRECTION ( 'NONE',  ( -1.000000000000000000, 0.000000000000000000, 0.000000000000000000 ) ) ;
#298 = PLANE ( 'NONE',  #2 ) ;
#299 = DIRECTION ( 'NONE',  ( -0.000000000000000000, -1.000000000000000000, -0.000000000000000000 ) ) ;
#300 = APPLICATION_PROTOCOL_DEFINITION ( 'draft international standard', 'automotive_design', 1998, #131 ) ;
#301 = LENGTH_MEASURE_WITH_UNIT ( LENGTH_MEASURE( 0.02539999999999999897 ), #211 );
#302 = COLOUR_RGB ( '',1.000000000000000000, 0.000000000000000000, 0.000000000000000000 ) ;
#303 = AXIS2_PLACEMENT_3D ( 'NONE', #204, #138, #33 ) ;
#304 =( NAMED_UNIT ( * ) PLANE_ANGLE_UNIT ( ) SI_UNIT ( $, .RADIAN. ) );
#305 = ADVANCED_FACE ( 'NONE', ( #208 ), #298, .F. ) ;
#306 = SURFACE_STYLE_USAGE ( .BOTH. , #309 ) ;
#307 = DIRECTION ( 'NONE',  ( 1.000000000000000000, 0.000000000000000000, 0.000000000000000000 ) ) ;
#308 = CIRCLE ( 'NONE', #126, 0.1562499999999999167 ) ;
#309 = SURFACE_SIDE_STYLE ('',( #128 ) ) ;
ENDSEC;
END-ISO-10303-21;
