ISO-10303-21;
HEADER;
FILE_DESCRIPTION (( 'STEP AP214' ),
    '1' );
FILE_NAME ('Micro_RME-029-2X.STEP',
    '2021-09-01T23:07:58',
    ( '' ),
    ( '' ),
    'SwSTEP 2.0',
    'SolidWorks 2020',
    '' );
FILE_SCHEMA (( 'AUTOMOTIVE_DESIGN' ));
ENDSEC;

DATA;
#1 = CIRCLE ( 'NONE', #282, 0.06250000000000002776 ) ;
#2 = DIRECTION ( 'NONE',  ( -1.000000000000000000, 0.0000000000000000000, 1.224646799147353454E-16 ) ) ;
#3 = DIRECTION ( 'NONE',  ( -1.224646799147353454E-16, -0.0000000000000000000, -1.000000000000000000 ) ) ;
#4 = ADVANCED_FACE ( 'NONE', ( #283 ), #255, .T. ) ;
#5 = DIRECTION ( 'NONE',  ( -1.000000000000000000, 0.0000000000000000000, 1.224646799147353454E-16 ) ) ;
#6 = ADVANCED_FACE ( 'NONE', ( #284 ), #30, .F. ) ;
#7 =( CONVERSION_BASED_UNIT ( 'INCH', #254 ) LENGTH_UNIT ( ) NAMED_UNIT ( #213 ) );
#8 = PRESENTATION_LAYER_ASSIGNMENT (  '', '', ( #177 ) ) ;
#9 = FACE_OUTER_BOUND ( 'NONE', #144, .T. ) ;
#10 = CARTESIAN_POINT ( 'NONE',  ( -0.01448549999999998797, 4.714002307787929895E-18, 0.08699999999999999400 ) ) ;
#11 = DIRECTION ( 'NONE',  ( 0.0000000000000000000, 0.0000000000000000000, -1.000000000000000000 ) ) ;
#12 = CARTESIAN_POINT ( 'NONE',  ( -0.04750000000000064587, 0.0000000000000000000, 1.500000000000000222 ) ) ;
#13 =( GEOMETRIC_REPRESENTATION_CONTEXT ( 3 ) GLOBAL_UNCERTAINTY_ASSIGNED_CONTEXT ( ( #187 ) ) GLOBAL_UNIT_ASSIGNED_CONTEXT ( ( #229, #166, #245 ) ) REPRESENTATION_CONTEXT ( 'NONE', 'WORKASPACE' ) );
#14 = CARTESIAN_POINT ( 'NONE',  ( 0.01448550000000001052, 0.0000000000000000000, 0.08699999999999999400 ) ) ;
#15 = PRODUCT_DEFINITION ( 'UNKNOWN', '', #276, #248 ) ;
#16 = DIRECTION ( 'NONE',  ( -1.000000000000000000, 0.0000000000000000000, 1.224646799147353454E-16 ) ) ;
#17 = PRESENTATION_STYLE_ASSIGNMENT (( #91 ) ) ;
#18 = CIRCLE ( 'NONE', #80, 0.04750000000000064587 ) ;
#19 = AXIS2_PLACEMENT_3D ( 'NONE', #128, #134, #106 ) ;
#20 = VERTEX_POINT ( 'NONE', #74 ) ;
#21 = EDGE_CURVE ( 'NONE', #185, #226, #55, .T. ) ;
#22 = EDGE_LOOP ( 'NONE', ( #111, #293, #231, #251 ) ) ;
#23 = EDGE_LOOP ( 'NONE', ( #63, #25, #70, #225 ) ) ;
#24 = VECTOR ( 'NONE', #36, 39.37007874015748854 ) ;
#25 = ORIENTED_EDGE ( 'NONE', *, *, #133, .T. ) ;
#26 = CARTESIAN_POINT ( 'NONE',  ( 0.0000000000000000000, 0.0000000000000000000, 0.0000000000000000000 ) ) ;
#27 = AXIS2_PLACEMENT_3D ( 'NONE', #263, #158, #286 ) ;
#28 = FACE_OUTER_BOUND ( 'NONE', #46, .T. ) ;
#29 = DIRECTION ( 'NONE',  ( 1.000000000000000000, 0.0000000000000000000, 0.0000000000000000000 ) ) ;
#30 = PLANE ( 'NONE',  #152 ) ;
#31 = EDGE_CURVE ( 'NONE', #192, #185, #129, .T. ) ;
#32 = DIRECTION ( 'NONE',  ( 0.0000000000000000000, 0.0000000000000000000, 1.000000000000000000 ) ) ;
#33 = CIRCLE ( 'NONE', #198, 0.01448549999999999838 ) ;
#34 = CARTESIAN_POINT ( 'NONE',  ( 2.172477033174834641E-34, 0.0000000000000000000, 1.773962120904898779E-18 ) ) ;
#35 = FACE_OUTER_BOUND ( 'NONE', #45, .T. ) ;
#36 = DIRECTION ( 'NONE',  ( 0.7071067811865462405, 8.659560562354916834E-17, -0.7071067811865486830 ) ) ;
#37 = VECTOR ( 'NONE', #264, 39.37007874015748143 ) ;
#38 = EDGE_CURVE ( 'NONE', #252, #197, #102, .T. ) ;
#39 = CARTESIAN_POINT ( 'NONE',  ( -0.06249999999999997918, 0.0000000000000000000, 0.3593037609280331224 ) ) ;
#40 = EDGE_CURVE ( 'NONE', #252, #114, #119, .T. ) ;
#41 = DIRECTION ( 'NONE',  ( -1.224646799147353454E-16, -0.0000000000000000000, -1.000000000000000000 ) ) ;
#42 = APPLICATION_PROTOCOL_DEFINITION ( 'draft international standard', 'automotive_design', 1998, #69 ) ;
#43 = AXIS2_PLACEMENT_3D ( 'NONE', #215, #50, #233 ) ;
#44 =( GEOMETRIC_REPRESENTATION_CONTEXT ( 3 ) GLOBAL_UNCERTAINTY_ASSIGNED_CONTEXT ( ( #269 ) ) GLOBAL_UNIT_ASSIGNED_CONTEXT ( ( #204, #66, #110 ) ) REPRESENTATION_CONTEXT ( 'NONE', 'WORKASPACE' ) );
#45 = EDGE_LOOP ( 'NONE', ( #117, #274, #195, #188 ) ) ;
#46 = EDGE_LOOP ( 'NONE', ( #298, #161, #87, #272 ) ) ;
#47 = ORIENTED_EDGE ( 'NONE', *, *, #270, .T. ) ;
#48 = AXIS2_PLACEMENT_3D ( 'NONE', #97, #196, #52 ) ;
#49 = ORIENTED_EDGE ( 'NONE', *, *, #167, .F. ) ;
#50 = DIRECTION ( 'NONE',  ( -0.0000000000000000000, -0.0000000000000000000, -1.000000000000000000 ) ) ;
#51 = CARTESIAN_POINT ( 'NONE',  ( -0.01448549999999999838, 0.0000000000000000000, 1.773962120904898779E-18 ) ) ;
#52 = DIRECTION ( 'NONE',  ( -1.000000000000000000, 0.0000000000000000000, 0.0000000000000000000 ) ) ;
#53 = DIRECTION ( 'NONE',  ( 1.000000000000000000, 0.0000000000000000000, 0.0000000000000000000 ) ) ;
#54 = EDGE_CURVE ( 'NONE', #226, #197, #194, .T. ) ;
#55 = LINE ( 'NONE', #95, #139 ) ;
#56 = SURFACE_STYLE_USAGE ( .BOTH. , #285 ) ;
#57 = FACE_OUTER_BOUND ( 'NONE', #23, .T. ) ;
#58 = EDGE_CURVE ( 'NONE', #295, #197, #94, .T. ) ;
#59 = DIRECTION ( 'NONE',  ( 1.000000000000000000, 0.0000000000000000000, -0.0000000000000000000 ) ) ;
#60 = AXIS2_PLACEMENT_3D ( 'NONE', #77, #211, #174 ) ;
#61 = SURFACE_STYLE_FILL_AREA ( #181 ) ;
#62 = DIRECTION ( 'NONE',  ( 1.224646799147353454E-16, 0.0000000000000000000, 1.000000000000000000 ) ) ;
#63 = ORIENTED_EDGE ( 'NONE', *, *, #270, .F. ) ;
#64 = ORIENTED_EDGE ( 'NONE', *, *, #235, .F. ) ;
#65 = EDGE_LOOP ( 'NONE', ( #299, #209 ) ) ;
#66 =( NAMED_UNIT ( * ) PLANE_ANGLE_UNIT ( ) SI_UNIT ( $, .RADIAN. ) );
#67 = EDGE_CURVE ( 'NONE', #114, #20, #186, .T. ) ;
#68 = EDGE_LOOP ( 'NONE', ( #137, #159, #123, #64 ) ) ;
#69 = APPLICATION_CONTEXT ( 'automotive_design' ) ;
#70 = ORIENTED_EDGE ( 'NONE', *, *, #40, .T. ) ;
#71 = AXIS2_PLACEMENT_3D ( 'NONE', #238, #201, #265 ) ;
#72 = DIRECTION ( 'NONE',  ( 0.0000000000000000000, 0.0000000000000000000, 1.000000000000000000 ) ) ;
#73 =( NAMED_UNIT ( * ) PLANE_ANGLE_UNIT ( ) SI_UNIT ( $, .RADIAN. ) );
#74 = CARTESIAN_POINT ( 'NONE',  ( 0.01448549999999999838, 1.773962120904898394E-18, 0.0000000000000000000 ) ) ;
#75 = DIRECTION ( 'NONE',  ( 0.0000000000000000000, 0.0000000000000000000, 1.000000000000000000 ) ) ;
#76 =( GEOMETRIC_REPRESENTATION_CONTEXT ( 3 ) GLOBAL_UNCERTAINTY_ASSIGNED_CONTEXT ( ( #143 ) ) GLOBAL_UNIT_ASSIGNED_CONTEXT ( ( #7, #73, #98 ) ) REPRESENTATION_CONTEXT ( 'NONE', 'WORKASPACE' ) );
#77 = CARTESIAN_POINT ( 'NONE',  ( 0.0000000000000000000, 0.0000000000000000000, 1.500000000000000222 ) ) ;
#78 = DIRECTION ( 'NONE',  ( 1.000000000000000000, 0.0000000000000000000, -0.0000000000000000000 ) ) ;
#79 = CARTESIAN_POINT ( 'NONE',  ( 0.0000000000000000000, 0.0000000000000000000, 1.500000000000000222 ) ) ;
#80 = AXIS2_PLACEMENT_3D ( 'NONE', #212, #72, #168 ) ;
#81 = PRESENTATION_LAYER_ASSIGNMENT (  '', '', ( #256 ) ) ;
#82 = CARTESIAN_POINT ( 'NONE',  ( 0.06250000000000002776, 7.654042494670959086E-18, 1.485000000000000764 ) ) ;
#83 = DIRECTION ( 'NONE',  ( 1.000000000000000000, 0.0000000000000000000, 0.0000000000000000000 ) ) ;
#84 = DIRECTION ( 'NONE',  ( -1.224646799147353454E-16, -0.0000000000000000000, -1.000000000000000000 ) ) ;
#85 = DIRECTION ( 'NONE',  ( 0.0000000000000000000, 0.0000000000000000000, 1.000000000000000000 ) ) ;
#86 = ORIENTED_EDGE ( 'NONE', *, *, #278, .T. ) ;
#87 = ORIENTED_EDGE ( 'NONE', *, *, #54, .T. ) ;
#88 = CIRCLE ( 'NONE', #71, 0.06250000000000002776 ) ;
#89 = EDGE_CURVE ( 'NONE', #185, #192, #18, .T. ) ;
#90 = EDGE_CURVE ( 'NONE', #184, #295, #236, .T. ) ;
#91 = SURFACE_STYLE_USAGE ( .BOTH. , #297 ) ;
#92 = VERTEX_POINT ( 'NONE', #280 ) ;
#93 = FACE_OUTER_BOUND ( 'NONE', #140, .T. ) ;
#94 = CIRCLE ( 'NONE', #296, 0.06250000000000002776 ) ;
#95 = CARTESIAN_POINT ( 'NONE',  ( -0.04750000000000064587, 0.0000000000000000000, 1.500000000000000222 ) ) ;
#96 = PRODUCT_RELATED_PRODUCT_CATEGORY ( 'part', '', ( #131 ) ) ;
#97 = CARTESIAN_POINT ( 'NONE',  ( 0.0000000000000000000, 0.0000000000000000000, 1.500000000000000222 ) ) ;
#98 =( NAMED_UNIT ( * ) SI_UNIT ( $, .STERADIAN. ) SOLID_ANGLE_UNIT ( ) );
#99 = CARTESIAN_POINT ( 'NONE',  ( 0.0000000000000000000, 0.0000000000000000000, 1.500000000000000222 ) ) ;
#100 = MECHANICAL_DESIGN_GEOMETRIC_PRESENTATION_REPRESENTATION (  '', ( #256 ), #76 ) ;
#101 = ADVANCED_FACE ( 'NONE', ( #9 ), #126, .T. ) ;
#102 = LINE ( 'NONE', #151, #292 ) ;
#103 = CARTESIAN_POINT ( 'NONE',  ( 0.0000000000000000000, 0.0000000000000000000, 1.485000000000000764 ) ) ;
#104 = DIMENSIONAL_EXPONENTS ( 1.000000000000000000, 0.0000000000000000000, 0.0000000000000000000, 0.0000000000000000000, 0.0000000000000000000, 0.0000000000000000000, 0.0000000000000000000 ) ;
#105 = AXIS2_PLACEMENT_3D ( 'NONE', #175, #154, #16 ) ;
#106 = DIRECTION ( 'NONE',  ( 1.000000000000000000, 0.0000000000000000000, 0.0000000000000000000 ) ) ;
#107 = DIRECTION ( 'NONE',  ( 1.000000000000000000, 0.0000000000000000000, 0.0000000000000000000 ) ) ;
#108 = DIRECTION ( 'NONE',  ( -1.000000000000000000, 0.0000000000000000000, 0.0000000000000000000 ) ) ;
#109 = ORIENTED_EDGE ( 'NONE', *, *, #54, .F. ) ;
#110 =( NAMED_UNIT ( * ) SI_UNIT ( $, .STERADIAN. ) SOLID_ANGLE_UNIT ( ) );
#111 = ORIENTED_EDGE ( 'NONE', *, *, #223, .F. ) ;
#112 = ADVANCED_FACE ( 'NONE', ( #93 ), #145, .T. ) ;
#113 = AXIS2_PLACEMENT_3D ( 'NONE', #26, #257, #2 ) ;
#114 = VERTEX_POINT ( 'NONE', #253 ) ;
#115 = VECTOR ( 'NONE', #84, 39.37007874015748143 ) ;
#116 = EDGE_LOOP ( 'NONE', ( #146, #190 ) ) ;
#117 = ORIENTED_EDGE ( 'NONE', *, *, #38, .F. ) ;
#118 = SHAPE_DEFINITION_REPRESENTATION ( #271, #165 ) ;
#119 = LINE ( 'NONE', #51, #135 ) ;
#120 = CONICAL_SURFACE ( 'NONE', #19, 0.01448549999999999838, 0.1745329251994338915 ) ;
#121 = CYLINDRICAL_SURFACE ( 'NONE', #48, 0.06250000000000002776 ) ;
#122 = PRODUCT_CONTEXT ( 'NONE', #69, 'mechanical' ) ;
#123 = ORIENTED_EDGE ( 'NONE', *, *, #167, .T. ) ;
#124 = ADVANCED_FACE ( 'NONE', ( #28 ), #121, .T. ) ;
#125 = CARTESIAN_POINT ( 'NONE',  ( 0.06250000000000002776, 7.654042494670959086E-18, 1.500000000000000222 ) ) ;
#126 = CYLINDRICAL_SURFACE ( 'NONE', #43, 0.06250000000000002776 ) ;
#127 = CARTESIAN_POINT ( 'NONE',  ( 0.04750000000000064587, 6.735557395310483192E-18, 1.500000000000000222 ) ) ;
#128 = CARTESIAN_POINT ( 'NONE',  ( 1.065442715258197396E-17, 0.0000000000000000000, 0.08699999999999999400 ) ) ;
#129 = CIRCLE ( 'NONE', #176, 0.04750000000000064587 ) ;
#130 = FACE_OUTER_BOUND ( 'NONE', #68, .T. ) ;
#131 = PRODUCT ( 'Micro_RME-029-2X', 'Micro_RME-029-2X', '', ( #122 ) ) ;
#132 = CARTESIAN_POINT ( 'NONE',  ( 1.065442715258197396E-17, 0.0000000000000000000, 0.08699999999999999400 ) ) ;
#133 = EDGE_CURVE ( 'NONE', #92, #252, #222, .T. ) ;
#134 = DIRECTION ( 'NONE',  ( 1.224646799147353454E-16, 0.0000000000000000000, 1.000000000000000000 ) ) ;
#135 = VECTOR ( 'NONE', #3, 39.37007874015748143 ) ;
#136 = CIRCLE ( 'NONE', #156, 0.01448549999999999838 ) ;
#137 = ORIENTED_EDGE ( 'NONE', *, *, #180, .F. ) ;
#138 = SURFACE_STYLE_FILL_AREA ( #221 ) ;
#139 = VECTOR ( 'NONE', #170, 39.37007874015748854 ) ;
#140 = EDGE_LOOP ( 'NONE', ( #275, #47, #258, #250 ) ) ;
#141 = COLOUR_RGB ( '',0.7921568627450980005, 0.8196078431372548767, 0.9333333333333333481 ) ;
#142 = CARTESIAN_POINT ( 'NONE',  ( 0.0000000000000000000, 0.0000000000000000000, 0.0000000000000000000 ) ) ;
#143 = UNCERTAINTY_MEASURE_WITH_UNIT (LENGTH_MEASURE( 1.000000000000000082E-05 ), #7, 'distance_accuracy_value', 'NONE');
#144 = EDGE_LOOP ( 'NONE', ( #86, #246, #49, #109 ) ) ;
#145 = CYLINDRICAL_SURFACE ( 'NONE', #113, 0.01448549999999999838 ) ;
#146 = ORIENTED_EDGE ( 'NONE', *, *, #67, .T. ) ;
#147 = AXIS2_PLACEMENT_3D ( 'NONE', #281, #148, #234 ) ;
#148 = DIRECTION ( 'NONE',  ( -1.224646799147353454E-16, -0.0000000000000000000, -1.000000000000000000 ) ) ;
#149 = ADVANCED_FACE ( 'NONE', ( #57 ), #202, .T. ) ;
#150 = DIRECTION ( 'NONE',  ( -1.224646799147353454E-16, -0.0000000000000000000, -1.000000000000000000 ) ) ;
#151 = CARTESIAN_POINT ( 'NONE',  ( -0.01448549999999998797, 1.773962120904898394E-18, 0.08699999999999999400 ) ) ;
#152 = AXIS2_PLACEMENT_3D ( 'NONE', #259, #75, #78 ) ;
#153 = EDGE_CURVE ( 'NONE', #20, #114, #136, .T. ) ;
#154 = DIRECTION ( 'NONE',  ( -1.224646799147353454E-16, -0.0000000000000000000, -1.000000000000000000 ) ) ;
#155 = CARTESIAN_POINT ( 'NONE',  ( 0.01448549999999999838, 1.773962120904898394E-18, -1.773962120904898779E-18 ) ) ;
#156 = AXIS2_PLACEMENT_3D ( 'NONE', #217, #291, #183 ) ;
#157 = DIRECTION ( 'NONE',  ( -1.000000000000000000, 0.0000000000000000000, 0.0000000000000000000 ) ) ;
#158 = DIRECTION ( 'NONE',  ( 0.0000000000000000000, 0.0000000000000000000, -1.000000000000000000 ) ) ;
#159 = ORIENTED_EDGE ( 'NONE', *, *, #38, .T. ) ;
#160 = LENGTH_MEASURE_WITH_UNIT ( LENGTH_MEASURE( 0.02539999999999999897 ), #294 );
#161 = ORIENTED_EDGE ( 'NONE', *, *, #164, .T. ) ;
#162 = EDGE_LOOP ( 'NONE', ( #205, #273, #207, #230 ) ) ;
#163 = CARTESIAN_POINT ( 'NONE',  ( 0.06250000000000006939, 7.654042494670963708E-18, 0.3593037609280331224 ) ) ;
#164 = EDGE_CURVE ( 'NONE', #184, #226, #267, .T. ) ;
#165 = ADVANCED_BREP_SHAPE_REPRESENTATION ( 'Micro_RME-029-2X', ( #279, #244 ), #13 ) ;
#166 =( NAMED_UNIT ( * ) PLANE_ANGLE_UNIT ( ) SI_UNIT ( $, .RADIAN. ) );
#167 = EDGE_CURVE ( 'NONE', #197, #295, #88, .T. ) ;
#168 = DIRECTION ( 'NONE',  ( 1.000000000000000000, 0.0000000000000000000, 0.0000000000000000000 ) ) ;
#169 = APPLICATION_PROTOCOL_DEFINITION ( 'draft international standard', 'automotive_design', 1998, #290 ) ;
#170 = DIRECTION ( 'NONE',  ( -0.7071067811865462405, 0.0000000000000000000, -0.7071067811865486830 ) ) ;
#171 = DIRECTION ( 'NONE',  ( 1.000000000000000000, 0.0000000000000000000, 0.0000000000000000000 ) ) ;
#172 = CONICAL_SURFACE ( 'NONE', #262, 0.04750000000000064587, 0.7853981633974466137 ) ;
#173 = DIRECTION ( 'NONE',  ( -1.224646799147353454E-16, -0.0000000000000000000, -1.000000000000000000 ) ) ;
#174 = DIRECTION ( 'NONE',  ( -1.000000000000000000, 0.0000000000000000000, 0.0000000000000000000 ) ) ;
#175 = CARTESIAN_POINT ( 'NONE',  ( 0.0000000000000000000, 0.0000000000000000000, 0.0000000000000000000 ) ) ;
#176 = AXIS2_PLACEMENT_3D ( 'NONE', #99, #32, #171 ) ;
#177 = STYLED_ITEM ( 'NONE', ( #178 ), #279 ) ;
#178 = PRESENTATION_STYLE_ASSIGNMENT (( #56 ) ) ;
#179 = LINE ( 'NONE', #14, #37 ) ;
#180 = EDGE_CURVE ( 'NONE', #252, #92, #33, .T. ) ;
#181 = FILL_AREA_STYLE ('',( #289 ) ) ;
#182 = VECTOR ( 'NONE', #210, 39.37007874015748143 ) ;
#183 = DIRECTION ( 'NONE',  ( -1.000000000000000000, 0.0000000000000000000, 1.224646799147353454E-16 ) ) ;
#184 = VERTEX_POINT ( 'NONE', #82 ) ;
#185 = VERTEX_POINT ( 'NONE', #12 ) ;
#186 = CIRCLE ( 'NONE', #260, 0.01448549999999999838 ) ;
#187 = UNCERTAINTY_MEASURE_WITH_UNIT (LENGTH_MEASURE( 1.000000000000000082E-05 ), #229, 'distance_accuracy_value', 'NONE');
#188 = ORIENTED_EDGE ( 'NONE', *, *, #58, .T. ) ;
#189 = ADVANCED_FACE ( 'NONE', ( #200 ), #242, .T. ) ;
#190 = ORIENTED_EDGE ( 'NONE', *, *, #153, .T. ) ;
#191 = ADVANCED_FACE ( 'NONE', ( #268 ), #172, .T. ) ;
#192 = VERTEX_POINT ( 'NONE', #127 ) ;
#193 = COLOUR_RGB ( '',0.7921568627450980005, 0.8196078431372548767, 0.9333333333333333481 ) ;
#194 = LINE ( 'NONE', #199, #182 ) ;
#195 = ORIENTED_EDGE ( 'NONE', *, *, #235, .T. ) ;
#196 = DIRECTION ( 'NONE',  ( -0.0000000000000000000, -0.0000000000000000000, -1.000000000000000000 ) ) ;
#197 = VERTEX_POINT ( 'NONE', #39 ) ;
#198 = AXIS2_PLACEMENT_3D ( 'NONE', #132, #41, #157 ) ;
#199 = CARTESIAN_POINT ( 'NONE',  ( -0.06250000000000002776, 0.0000000000000000000, 1.500000000000000222 ) ) ;
#200 = FACE_OUTER_BOUND ( 'NONE', #65, .T. ) ;
#201 = DIRECTION ( 'NONE',  ( -1.224646799147353454E-16, -0.0000000000000000000, -1.000000000000000000 ) ) ;
#202 = CYLINDRICAL_SURFACE ( 'NONE', #105, 0.01448549999999999838 ) ;
#203 = AXIS2_PLACEMENT_3D ( 'NONE', #287, #85, #59 ) ;
#204 =( CONVERSION_BASED_UNIT ( 'INCH', #247 ) LENGTH_UNIT ( ) NAMED_UNIT ( #240 ) );
#205 = ORIENTED_EDGE ( 'NONE', *, *, #31, .F. ) ;
#206 = MECHANICAL_DESIGN_GEOMETRIC_PRESENTATION_REPRESENTATION (  '', ( #177 ), #44 ) ;
#207 = ORIENTED_EDGE ( 'NONE', *, *, #278, .F. ) ;
#208 = DIRECTION ( 'NONE',  ( 0.0000000000000000000, 0.0000000000000000000, 1.000000000000000000 ) ) ;
#209 = ORIENTED_EDGE ( 'NONE', *, *, #31, .T. ) ;
#210 = DIRECTION ( 'NONE',  ( -0.0000000000000000000, -0.0000000000000000000, -1.000000000000000000 ) ) ;
#211 = DIRECTION ( 'NONE',  ( 0.0000000000000000000, 0.0000000000000000000, -1.000000000000000000 ) ) ;
#212 = CARTESIAN_POINT ( 'NONE',  ( 0.0000000000000000000, 0.0000000000000000000, 1.500000000000000222 ) ) ;
#213 = DIMENSIONAL_EXPONENTS ( 1.000000000000000000, 0.0000000000000000000, 0.0000000000000000000, 0.0000000000000000000, 0.0000000000000000000, 0.0000000000000000000, 0.0000000000000000000 ) ;
#214 = DIRECTION ( 'NONE',  ( -0.0000000000000000000, -0.0000000000000000000, -1.000000000000000000 ) ) ;
#215 = CARTESIAN_POINT ( 'NONE',  ( 0.0000000000000000000, 0.0000000000000000000, 1.500000000000000222 ) ) ;
#216 =( LENGTH_UNIT ( ) NAMED_UNIT ( * ) SI_UNIT ( $, .METRE. ) );
#217 = CARTESIAN_POINT ( 'NONE',  ( 2.172477033174834641E-34, 0.0000000000000000000, 1.773962120904898779E-18 ) ) ;
#218 = AXIS2_PLACEMENT_3D ( 'NONE', #241, #62, #83 ) ;
#219 = LINE ( 'NONE', #155, #115 ) ;
#220 = CARTESIAN_POINT ( 'NONE',  ( 0.04750000000000064587, 5.817072295950006528E-18, 1.500000000000000222 ) ) ;
#221 = FILL_AREA_STYLE ('',( #249 ) ) ;
#222 = CIRCLE ( 'NONE', #147, 0.01448549999999999838 ) ;
#223 = EDGE_CURVE ( 'NONE', #192, #184, #243, .T. ) ;
#224 =( LENGTH_UNIT ( ) NAMED_UNIT ( * ) SI_UNIT ( $, .METRE. ) );
#225 = ORIENTED_EDGE ( 'NONE', *, *, #153, .F. ) ;
#226 = VERTEX_POINT ( 'NONE', #261 ) ;
#227 = ADVANCED_FACE ( 'NONE', ( #35 ), #228, .T. ) ;
#228 = CONICAL_SURFACE ( 'NONE', #218, 0.01448549999999999838, 0.1745329251994338915 ) ;
#229 =( CONVERSION_BASED_UNIT ( 'INCH', #160 ) LENGTH_UNIT ( ) NAMED_UNIT ( #104 ) );
#230 = ORIENTED_EDGE ( 'NONE', *, *, #21, .F. ) ;
#231 = ORIENTED_EDGE ( 'NONE', *, *, #21, .T. ) ;
#232 = ADVANCED_FACE ( 'NONE', ( #130 ), #120, .T. ) ;
#233 = DIRECTION ( 'NONE',  ( -1.000000000000000000, 0.0000000000000000000, 0.0000000000000000000 ) ) ;
#234 = DIRECTION ( 'NONE',  ( -1.000000000000000000, 0.0000000000000000000, 0.0000000000000000000 ) ) ;
#235 = EDGE_CURVE ( 'NONE', #92, #295, #179, .T. ) ;
#236 = LINE ( 'NONE', #125, #266 ) ;
#237 = CARTESIAN_POINT ( 'NONE',  ( 4.400202007421216978E-17, 0.0000000000000000000, 0.3593037609280331224 ) ) ;
#238 = CARTESIAN_POINT ( 'NONE',  ( 4.400202007421216978E-17, 0.0000000000000000000, 0.3593037609280331224 ) ) ;
#239 = DIRECTION ( 'NONE',  ( 0.0000000000000000000, 0.0000000000000000000, -1.000000000000000000 ) ) ;
#240 = DIMENSIONAL_EXPONENTS ( 1.000000000000000000, 0.0000000000000000000, 0.0000000000000000000, 0.0000000000000000000, 0.0000000000000000000, 0.0000000000000000000, 0.0000000000000000000 ) ;
#241 = CARTESIAN_POINT ( 'NONE',  ( 1.065442715258197396E-17, 0.0000000000000000000, 0.08699999999999999400 ) ) ;
#242 = PLANE ( 'NONE',  #203 ) ;
#243 = LINE ( 'NONE', #220, #24 ) ;
#244 = AXIS2_PLACEMENT_3D ( 'NONE', #142, #208, #29 ) ;
#245 =( NAMED_UNIT ( * ) SI_UNIT ( $, .STERADIAN. ) SOLID_ANGLE_UNIT ( ) );
#246 = ORIENTED_EDGE ( 'NONE', *, *, #90, .T. ) ;
#247 = LENGTH_MEASURE_WITH_UNIT ( LENGTH_MEASURE( 0.02539999999999999897 ), #216 );
#248 = PRODUCT_DEFINITION_CONTEXT ( 'detailed design', #290, 'design' ) ;
#249 = FILL_AREA_STYLE_COLOUR ( '', #141 ) ;
#250 = ORIENTED_EDGE ( 'NONE', *, *, #40, .F. ) ;
#251 = ORIENTED_EDGE ( 'NONE', *, *, #164, .F. ) ;
#252 = VERTEX_POINT ( 'NONE', #10 ) ;
#253 = CARTESIAN_POINT ( 'NONE',  ( -0.01448549999999999838, 0.0000000000000000000, 3.547924241809797558E-18 ) ) ;
#254 = LENGTH_MEASURE_WITH_UNIT ( LENGTH_MEASURE( 0.02539999999999999897 ), #224 );
#255 = CONICAL_SURFACE ( 'NONE', #60, 0.04750000000000064587, 0.7853981633974466137 ) ;
#256 = STYLED_ITEM ( 'NONE', ( #17 ), #165 ) ;
#257 = DIRECTION ( 'NONE',  ( -1.224646799147353454E-16, -0.0000000000000000000, -1.000000000000000000 ) ) ;
#258 = ORIENTED_EDGE ( 'NONE', *, *, #67, .F. ) ;
#259 = CARTESIAN_POINT ( 'NONE',  ( 0.0000000000000000000, 0.0000000000000000000, 0.0000000000000000000 ) ) ;
#260 = AXIS2_PLACEMENT_3D ( 'NONE', #34, #173, #5 ) ;
#261 = CARTESIAN_POINT ( 'NONE',  ( -0.06250000000000002776, 0.0000000000000000000, 1.485000000000000764 ) ) ;
#262 = AXIS2_PLACEMENT_3D ( 'NONE', #79, #239, #108 ) ;
#263 = CARTESIAN_POINT ( 'NONE',  ( 0.0000000000000000000, 0.0000000000000000000, 1.485000000000000764 ) ) ;
#264 = DIRECTION ( 'NONE',  ( 0.1736481776669313859, 0.0000000000000000000, 0.9848077530122077983 ) ) ;
#265 = DIRECTION ( 'NONE',  ( 1.000000000000000000, 0.0000000000000000000, 0.0000000000000000000 ) ) ;
#266 = VECTOR ( 'NONE', #214, 39.37007874015748143 ) ;
#267 = CIRCLE ( 'NONE', #27, 0.06250000000000002776 ) ;
#268 = FACE_OUTER_BOUND ( 'NONE', #162, .T. ) ;
#269 = UNCERTAINTY_MEASURE_WITH_UNIT (LENGTH_MEASURE( 1.000000000000000082E-05 ), #204, 'distance_accuracy_value', 'NONE');
#270 = EDGE_CURVE ( 'NONE', #92, #20, #219, .T. ) ;
#271 = PRODUCT_DEFINITION_SHAPE ( 'NONE', 'NONE',  #15 ) ;
#272 = ORIENTED_EDGE ( 'NONE', *, *, #58, .F. ) ;
#273 = ORIENTED_EDGE ( 'NONE', *, *, #223, .T. ) ;
#274 = ORIENTED_EDGE ( 'NONE', *, *, #133, .F. ) ;
#275 = ORIENTED_EDGE ( 'NONE', *, *, #180, .T. ) ;
#276 = PRODUCT_DEFINITION_FORMATION_WITH_SPECIFIED_SOURCE ( 'ANY', '', #131, .NOT_KNOWN. ) ;
#277 = DIRECTION ( 'NONE',  ( -0.1736481776669311916, 2.126576849575783316E-17, 0.9848077530122080203 ) ) ;
#278 = EDGE_CURVE ( 'NONE', #226, #184, #1, .T. ) ;
#279 = MANIFOLD_SOLID_BREP ( 'Cut-Revolve1', #288 ) ;
#280 = CARTESIAN_POINT ( 'NONE',  ( 0.01448550000000001052, 0.0000000000000000000, 0.08699999999999999400 ) ) ;
#281 = CARTESIAN_POINT ( 'NONE',  ( 1.065442715258197396E-17, 0.0000000000000000000, 0.08699999999999999400 ) ) ;
#282 = AXIS2_PLACEMENT_3D ( 'NONE', #103, #11, #107 ) ;
#283 = FACE_OUTER_BOUND ( 'NONE', #22, .T. ) ;
#284 = FACE_OUTER_BOUND ( 'NONE', #116, .T. ) ;
#285 = SURFACE_SIDE_STYLE ('',( #61 ) ) ;
#286 = DIRECTION ( 'NONE',  ( 1.000000000000000000, 0.0000000000000000000, 0.0000000000000000000 ) ) ;
#287 = CARTESIAN_POINT ( 'NONE',  ( 0.0000000000000000000, 0.0000000000000000000, 1.500000000000000222 ) ) ;
#288 = CLOSED_SHELL ( 'NONE', ( #112, #232, #191, #101, #124, #189, #4, #227, #149, #6 ) ) ;
#289 = FILL_AREA_STYLE_COLOUR ( '', #193 ) ;
#290 = APPLICATION_CONTEXT ( 'automotive_design' ) ;
#291 = DIRECTION ( 'NONE',  ( -1.224646799147353454E-16, -0.0000000000000000000, -1.000000000000000000 ) ) ;
#292 = VECTOR ( 'NONE', #277, 39.37007874015747433 ) ;
#293 = ORIENTED_EDGE ( 'NONE', *, *, #89, .F. ) ;
#294 =( LENGTH_UNIT ( ) NAMED_UNIT ( * ) SI_UNIT ( $, .METRE. ) );
#295 = VERTEX_POINT ( 'NONE', #163 ) ;
#296 = AXIS2_PLACEMENT_3D ( 'NONE', #237, #150, #53 ) ;
#297 = SURFACE_SIDE_STYLE ('',( #138 ) ) ;
#298 = ORIENTED_EDGE ( 'NONE', *, *, #90, .F. ) ;
#299 = ORIENTED_EDGE ( 'NONE', *, *, #89, .T. ) ;
ENDSEC;
END-ISO-10303-21;
