ISO-10303-21;
HEADER;
FILE_DESCRIPTION (( 'STEP AP214' ),
    '1' );
FILE_NAME ('82261.STEP',
    '2023-06-23T04:30:30',
    ( '' ),
    ( '' ),
    'SwSTEP 2.0',
    'SolidWorks 2023',
    '' );
FILE_SCHEMA (( 'AUTOMOTIVE_DESIGN' ));
ENDSEC;

DATA;
#1 =( CONVERSION_BASED_UNIT ( 'INCH', #210 ) LENGTH_UNIT ( ) NAMED_UNIT ( #222 ) );
#2 =( NAMED_UNIT ( * ) PLANE_ANGLE_UNIT ( ) SI_UNIT ( $, .RADIAN. ) );
#3 = CARTESIAN_POINT ( 'NONE',  ( 0.000000000000000000, 0.000000000000000000, 0.000000000000000000 ) ) ;
#4 = ORIENTED_EDGE ( 'NONE', *, *, #32, .F. ) ;
#5 = CIRCLE ( 'NONE', #205, 0.3750000000000002776 ) ;
#6 = VECTOR ( 'NONE', #200, 39.37007874015748143 ) ;
#7 = FACE_OUTER_BOUND ( 'NONE', #162, .T. ) ;
#8 = CARTESIAN_POINT ( 'NONE',  ( -0.3750000000000004996, 6.500000000000000000, 0.000000000000000000 ) ) ;
#9 = EDGE_CURVE ( 'NONE', #165, #285, #5, .T. ) ;
#10 = DIRECTION ( 'NONE',  ( -0.000000000000000000, -1.000000000000000000, -0.000000000000000000 ) ) ;
#11 = COLOUR_RGB ( '',1.000000000000000000, 0.000000000000000000, 0.000000000000000000 ) ;
#12 = LENGTH_MEASURE_WITH_UNIT ( LENGTH_MEASURE( 0.02539999999999999897 ), #252 );
#13 = FACE_OUTER_BOUND ( 'NONE', #19, .T. ) ;
#14 = MANIFOLD_SOLID_BREP ( 'Revolve - Cutting Edge', #233 ) ;
#15 =( CONVERSION_BASED_UNIT ( 'INCH', #12 ) LENGTH_UNIT ( ) NAMED_UNIT ( #150 ) );
#16 = EDGE_CURVE ( 'NONE', #280, #285, #121, .T. ) ;
#17 = CARTESIAN_POINT ( 'NONE',  ( 0.000000000000000000, 4.000000000000000000, 0.000000000000000000 ) ) ;
#18 = SURFACE_SIDE_STYLE ('',( #279 ) ) ;
#19 = EDGE_LOOP ( 'NONE', ( #139, #67, #189, #26 ) ) ;
#20 = SURFACE_STYLE_FILL_AREA ( #45 ) ;
#21 = APPLICATION_CONTEXT ( 'automotive_design' ) ;
#22 = EDGE_LOOP ( 'NONE', ( #211, #207, #119, #238 ) ) ;
#23 = DIRECTION ( 'NONE',  ( 0.000000000000000000, 0.000000000000000000, -1.000000000000000000 ) ) ;
#24 = PRODUCT_DEFINITION_FORMATION_WITH_SPECIFIED_SOURCE ( 'ANY', '', #118, .NOT_KNOWN. ) ;
#25 = EDGE_LOOP ( 'NONE', ( #245, #111, #261, #87 ) ) ;
#26 = ORIENTED_EDGE ( 'NONE', *, *, #196, .F. ) ;
#27 =( NAMED_UNIT ( * ) PLANE_ANGLE_UNIT ( ) SI_UNIT ( $, .RADIAN. ) );
#28 = AXIS2_PLACEMENT_3D ( 'NONE', #247, #10, #249 ) ;
#29 = EDGE_CURVE ( 'NONE', #308, #161, #287, .T. ) ;
#30 = SURFACE_STYLE_USAGE ( .BOTH. , #190 ) ;
#31 = AXIS2_PLACEMENT_3D ( 'NONE', #80, #64, #297 ) ;
#32 = EDGE_CURVE ( 'NONE', #137, #109, #147, .T. ) ;
#33 = FILL_AREA_STYLE_COLOUR ( '', #69 ) ;
#34 = CYLINDRICAL_SURFACE ( 'NONE', #164, 0.3750000000000001665 ) ;
#35 = MECHANICAL_DESIGN_GEOMETRIC_PRESENTATION_REPRESENTATION (  '', ( #290 ), #68 ) ;
#36 = AXIS2_PLACEMENT_3D ( 'NONE', #203, #272, #151 ) ;
#37 = PLANE ( 'NONE',  #110 ) ;
#38 = ADVANCED_FACE ( 'NONE', ( #143 ), #267, .T. ) ;
#39 = CARTESIAN_POINT ( 'NONE',  ( -0.3750000000000003886, 6.500000000000000000, 0.000000000000000000 ) ) ;
#40 =( NAMED_UNIT ( * ) SI_UNIT ( $, .STERADIAN. ) SOLID_ANGLE_UNIT ( ) );
#41 = CARTESIAN_POINT ( 'NONE',  ( 0.000000000000000000, 4.000000000000000000, -0.3750000000000000555 ) ) ;
#42 = CARTESIAN_POINT ( 'NONE',  ( 0.000000000000000000, 0.000000000000000000, 0.000000000000000000 ) ) ;
#43 = DIRECTION ( 'NONE',  ( -0.000000000000000000, -1.000000000000000000, -0.000000000000000000 ) ) ;
#44 =( GEOMETRIC_REPRESENTATION_CONTEXT ( 3 ) GLOBAL_UNCERTAINTY_ASSIGNED_CONTEXT ( ( #288 ) ) GLOBAL_UNIT_ASSIGNED_CONTEXT ( ( #84, #58, #125 ) ) REPRESENTATION_CONTEXT ( 'NONE', 'WORKASPACE' ) );
#45 = FILL_AREA_STYLE ('',( #307 ) ) ;
#46 = EDGE_LOOP ( 'NONE', ( #239, #136 ) ) ;
#47 = CIRCLE ( 'NONE', #103, 0.3750000000000000555 ) ;
#48 = EDGE_LOOP ( 'NONE', ( #283, #4 ) ) ;
#49 = UNCERTAINTY_MEASURE_WITH_UNIT (LENGTH_MEASURE( 1.000000000000000082E-05 ), #62, 'distance_accuracy_value', 'NONE');
#50 = LENGTH_MEASURE_WITH_UNIT ( LENGTH_MEASURE( 0.02539999999999999897 ), #70 );
#51 = FILL_AREA_STYLE_COLOUR ( '', #269 ) ;
#52 = DIRECTION ( 'NONE',  ( 7.347880794884121462E-17, -1.000000000000000000, 0.000000000000000000 ) ) ;
#53 =( CONVERSION_BASED_UNIT ( 'INCH', #293 ) LENGTH_UNIT ( ) NAMED_UNIT ( #105 ) );
#54 = FILL_AREA_STYLE ('',( #51 ) ) ;
#55 = AXIS2_PLACEMENT_3D ( 'NONE', #294, #75, #171 ) ;
#56 =( GEOMETRIC_REPRESENTATION_CONTEXT ( 3 ) GLOBAL_UNCERTAINTY_ASSIGNED_CONTEXT ( ( #152 ) ) GLOBAL_UNIT_ASSIGNED_CONTEXT ( ( #1, #27, #40 ) ) REPRESENTATION_CONTEXT ( 'NONE', 'WORKASPACE' ) );
#57 = FILL_AREA_STYLE ('',( #33 ) ) ;
#58 =( NAMED_UNIT ( * ) PLANE_ANGLE_UNIT ( ) SI_UNIT ( $, .RADIAN. ) );
#59 = DIRECTION ( 'NONE',  ( 1.000000000000000000, 0.000000000000000000, 0.000000000000000000 ) ) ;
#60 = DIRECTION ( 'NONE',  ( -1.000000000000000000, 0.000000000000000000, 0.000000000000000000 ) ) ;
#61 = DIRECTION ( 'NONE',  ( -7.347880794884121462E-17, 1.000000000000000000, 0.000000000000000000 ) ) ;
#62 =( CONVERSION_BASED_UNIT ( 'INCH', #131 ) LENGTH_UNIT ( ) NAMED_UNIT ( #273 ) );
#63 = STYLED_ITEM ( 'NONE', ( #76 ), #266 ) ;
#64 = DIRECTION ( 'NONE',  ( -7.347880794884121462E-17, 1.000000000000000000, -0.000000000000000000 ) ) ;
#65 = DIRECTION ( 'NONE',  ( -0.000000000000000000, -1.000000000000000000, -0.000000000000000000 ) ) ;
#66 = MECHANICAL_DESIGN_GEOMETRIC_PRESENTATION_REPRESENTATION (  '', ( #88 ), #182 ) ;
#67 = ORIENTED_EDGE ( 'NONE', *, *, #32, .T. ) ;
#68 =( GEOMETRIC_REPRESENTATION_CONTEXT ( 3 ) GLOBAL_UNCERTAINTY_ASSIGNED_CONTEXT ( ( #92 ) ) GLOBAL_UNIT_ASSIGNED_CONTEXT ( ( #53, #117, #73 ) ) REPRESENTATION_CONTEXT ( 'NONE', 'WORKASPACE' ) );
#69 = COLOUR_RGB ( '',0.7921568627450980005, 0.8196078431372548767, 0.9333333333333333481 ) ;
#70 =( LENGTH_UNIT ( ) NAMED_UNIT ( * ) SI_UNIT ( $, .METRE. ) );
#71 = FILL_AREA_STYLE ('',( #170 ) ) ;
#72 = STYLED_ITEM ( 'NONE', ( #145 ), #241 ) ;
#73 =( NAMED_UNIT ( * ) SI_UNIT ( $, .STERADIAN. ) SOLID_ANGLE_UNIT ( ) );
#74 = FACE_OUTER_BOUND ( 'NONE', #22, .T. ) ;
#75 = DIRECTION ( 'NONE',  ( -0.000000000000000000, -1.000000000000000000, -0.000000000000000000 ) ) ;
#76 = PRESENTATION_STYLE_ASSIGNMENT (( #295 ) ) ;
#77 = DIRECTION ( 'NONE',  ( -7.347880794884121462E-17, 1.000000000000000000, -0.000000000000000000 ) ) ;
#78 = CLOSED_SHELL ( 'NONE', ( #124, #281, #93, #255 ) ) ;
#79 = AXIS2_PLACEMENT_3D ( 'NONE', #180, #65, #85 ) ;
#80 = CARTESIAN_POINT ( 'NONE',  ( -1.836970198721030427E-16, 6.500000000000000000, 0.000000000000000000 ) ) ;
#81 =( NAMED_UNIT ( * ) PLANE_ANGLE_UNIT ( ) SI_UNIT ( $, .RADIAN. ) );
#82 = PRESENTATION_STYLE_ASSIGNMENT (( #106 ) ) ;
#83 = VECTOR ( 'NONE', #127, 39.37007874015748143 ) ;
#84 =( CONVERSION_BASED_UNIT ( 'INCH', #221 ) LENGTH_UNIT ( ) NAMED_UNIT ( #246 ) );
#85 = DIRECTION ( 'NONE',  ( 0.000000000000000000, 0.000000000000000000, -1.000000000000000000 ) ) ;
#86 = EDGE_CURVE ( 'NONE', #137, #161, #154, .T. ) ;
#87 = ORIENTED_EDGE ( 'NONE', *, *, #120, .F. ) ;
#88 = STYLED_ITEM ( 'NONE', ( #132 ), #299 ) ;
#89 = LENGTH_MEASURE_WITH_UNIT ( LENGTH_MEASURE( 0.02539999999999999897 ), #159 );
#90 = PRESENTATION_LAYER_ASSIGNMENT (  '', '', ( #63 ) ) ;
#91 =( LENGTH_UNIT ( ) NAMED_UNIT ( * ) SI_UNIT ( $, .METRE. ) );
#92 = UNCERTAINTY_MEASURE_WITH_UNIT (LENGTH_MEASURE( 1.000000000000000082E-05 ), #53, 'distance_accuracy_value', 'NONE');
#93 = ADVANCED_FACE ( 'NONE', ( #303 ), #301, .T. ) ;
#94 = ORIENTED_EDGE ( 'NONE', *, *, #157, .T. ) ;
#95 = EDGE_CURVE ( 'NONE', #109, #308, #268, .T. ) ;
#96 = DIRECTION ( 'NONE',  ( -7.347880794884121462E-17, 1.000000000000000000, -0.000000000000000000 ) ) ;
#97 = FILL_AREA_STYLE ('',( #271 ) ) ;
#98 = DIRECTION ( 'NONE',  ( -1.000000000000000000, 0.000000000000000000, 0.000000000000000000 ) ) ;
#99 = CYLINDRICAL_SURFACE ( 'NONE', #79, 0.3750000000000000555 ) ;
#100 =( NAMED_UNIT ( * ) SI_UNIT ( $, .STERADIAN. ) SOLID_ANGLE_UNIT ( ) );
#101 = DIRECTION ( 'NONE',  ( -1.000000000000000000, -7.347880794884121462E-17, 0.000000000000000000 ) ) ;
#102 = STYLED_ITEM ( 'NONE', ( #141 ), #38 ) ;
#103 = AXIS2_PLACEMENT_3D ( 'NONE', #17, #198, #60 ) ;
#104 = DIRECTION ( 'NONE',  ( 0.000000000000000000, 1.000000000000000000, 0.000000000000000000 ) ) ;
#105 = DIMENSIONAL_EXPONENTS ( 1.000000000000000000, 0.000000000000000000, 0.000000000000000000, 0.000000000000000000, 0.000000000000000000, 0.000000000000000000, 0.000000000000000000 ) ;
#106 = SURFACE_STYLE_USAGE ( .BOTH. , #275 ) ;
#107 =( NAMED_UNIT ( * ) SI_UNIT ( $, .STERADIAN. ) SOLID_ANGLE_UNIT ( ) );
#108 = VECTOR ( 'NONE', #77, 39.37007874015748143 ) ;
#109 = VERTEX_POINT ( 'NONE', #41 ) ;
#110 = AXIS2_PLACEMENT_3D ( 'NONE', #42, #134, #228 ) ;
#111 = ORIENTED_EDGE ( 'NONE', *, *, #167, .T. ) ;
#112 = ORIENTED_EDGE ( 'NONE', *, *, #9, .F. ) ;
#113 = UNCERTAINTY_MEASURE_WITH_UNIT (LENGTH_MEASURE( 1.000000000000000082E-05 ), #282, 'distance_accuracy_value', 'NONE');
#114 = PRODUCT_RELATED_PRODUCT_CATEGORY ( 'part', '', ( #118 ) ) ;
#115 =( CONVERSION_BASED_UNIT ( 'INCH', #50 ) LENGTH_UNIT ( ) NAMED_UNIT ( #218 ) );
#116 = MECHANICAL_DESIGN_GEOMETRIC_PRESENTATION_REPRESENTATION (  '', ( #63 ), #44 ) ;
#117 =( NAMED_UNIT ( * ) PLANE_ANGLE_UNIT ( ) SI_UNIT ( $, .RADIAN. ) );
#118 = PRODUCT ( '82261', '82261', '', ( #225 ) ) ;
#119 = ORIENTED_EDGE ( 'NONE', *, *, #29, .F. ) ;
#120 = EDGE_CURVE ( 'NONE', #285, #165, #270, .T. ) ;
#121 = LINE ( 'NONE', #217, #256 ) ;
#122 =( GEOMETRIC_REPRESENTATION_CONTEXT ( 3 ) GLOBAL_UNCERTAINTY_ASSIGNED_CONTEXT ( ( #49 ) ) GLOBAL_UNIT_ASSIGNED_CONTEXT ( ( #62, #253, #100 ) ) REPRESENTATION_CONTEXT ( 'NONE', 'WORKASPACE' ) );
#123 = SURFACE_STYLE_FILL_AREA ( #57 ) ;
#124 = ADVANCED_FACE ( 'NONE', ( #7 ), #34, .T. ) ;
#125 =( NAMED_UNIT ( * ) SI_UNIT ( $, .STERADIAN. ) SOLID_ANGLE_UNIT ( ) );
#126 =( GEOMETRIC_REPRESENTATION_CONTEXT ( 3 ) GLOBAL_UNCERTAINTY_ASSIGNED_CONTEXT ( ( #113 ) ) GLOBAL_UNIT_ASSIGNED_CONTEXT ( ( #282, #259, #184 ) ) REPRESENTATION_CONTEXT ( 'NONE', 'WORKASPACE' ) );
#127 = DIRECTION ( 'NONE',  ( -0.000000000000000000, -1.000000000000000000, -0.000000000000000000 ) ) ;
#128 = PRODUCT_DEFINITION_CONTEXT ( 'detailed design', #140, 'design' ) ;
#129 = FILL_AREA_STYLE_COLOUR ( '', #169 ) ;
#130 = SURFACE_SIDE_STYLE ('',( #20 ) ) ;
#131 = LENGTH_MEASURE_WITH_UNIT ( LENGTH_MEASURE( 0.02539999999999999897 ), #158 );
#132 = PRESENTATION_STYLE_ASSIGNMENT (( #227 ) ) ;
#133 = CARTESIAN_POINT ( 'NONE',  ( 4.592425496802575451E-17, 0.000000000000000000, 0.3750000000000000555 ) ) ;
#134 = DIRECTION ( 'NONE',  ( 0.000000000000000000, -1.000000000000000000, -0.000000000000000000 ) ) ;
#135 = MECHANICAL_DESIGN_GEOMETRIC_PRESENTATION_REPRESENTATION (  '', ( #102 ), #212 ) ;
#136 = ORIENTED_EDGE ( 'NONE', *, *, #167, .F. ) ;
#137 = VERTEX_POINT ( 'NONE', #178 ) ;
#138 = ORIENTED_EDGE ( 'NONE', *, *, #29, .T. ) ;
#139 = ORIENTED_EDGE ( 'NONE', *, *, #86, .F. ) ;
#140 = APPLICATION_CONTEXT ( 'automotive_design' ) ;
#141 = PRESENTATION_STYLE_ASSIGNMENT (( #220 ) ) ;
#142 = DIRECTION ( 'NONE',  ( 1.000000000000000000, 7.347880794884121462E-17, 0.000000000000000000 ) ) ;
#143 = FACE_OUTER_BOUND ( 'NONE', #48, .T. ) ;
#144 =( LENGTH_UNIT ( ) NAMED_UNIT ( * ) SI_UNIT ( $, .METRE. ) );
#145 = PRESENTATION_STYLE_ASSIGNMENT (( #226 ) ) ;
#146 = SURFACE_SIDE_STYLE ('',( #263 ) ) ;
#147 = CIRCLE ( 'NONE', #55, 0.3750000000000000555 ) ;
#148 = MECHANICAL_DESIGN_GEOMETRIC_PRESENTATION_REPRESENTATION (  '', ( #72 ), #56 ) ;
#149 = LINE ( 'NONE', #39, #108 ) ;
#150 = DIMENSIONAL_EXPONENTS ( 1.000000000000000000, 0.000000000000000000, 0.000000000000000000, 0.000000000000000000, 0.000000000000000000, 0.000000000000000000, 0.000000000000000000 ) ;
#151 = DIRECTION ( 'NONE',  ( -1.000000000000000000, 0.000000000000000000, 0.000000000000000000 ) ) ;
#152 = UNCERTAINTY_MEASURE_WITH_UNIT (LENGTH_MEASURE( 1.000000000000000082E-05 ), #1, 'distance_accuracy_value', 'NONE');
#153 = DIRECTION ( 'NONE',  ( 0.000000000000000000, 0.000000000000000000, -1.000000000000000000 ) ) ;
#154 = LINE ( 'NONE', #133, #6 ) ;
#155 = DIRECTION ( 'NONE',  ( 0.000000000000000000, -0.000000000000000000, 1.000000000000000000 ) ) ;
#156 = PLANE ( 'NONE',  #234 ) ;
#157 = EDGE_CURVE ( 'NONE', #214, #280, #206, .T. ) ;
#158 =( LENGTH_UNIT ( ) NAMED_UNIT ( * ) SI_UNIT ( $, .METRE. ) );
#159 =( LENGTH_UNIT ( ) NAMED_UNIT ( * ) SI_UNIT ( $, .METRE. ) );
#160 = PRESENTATION_LAYER_ASSIGNMENT (  '', '', ( #88 ) ) ;
#161 = VERTEX_POINT ( 'NONE', #296 ) ;
#162 = EDGE_LOOP ( 'NONE', ( #94, #186, #112, #232 ) ) ;
#163 = COLOUR_RGB ( '',0.7921568627450980005, 0.8196078431372548767, 0.9333333333333333481 ) ;
#164 = AXIS2_PLACEMENT_3D ( 'NONE', #175, #195, #304 ) ;
#165 = VERTEX_POINT ( 'NONE', #8 ) ;
#166 = DIRECTION ( 'NONE',  ( -1.000000000000000000, 0.000000000000000000, 0.000000000000000000 ) ) ;
#167 = EDGE_CURVE ( 'NONE', #280, #214, #47, .T. ) ;
#168 = AXIS2_PLACEMENT_3D ( 'NONE', #251, #104, #155 ) ;
#169 = COLOUR_RGB ( '',1.000000000000000000, 0.000000000000000000, 0.000000000000000000 ) ;
#170 = FILL_AREA_STYLE_COLOUR ( '', #163 ) ;
#171 = DIRECTION ( 'NONE',  ( 0.000000000000000000, 0.000000000000000000, -1.000000000000000000 ) ) ;
#172 = PLANE ( 'NONE',  #230 ) ;
#173 = PRODUCT_DEFINITION ( 'UNKNOWN', '', #24, #128 ) ;
#174 = CARTESIAN_POINT ( 'NONE',  ( 0.000000000000000000, 0.000000000000000000, -0.3750000000000000555 ) ) ;
#175 = CARTESIAN_POINT ( 'NONE',  ( -1.836970198721030427E-16, 6.500000000000000000, 0.000000000000000000 ) ) ;
#176 = UNCERTAINTY_MEASURE_WITH_UNIT (LENGTH_MEASURE( 1.000000000000000082E-05 ), #15, 'distance_accuracy_value', 'NONE');
#177 = DIRECTION ( 'NONE',  ( 0.000000000000000000, 0.000000000000000000, 1.000000000000000000 ) ) ;
#178 = CARTESIAN_POINT ( 'NONE',  ( 4.592425496802575451E-17, 4.000000000000000000, 0.3750000000000000555 ) ) ;
#179 = PRESENTATION_LAYER_ASSIGNMENT (  '', '', ( #290 ) ) ;
#180 = CARTESIAN_POINT ( 'NONE',  ( 0.000000000000000000, 0.000000000000000000, 0.000000000000000000 ) ) ;
#181 = EDGE_LOOP ( 'NONE', ( #138, #258 ) ) ;
#182 =( GEOMETRIC_REPRESENTATION_CONTEXT ( 3 ) GLOBAL_UNCERTAINTY_ASSIGNED_CONTEXT ( ( #176 ) ) GLOBAL_UNIT_ASSIGNED_CONTEXT ( ( #15, #81, #107 ) ) REPRESENTATION_CONTEXT ( 'NONE', 'WORKASPACE' ) );
#183 = ORIENTED_EDGE ( 'NONE', *, *, #120, .T. ) ;
#184 =( NAMED_UNIT ( * ) SI_UNIT ( $, .STERADIAN. ) SOLID_ANGLE_UNIT ( ) );
#185 = EDGE_CURVE ( 'NONE', #214, #165, #149, .T. ) ;
#186 = ORIENTED_EDGE ( 'NONE', *, *, #16, .T. ) ;
#187 = PRESENTATION_LAYER_ASSIGNMENT (  '', '', ( #72 ) ) ;
#188 = PRESENTATION_STYLE_ASSIGNMENT (( #30 ) ) ;
#189 = ORIENTED_EDGE ( 'NONE', *, *, #95, .T. ) ;
#190 = SURFACE_SIDE_STYLE ('',( #243 ) ) ;
#191 = AXIS2_PLACEMENT_3D ( 'NONE', #306, #284, #23 ) ;
#192 = DIRECTION ( 'NONE',  ( -0.000000000000000000, -1.000000000000000000, -0.000000000000000000 ) ) ;
#193 = SURFACE_STYLE_FILL_AREA ( #97 ) ;
#194 = APPLICATION_PROTOCOL_DEFINITION ( 'draft international standard', 'automotive_design', 1998, #21 ) ;
#195 = DIRECTION ( 'NONE',  ( -7.347880794884121462E-17, 1.000000000000000000, -0.000000000000000000 ) ) ;
#196 = EDGE_CURVE ( 'NONE', #161, #308, #219, .T. ) ;
#197 = SURFACE_SIDE_STYLE ('',( #193 ) ) ;
#198 = DIRECTION ( 'NONE',  ( -7.347880794884121462E-17, 1.000000000000000000, -0.000000000000000000 ) ) ;
#199 = CARTESIAN_POINT ( 'NONE',  ( 0.000000000000000000, 0.000000000000000000, -0.3750000000000000555 ) ) ;
#200 = DIRECTION ( 'NONE',  ( -0.000000000000000000, -1.000000000000000000, -0.000000000000000000 ) ) ;
#201 = CARTESIAN_POINT ( 'NONE',  ( 1.012337853296754775E-33, 4.000000000000000000, 0.000000000000000000 ) ) ;
#202 = CARTESIAN_POINT ( 'NONE',  ( 0.000000000000000000, 0.000000000000000000, 0.000000000000000000 ) ) ;
#203 = CARTESIAN_POINT ( 'NONE',  ( -1.836970198721030427E-16, 6.500000000000000000, 0.000000000000000000 ) ) ;
#204 = APPLICATION_PROTOCOL_DEFINITION ( 'draft international standard', 'automotive_design', 1998, #140 ) ;
#205 = AXIS2_PLACEMENT_3D ( 'NONE', #289, #265, #166 ) ;
#206 = CIRCLE ( 'NONE', #242, 0.3750000000000000555 ) ;
#207 = ORIENTED_EDGE ( 'NONE', *, *, #86, .T. ) ;
#208 = EDGE_LOOP ( 'NONE', ( #215, #183 ) ) ;
#209 = FACE_OUTER_BOUND ( 'NONE', #208, .T. ) ;
#210 = LENGTH_MEASURE_WITH_UNIT ( LENGTH_MEASURE( 0.02539999999999999897 ), #237 );
#211 = ORIENTED_EDGE ( 'NONE', *, *, #291, .T. ) ;
#212 =( GEOMETRIC_REPRESENTATION_CONTEXT ( 3 ) GLOBAL_UNCERTAINTY_ASSIGNED_CONTEXT ( ( #244 ) ) GLOBAL_UNIT_ASSIGNED_CONTEXT ( ( #115, #2, #278 ) ) REPRESENTATION_CONTEXT ( 'NONE', 'WORKASPACE' ) );
#213 = MANIFOLD_SOLID_BREP ( 'Revolve - Tool Body (Straight Shanked)', #78 ) ;
#214 = VERTEX_POINT ( 'NONE', #235 ) ;
#215 = ORIENTED_EDGE ( 'NONE', *, *, #9, .T. ) ;
#216 = CARTESIAN_POINT ( 'NONE',  ( 0.3750000000000001110, 6.500000000000000000, 0.000000000000000000 ) ) ;
#217 = CARTESIAN_POINT ( 'NONE',  ( 0.3749999999999999445, 6.500000000000000000, 4.592425496802576684E-17 ) ) ;
#218 = DIMENSIONAL_EXPONENTS ( 1.000000000000000000, 0.000000000000000000, 0.000000000000000000, 0.000000000000000000, 0.000000000000000000, 0.000000000000000000, 0.000000000000000000 ) ;
#219 = CIRCLE ( 'NONE', #28, 0.3750000000000000555 ) ;
#220 = SURFACE_STYLE_USAGE ( .BOTH. , #146 ) ;
#221 = LENGTH_MEASURE_WITH_UNIT ( LENGTH_MEASURE( 0.02539999999999999897 ), #144 );
#222 = DIMENSIONAL_EXPONENTS ( 1.000000000000000000, 0.000000000000000000, 0.000000000000000000, 0.000000000000000000, 0.000000000000000000, 0.000000000000000000, 0.000000000000000000 ) ;
#223 = DIRECTION ( 'NONE',  ( -7.347880794884121462E-17, 1.000000000000000000, -0.000000000000000000 ) ) ;
#224 = CARTESIAN_POINT ( 'NONE',  ( 0.3750000000000001110, 6.500000000000000000, 4.592425496802577300E-17 ) ) ;
#225 = PRODUCT_CONTEXT ( 'NONE', #21, 'mechanical' ) ;
#226 = SURFACE_STYLE_USAGE ( .BOTH. , #130 ) ;
#227 = SURFACE_STYLE_USAGE ( .BOTH. , #18 ) ;
#228 = DIRECTION ( 'NONE',  ( 0.000000000000000000, 0.000000000000000000, -1.000000000000000000 ) ) ;
#229 = PRESENTATION_LAYER_ASSIGNMENT (  '', '', ( #102 ) ) ;
#230 = AXIS2_PLACEMENT_3D ( 'NONE', #216, #52, #142 ) ;
#231 = FILL_AREA_STYLE ('',( #129 ) ) ;
#232 = ORIENTED_EDGE ( 'NONE', *, *, #185, .F. ) ;
#233 = CLOSED_SHELL ( 'NONE', ( #266, #38, #241, #299 ) ) ;
#234 = AXIS2_PLACEMENT_3D ( 'NONE', #201, #61, #101 ) ;
#235 = CARTESIAN_POINT ( 'NONE',  ( -0.3750000000000000555, 4.000000000000000000, 0.000000000000000000 ) ) ;
#236 = ADVANCED_BREP_SHAPE_REPRESENTATION ( '82261', ( #14, #213, #292 ), #126 ) ;
#237 =( LENGTH_UNIT ( ) NAMED_UNIT ( * ) SI_UNIT ( $, .METRE. ) );
#238 = ORIENTED_EDGE ( 'NONE', *, *, #95, .F. ) ;
#239 = ORIENTED_EDGE ( 'NONE', *, *, #157, .F. ) ;
#240 = AXIS2_PLACEMENT_3D ( 'NONE', #3, #192, #264 ) ;
#241 = ADVANCED_FACE ( 'NONE', ( #13 ), #260, .T. ) ;
#242 = AXIS2_PLACEMENT_3D ( 'NONE', #274, #223, #98 ) ;
#243 = SURFACE_STYLE_FILL_AREA ( #71 ) ;
#244 = UNCERTAINTY_MEASURE_WITH_UNIT (LENGTH_MEASURE( 1.000000000000000082E-05 ), #115, 'distance_accuracy_value', 'NONE');
#245 = ORIENTED_EDGE ( 'NONE', *, *, #16, .F. ) ;
#246 = DIMENSIONAL_EXPONENTS ( 1.000000000000000000, 0.000000000000000000, 0.000000000000000000, 0.000000000000000000, 0.000000000000000000, 0.000000000000000000, 0.000000000000000000 ) ;
#247 = CARTESIAN_POINT ( 'NONE',  ( 0.000000000000000000, 0.000000000000000000, 0.000000000000000000 ) ) ;
#248 = SHAPE_DEFINITION_REPRESENTATION ( #286, #236 ) ;
#249 = DIRECTION ( 'NONE',  ( 0.000000000000000000, 0.000000000000000000, -1.000000000000000000 ) ) ;
#250 = CARTESIAN_POINT ( 'NONE',  ( 0.000000000000000000, 4.000000000000000000, 0.000000000000000000 ) ) ;
#251 = CARTESIAN_POINT ( 'NONE',  ( 0.000000000000000000, 4.000000000000000000, 0.000000000000000000 ) ) ;
#252 =( LENGTH_UNIT ( ) NAMED_UNIT ( * ) SI_UNIT ( $, .METRE. ) );
#253 =( NAMED_UNIT ( * ) PLANE_ANGLE_UNIT ( ) SI_UNIT ( $, .RADIAN. ) );
#254 = FACE_OUTER_BOUND ( 'NONE', #46, .T. ) ;
#255 = ADVANCED_FACE ( 'NONE', ( #209 ), #172, .F. ) ;
#256 = VECTOR ( 'NONE', #96, 39.37007874015748143 ) ;
#257 = AXIS2_PLACEMENT_3D ( 'NONE', #250, #43, #153 ) ;
#258 = ORIENTED_EDGE ( 'NONE', *, *, #196, .T. ) ;
#259 =( NAMED_UNIT ( * ) PLANE_ANGLE_UNIT ( ) SI_UNIT ( $, .RADIAN. ) );
#260 = CYLINDRICAL_SURFACE ( 'NONE', #191, 0.3750000000000000555 ) ;
#261 = ORIENTED_EDGE ( 'NONE', *, *, #185, .T. ) ;
#262 = PRESENTATION_LAYER_ASSIGNMENT (  '', '', ( #305 ) ) ;
#263 = SURFACE_STYLE_FILL_AREA ( #54 ) ;
#264 = DIRECTION ( 'NONE',  ( 0.000000000000000000, 0.000000000000000000, -1.000000000000000000 ) ) ;
#265 = DIRECTION ( 'NONE',  ( -7.347880794884121462E-17, 1.000000000000000000, -0.000000000000000000 ) ) ;
#266 = ADVANCED_FACE ( 'NONE', ( #74 ), #99, .T. ) ;
#267 = PLANE ( 'NONE',  #168 ) ;
#268 = LINE ( 'NONE', #174, #83 ) ;
#269 = COLOUR_RGB ( '',1.000000000000000000, 0.000000000000000000, 0.000000000000000000 ) ;
#270 = CIRCLE ( 'NONE', #31, 0.3750000000000002776 ) ;
#271 = FILL_AREA_STYLE_COLOUR ( '', #11 ) ;
#272 = DIRECTION ( 'NONE',  ( -7.347880794884121462E-17, 1.000000000000000000, -0.000000000000000000 ) ) ;
#273 = DIMENSIONAL_EXPONENTS ( 1.000000000000000000, 0.000000000000000000, 0.000000000000000000, 0.000000000000000000, 0.000000000000000000, 0.000000000000000000, 0.000000000000000000 ) ;
#274 = CARTESIAN_POINT ( 'NONE',  ( 0.000000000000000000, 4.000000000000000000, 0.000000000000000000 ) ) ;
#275 = SURFACE_SIDE_STYLE ('',( #123 ) ) ;
#276 = FACE_OUTER_BOUND ( 'NONE', #181, .T. ) ;
#277 = COLOUR_RGB ( '',1.000000000000000000, 0.000000000000000000, 0.000000000000000000 ) ;
#278 =( NAMED_UNIT ( * ) SI_UNIT ( $, .STERADIAN. ) SOLID_ANGLE_UNIT ( ) );
#279 = SURFACE_STYLE_FILL_AREA ( #231 ) ;
#280 = VERTEX_POINT ( 'NONE', #302 ) ;
#281 = ADVANCED_FACE ( 'NONE', ( #254 ), #156, .F. ) ;
#282 =( CONVERSION_BASED_UNIT ( 'INCH', #89 ) LENGTH_UNIT ( ) NAMED_UNIT ( #300 ) );
#283 = ORIENTED_EDGE ( 'NONE', *, *, #291, .F. ) ;
#284 = DIRECTION ( 'NONE',  ( -0.000000000000000000, -1.000000000000000000, -0.000000000000000000 ) ) ;
#285 = VERTEX_POINT ( 'NONE', #224 ) ;
#286 = PRODUCT_DEFINITION_SHAPE ( 'NONE', 'NONE',  #173 ) ;
#287 = CIRCLE ( 'NONE', #240, 0.3750000000000000555 ) ;
#288 = UNCERTAINTY_MEASURE_WITH_UNIT (LENGTH_MEASURE( 1.000000000000000082E-05 ), #84, 'distance_accuracy_value', 'NONE');
#289 = CARTESIAN_POINT ( 'NONE',  ( -1.836970198721030427E-16, 6.500000000000000000, 0.000000000000000000 ) ) ;
#290 = STYLED_ITEM ( 'NONE', ( #188 ), #14 ) ;
#291 = EDGE_CURVE ( 'NONE', #109, #137, #298, .T. ) ;
#292 = AXIS2_PLACEMENT_3D ( 'NONE', #202, #177, #59 ) ;
#293 = LENGTH_MEASURE_WITH_UNIT ( LENGTH_MEASURE( 0.02539999999999999897 ), #91 );
#294 = CARTESIAN_POINT ( 'NONE',  ( 0.000000000000000000, 4.000000000000000000, 0.000000000000000000 ) ) ;
#295 = SURFACE_STYLE_USAGE ( .BOTH. , #197 ) ;
#296 = CARTESIAN_POINT ( 'NONE',  ( 4.592425496802575451E-17, 0.000000000000000000, 0.3750000000000000555 ) ) ;
#297 = DIRECTION ( 'NONE',  ( -1.000000000000000000, 0.000000000000000000, 0.000000000000000000 ) ) ;
#298 = CIRCLE ( 'NONE', #257, 0.3750000000000000555 ) ;
#299 = ADVANCED_FACE ( 'NONE', ( #276 ), #37, .T. ) ;
#300 = DIMENSIONAL_EXPONENTS ( 1.000000000000000000, 0.000000000000000000, 0.000000000000000000, 0.000000000000000000, 0.000000000000000000, 0.000000000000000000, 0.000000000000000000 ) ;
#301 = CYLINDRICAL_SURFACE ( 'NONE', #36, 0.3750000000000001665 ) ;
#302 = CARTESIAN_POINT ( 'NONE',  ( 0.3750000000000000555, 4.000000000000000000, 4.592425496802577300E-17 ) ) ;
#303 = FACE_OUTER_BOUND ( 'NONE', #25, .T. ) ;
#304 = DIRECTION ( 'NONE',  ( -1.000000000000000000, 0.000000000000000000, 0.000000000000000000 ) ) ;
#305 = STYLED_ITEM ( 'NONE', ( #82 ), #213 ) ;
#306 = CARTESIAN_POINT ( 'NONE',  ( 0.000000000000000000, 0.000000000000000000, 0.000000000000000000 ) ) ;
#307 = FILL_AREA_STYLE_COLOUR ( '', #277 ) ;
#308 = VERTEX_POINT ( 'NONE', #199 ) ;
#309 = MECHANICAL_DESIGN_GEOMETRIC_PRESENTATION_REPRESENTATION (  '', ( #305 ), #122 ) ;
ENDSEC;
END-ISO-10303-21;
