ISO-10303-21;
HEADER;
FILE_DESCRIPTION (( 'STEP AP214' ),
    '1' );
FILE_NAME ('Micro_SPD-500-100.STEP',
    '2021-09-03T21:21:31',
    ( '' ),
    ( '' ),
    'SwSTEP 2.0',
    'SolidWorks 2020',
    '' );
FILE_SCHEMA (( 'AUTOMOTIVE_DESIGN' ));
ENDSEC;

DATA;
#1 = CARTESIAN_POINT ( 'NONE',  ( 0.2499500000000000888, 3.061004674468810760E-17, 0.0000000000000000000 ) ) ;
#2 = VERTEX_POINT ( 'NONE', #101 ) ;
#3 = DIRECTION ( 'NONE',  ( 0.0000000000000000000, 0.0000000000000000000, 1.000000000000000000 ) ) ;
#4 = AXIS2_PLACEMENT_3D ( 'NONE', #291, #185, #269 ) ;
#5 = ORIENTED_EDGE ( 'NONE', *, *, #310, .T. ) ;
#6 = DIRECTION ( 'NONE',  ( -0.7071067811865490160, 8.659560562354951347E-17, 0.7071067811865460184 ) ) ;
#7 = ORIENTED_EDGE ( 'NONE', *, *, #343, .T. ) ;
#8 = CARTESIAN_POINT ( 'NONE',  ( 0.0000000000000000000, 0.0000000000000000000, 1.000049999999999883 ) ) ;
#9 = EDGE_LOOP ( 'NONE', ( #322, #196, #35, #16 ) ) ;
#10 = SURFACE_STYLE_FILL_AREA ( #309 ) ;
#11 = ORIENTED_EDGE ( 'NONE', *, *, #239, .F. ) ;
#12 = CARTESIAN_POINT ( 'NONE',  ( -0.2499500000000000888, 0.0000000000000000000, 0.0000000000000000000 ) ) ;
#13 = CARTESIAN_POINT ( 'NONE',  ( 0.2499500000000000610, 3.061004674468810144E-17, 0.1782667166436124329 ) ) ;
#14 = FACE_OUTER_BOUND ( 'NONE', #115, .T. ) ;
#15 = UNCERTAINTY_MEASURE_WITH_UNIT (LENGTH_MEASURE( 1.000000000000000082E-05 ), #85, 'distance_accuracy_value', 'NONE');
#16 = ORIENTED_EDGE ( 'NONE', *, *, #213, .F. ) ;
#17 = SURFACE_STYLE_USAGE ( .BOTH. , #209 ) ;
#18 = SURFACE_STYLE_FILL_AREA ( #290 ) ;
#19 = MECHANICAL_DESIGN_GEOMETRIC_PRESENTATION_REPRESENTATION (  '', ( #32 ), #258 ) ;
#20 =( LENGTH_UNIT ( ) NAMED_UNIT ( * ) SI_UNIT ( $, .METRE. ) );
#21 = CYLINDRICAL_SURFACE ( 'NONE', #265, 0.2500000000000000000 ) ;
#22 = AXIS2_PLACEMENT_3D ( 'NONE', #103, #339, #99 ) ;
#23 = DIRECTION ( 'NONE',  ( -0.0000000000000000000, -0.0000000000000000000, -1.000000000000000000 ) ) ;
#24 = CARTESIAN_POINT ( 'NONE',  ( 0.0000000000000000000, 0.0000000000000000000, 0.0000000000000000000 ) ) ;
#25 = EDGE_CURVE ( 'NONE', #197, #61, #215, .T. ) ;
#26 = ADVANCED_FACE ( 'NONE', ( #177 ), #145, .T. ) ;
#27 = DIRECTION ( 'NONE',  ( 0.7071067811865330288, 8.659560562354755364E-17, -0.7071067811865618946 ) ) ;
#28 = AXIS2_PLACEMENT_3D ( 'NONE', #135, #267, #292 ) ;
#29 = DIRECTION ( 'NONE',  ( -1.000000000000000000, 0.0000000000000000000, 0.0000000000000000000 ) ) ;
#30 = DIRECTION ( 'NONE',  ( 1.000000000000000000, 0.0000000000000000000, -0.0000000000000000000 ) ) ;
#31 = ORIENTED_EDGE ( 'NONE', *, *, #299, .F. ) ;
#32 = STYLED_ITEM ( 'NONE', ( #75 ), #52 ) ;
#33 = EDGE_CURVE ( 'NONE', #89, #326, #279, .T. ) ;
#34 = LINE ( 'NONE', #251, #191 ) ;
#35 = ORIENTED_EDGE ( 'NONE', *, *, #134, .T. ) ;
#36 = LENGTH_MEASURE_WITH_UNIT ( LENGTH_MEASURE( 0.02539999999999999897 ), #168 );
#37 = CONICAL_SURFACE ( 'NONE', #319, 0.03749999999999999861, 0.8726646259971667652 ) ;
#38 = EDGE_LOOP ( 'NONE', ( #98, #117, #91, #137 ) ) ;
#39 = DIRECTION ( 'NONE',  ( 1.000000000000000000, 0.0000000000000000000, 0.0000000000000000000 ) ) ;
#40 = ORIENTED_EDGE ( 'NONE', *, *, #243, .T. ) ;
#41 = PRESENTATION_LAYER_ASSIGNMENT (  '', '', ( #32 ) ) ;
#42 = ORIENTED_EDGE ( 'NONE', *, *, #143, .F. ) ;
#43 = PRESENTATION_STYLE_ASSIGNMENT (( #174 ) ) ;
#44 = AXIS2_PLACEMENT_3D ( 'NONE', #118, #302, #116 ) ;
#45 = DIRECTION ( 'NONE',  ( -1.000000000000000000, 0.0000000000000000000, 0.0000000000000000000 ) ) ;
#46 =( NAMED_UNIT ( * ) SI_UNIT ( $, .STERADIAN. ) SOLID_ANGLE_UNIT ( ) );
#47 = LINE ( 'NONE', #74, #95 ) ;
#48 = AXIS2_PLACEMENT_3D ( 'NONE', #125, #124, #257 ) ;
#49 = CARTESIAN_POINT ( 'NONE',  ( 0.0000000000000000000, 0.0000000000000000000, 2.500000000000000000 ) ) ;
#50 = ADVANCED_FACE ( 'NONE', ( #14 ), #149, .T. ) ;
#51 = PRODUCT_CONTEXT ( 'NONE', #272, 'mechanical' ) ;
#52 = ADVANCED_BREP_SHAPE_REPRESENTATION ( 'Micro_SPD-500-100', ( #178, #275 ), #325 ) ;
#53 = LINE ( 'NONE', #266, #204 ) ;
#54 = CYLINDRICAL_SURFACE ( 'NONE', #187, 0.2499500000000000888 ) ;
#55 = FACE_OUTER_BOUND ( 'NONE', #119, .T. ) ;
#56 = CIRCLE ( 'NONE', #4, 0.2500000000000000000 ) ;
#57 = CARTESIAN_POINT ( 'NONE',  ( 0.0000000000000000000, 0.0000000000000000000, 1.000000000000000000 ) ) ;
#58 = ORIENTED_EDGE ( 'NONE', *, *, #284, .T. ) ;
#59 = ADVANCED_FACE ( 'NONE', ( #260 ), #198, .T. ) ;
#60 = APPLICATION_PROTOCOL_DEFINITION ( 'draft international standard', 'automotive_design', 1998, #272 ) ;
#61 = VERTEX_POINT ( 'NONE', #306 ) ;
#62 = DIRECTION ( 'NONE',  ( -0.0000000000000000000, -0.0000000000000000000, -1.000000000000000000 ) ) ;
#63 = ORIENTED_EDGE ( 'NONE', *, *, #33, .T. ) ;
#64 = AXIS2_PLACEMENT_3D ( 'NONE', #287, #254, #147 ) ;
#65 = FACE_OUTER_BOUND ( 'NONE', #201, .T. ) ;
#66 = ORIENTED_EDGE ( 'NONE', *, *, #73, .T. ) ;
#67 = DIRECTION ( 'NONE',  ( 1.000000000000000000, 0.0000000000000000000, 0.0000000000000000000 ) ) ;
#68 = VERTEX_POINT ( 'NONE', #308 ) ;
#69 = FILL_AREA_STYLE_COLOUR ( '', #307 ) ;
#70 = AXIS2_PLACEMENT_3D ( 'NONE', #337, #71, #207 ) ;
#71 = DIRECTION ( 'NONE',  ( 0.0000000000000000000, 0.0000000000000000000, -1.000000000000000000 ) ) ;
#72 = CIRCLE ( 'NONE', #44, 0.2350000000000003753 ) ;
#73 = EDGE_CURVE ( 'NONE', #89, #2, #127, .T. ) ;
#74 = CARTESIAN_POINT ( 'NONE',  ( -0.2350000000000003753, 0.0000000000000000000, 2.500000000000000000 ) ) ;
#75 = PRESENTATION_STYLE_ASSIGNMENT (( #17 ) ) ;
#76 = LINE ( 'NONE', #179, #113 ) ;
#77 = SHAPE_DEFINITION_REPRESENTATION ( #323, #52 ) ;
#78 = DIRECTION ( 'NONE',  ( -1.000000000000000000, 0.0000000000000000000, 0.0000000000000000000 ) ) ;
#79 = EDGE_CURVE ( 'NONE', #192, #218, #148, .T. ) ;
#80 = AXIS2_PLACEMENT_3D ( 'NONE', #311, #104, #45 ) ;
#81 = CARTESIAN_POINT ( 'NONE',  ( 0.0000000000000000000, 0.0000000000000000000, 2.500000000000000000 ) ) ;
#82 = DIRECTION ( 'NONE',  ( 1.000000000000000000, 0.0000000000000000000, 0.0000000000000000000 ) ) ;
#83 = LINE ( 'NONE', #316, #199 ) ;
#84 = AXIS2_PLACEMENT_3D ( 'NONE', #286, #285, #78 ) ;
#85 =( CONVERSION_BASED_UNIT ( 'INCH', #210 ) LENGTH_UNIT ( ) NAMED_UNIT ( #184 ) );
#86 =( LENGTH_UNIT ( ) NAMED_UNIT ( * ) SI_UNIT ( $, .METRE. ) );
#87 = VERTEX_POINT ( 'NONE', #13 ) ;
#88 = CIRCLE ( 'NONE', #208, 0.03749999999999999861 ) ;
#89 = VERTEX_POINT ( 'NONE', #102 ) ;
#90 = CARTESIAN_POINT ( 'NONE',  ( 0.0000000000000000000, 0.0000000000000000000, 1.000000000000000000 ) ) ;
#91 = ORIENTED_EDGE ( 'NONE', *, *, #213, .T. ) ;
#92 = AXIS2_PLACEMENT_3D ( 'NONE', #90, #136, #39 ) ;
#93 = DIRECTION ( 'NONE',  ( 1.000000000000000000, 0.0000000000000000000, 0.0000000000000000000 ) ) ;
#94 = ORIENTED_EDGE ( 'NONE', *, *, #73, .F. ) ;
#95 = VECTOR ( 'NONE', #205, 39.37007874015748854 ) ;
#96 = CIRCLE ( 'NONE', #298, 0.2499500000000001165 ) ;
#97 = ORIENTED_EDGE ( 'NONE', *, *, #33, .F. ) ;
#98 = ORIENTED_EDGE ( 'NONE', *, *, #230, .F. ) ;
#99 = DIRECTION ( 'NONE',  ( 1.000000000000000000, 0.0000000000000000000, -0.0000000000000000000 ) ) ;
#100 = PRODUCT_RELATED_PRODUCT_CATEGORY ( 'part', '', ( #296 ) ) ;
#101 = CARTESIAN_POINT ( 'NONE',  ( -0.2499500000000000610, 0.0000000000000000000, 0.1782667166436124329 ) ) ;
#102 = CARTESIAN_POINT ( 'NONE',  ( -0.2499500000000001165, 3.061310836168596889E-17, 1.000000000000000000 ) ) ;
#103 = CARTESIAN_POINT ( 'NONE',  ( 0.0000000000000000000, 0.0000000000000000000, 2.500000000000000000 ) ) ;
#104 = DIRECTION ( 'NONE',  ( -0.0000000000000000000, -0.0000000000000000000, -1.000000000000000000 ) ) ;
#105 = DIRECTION ( 'NONE',  ( -0.0000000000000000000, -0.0000000000000000000, -1.000000000000000000 ) ) ;
#106 = FILL_AREA_STYLE_COLOUR ( '', #167 ) ;
#107 = DIRECTION ( 'NONE',  ( -0.0000000000000000000, -0.0000000000000000000, -1.000000000000000000 ) ) ;
#108 = EDGE_CURVE ( 'NONE', #197, #218, #47, .T. ) ;
#109 = CARTESIAN_POINT ( 'NONE',  ( -0.2500000000000000000, 0.0000000000000000000, 2.484999999999999876 ) ) ;
#110 = DIRECTION ( 'NONE',  ( -0.0000000000000000000, -0.0000000000000000000, -1.000000000000000000 ) ) ;
#111 = FACE_OUTER_BOUND ( 'NONE', #9, .T. ) ;
#112 = ORIENTED_EDGE ( 'NONE', *, *, #193, .T. ) ;
#113 = VECTOR ( 'NONE', #283, 39.37007874015748143 ) ;
#114 = PLANE ( 'NONE',  #253 ) ;
#115 = EDGE_LOOP ( 'NONE', ( #223, #276, #11, #160 ) ) ;
#116 = DIRECTION ( 'NONE',  ( 1.000000000000000000, 0.0000000000000000000, 0.0000000000000000000 ) ) ;
#117 = ORIENTED_EDGE ( 'NONE', *, *, #284, .F. ) ;
#118 = CARTESIAN_POINT ( 'NONE',  ( 0.0000000000000000000, 0.0000000000000000000, 2.500000000000000000 ) ) ;
#119 = EDGE_LOOP ( 'NONE', ( #171, #252, #5, #259 ) ) ;
#120 = CLOSED_SHELL ( 'NONE', ( #288, #188, #335, #50, #261, #194, #26, #59, #330, #273, #153, #297 ) ) ;
#121 = MECHANICAL_DESIGN_GEOMETRIC_PRESENTATION_REPRESENTATION (  '', ( #270 ), #162 ) ;
#122 = EDGE_LOOP ( 'NONE', ( #303, #140, #278, #338 ) ) ;
#123 = DIRECTION ( 'NONE',  ( 1.000000000000000000, 0.0000000000000000000, 0.0000000000000000000 ) ) ;
#124 = DIRECTION ( 'NONE',  ( 0.0000000000000000000, 0.0000000000000000000, -1.000000000000000000 ) ) ;
#125 = CARTESIAN_POINT ( 'NONE',  ( 0.0000000000000000000, 0.0000000000000000000, 2.500000000000000000 ) ) ;
#126 = DIRECTION ( 'NONE',  ( -0.0000000000000000000, -0.0000000000000000000, -1.000000000000000000 ) ) ;
#127 = LINE ( 'NONE', #12, #220 ) ;
#128 = DIRECTION ( 'NONE',  ( -1.000000000000000000, 0.0000000000000000000, 0.0000000000000000000 ) ) ;
#129 = VECTOR ( 'NONE', #170, 39.37007874015748143 ) ;
#130 = APPLICATION_PROTOCOL_DEFINITION ( 'draft international standard', 'automotive_design', 1998, #175 ) ;
#131 = DIRECTION ( 'NONE',  ( -1.000000000000000000, 0.0000000000000000000, 0.0000000000000000000 ) ) ;
#132 = DIRECTION ( 'NONE',  ( -1.000000000000000000, 0.0000000000000000000, 0.0000000000000000000 ) ) ;
#133 = AXIS2_PLACEMENT_3D ( 'NONE', #240, #216, #246 ) ;
#134 = EDGE_CURVE ( 'NONE', #2, #87, #264, .T. ) ;
#135 = CARTESIAN_POINT ( 'NONE',  ( 0.0000000000000000000, 0.0000000000000000000, 1.000049999999999883 ) ) ;
#136 = DIRECTION ( 'NONE',  ( 0.0000000000000000000, 0.0000000000000000000, 1.000000000000000000 ) ) ;
#137 = ORIENTED_EDGE ( 'NONE', *, *, #143, .T. ) ;
#138 = VECTOR ( 'NONE', #324, 39.37007874015748143 ) ;
#139 = EDGE_LOOP ( 'NONE', ( #142, #274, #66, #42 ) ) ;
#140 = ORIENTED_EDGE ( 'NONE', *, *, #25, .F. ) ;
#141 = FACE_OUTER_BOUND ( 'NONE', #245, .T. ) ;
#142 = ORIENTED_EDGE ( 'NONE', *, *, #348, .F. ) ;
#143 = EDGE_CURVE ( 'NONE', #87, #2, #180, .T. ) ;
#144 = DIRECTION ( 'NONE',  ( 1.000000000000000000, 0.0000000000000000000, 0.0000000000000000000 ) ) ;
#145 = PLANE ( 'NONE',  #22 ) ;
#146 = AXIS2_PLACEMENT_3D ( 'NONE', #8, #62, #93 ) ;
#147 = DIRECTION ( 'NONE',  ( -1.000000000000000000, 0.0000000000000000000, 0.0000000000000000000 ) ) ;
#148 = CIRCLE ( 'NONE', #70, 0.2500000000000000000 ) ;
#149 = CONICAL_SURFACE ( 'NONE', #349, 0.2350000000000003753, 0.7853981633974278509 ) ;
#150 = DIRECTION ( 'NONE',  ( 0.0000000000000000000, 0.0000000000000000000, 1.000000000000000000 ) ) ;
#151 = SURFACE_SIDE_STYLE ('',( #18 ) ) ;
#152 = CARTESIAN_POINT ( 'NONE',  ( -0.2350000000000003753, 0.0000000000000000000, 2.500000000000000000 ) ) ;
#153 = ADVANCED_FACE ( 'NONE', ( #332 ), #227, .T. ) ;
#154 = CARTESIAN_POINT ( 'NONE',  ( 0.0000000000000000000, 0.0000000000000000000, 1.000000000000000000 ) ) ;
#155 = PRESENTATION_LAYER_ASSIGNMENT (  '', '', ( #270 ) ) ;
#156 = CARTESIAN_POINT ( 'NONE',  ( -0.03749999999999999861, 1.760123612074533598E-17, 0.0000000000000000000 ) ) ;
#157 = CARTESIAN_POINT ( 'NONE',  ( 0.03749999999999999861, 0.0000000000000000000, 0.0000000000000000000 ) ) ;
#158 = EDGE_CURVE ( 'NONE', #326, #229, #76, .T. ) ;
#159 = DIRECTION ( 'NONE',  ( -0.7660444431189793457, 9.381338752702748037E-17, 0.6427876096865378086 ) ) ;
#160 = ORIENTED_EDGE ( 'NONE', *, *, #108, .F. ) ;
#161 = AXIS2_PLACEMENT_3D ( 'NONE', #262, #202, #144 ) ;
#162 =( GEOMETRIC_REPRESENTATION_CONTEXT ( 3 ) GLOBAL_UNCERTAINTY_ASSIGNED_CONTEXT ( ( #15 ) ) GLOBAL_UNIT_ASSIGNED_CONTEXT ( ( #85, #295, #237 ) ) REPRESENTATION_CONTEXT ( 'NONE', 'WORKASPACE' ) );
#163 = DIMENSIONAL_EXPONENTS ( 1.000000000000000000, 0.0000000000000000000, 0.0000000000000000000, 0.0000000000000000000, 0.0000000000000000000, 0.0000000000000000000, 0.0000000000000000000 ) ;
#164 = ORIENTED_EDGE ( 'NONE', *, *, #348, .T. ) ;
#165 = CARTESIAN_POINT ( 'NONE',  ( 0.2500000000000000000, 3.061616997868383018E-17, 2.500000000000000000 ) ) ;
#166 = ORIENTED_EDGE ( 'NONE', *, *, #256, .F. ) ;
#167 = COLOUR_RGB ( '',0.7921568627450980005, 0.8196078431372548767, 0.9333333333333333481 ) ;
#168 =( LENGTH_UNIT ( ) NAMED_UNIT ( * ) SI_UNIT ( $, .METRE. ) );
#169 = ORIENTED_EDGE ( 'NONE', *, *, #158, .F. ) ;
#170 = DIRECTION ( 'NONE',  ( -0.0000000000000000000, -0.0000000000000000000, -1.000000000000000000 ) ) ;
#171 = ORIENTED_EDGE ( 'NONE', *, *, #334, .F. ) ;
#172 =( NAMED_UNIT ( * ) PLANE_ANGLE_UNIT ( ) SI_UNIT ( $, .RADIAN. ) );
#173 = EDGE_LOOP ( 'NONE', ( #282, #247, #331, #226 ) ) ;
#174 = SURFACE_STYLE_USAGE ( .BOTH. , #151 ) ;
#175 = APPLICATION_CONTEXT ( 'automotive_design' ) ;
#176 = CONICAL_SURFACE ( 'NONE', #221, 0.2499500000000001165, 0.7853981633974503884 ) ;
#177 = FACE_OUTER_BOUND ( 'NONE', #327, .T. ) ;
#178 = MANIFOLD_SOLID_BREP ( 'Cut-Revolve2', #120 ) ;
#179 = CARTESIAN_POINT ( 'NONE',  ( 0.2499500000000001165, 0.0000000000000000000, 1.000000000000000000 ) ) ;
#180 = CIRCLE ( 'NONE', #80, 0.2499500000000000610 ) ;
#181 = PRODUCT_DEFINITION_CONTEXT ( 'detailed design', #175, 'design' ) ;
#182 = CYLINDRICAL_SURFACE ( 'NONE', #241, 0.2499500000000000888 ) ;
#183 =( NAMED_UNIT ( * ) PLANE_ANGLE_UNIT ( ) SI_UNIT ( $, .RADIAN. ) );
#184 = DIMENSIONAL_EXPONENTS ( 1.000000000000000000, 0.0000000000000000000, 0.0000000000000000000, 0.0000000000000000000, 0.0000000000000000000, 0.0000000000000000000, 0.0000000000000000000 ) ;
#185 = DIRECTION ( 'NONE',  ( 0.0000000000000000000, 0.0000000000000000000, -1.000000000000000000 ) ) ;
#186 = DIRECTION ( 'NONE',  ( -1.000000000000000000, 0.0000000000000000000, 0.0000000000000000000 ) ) ;
#187 = AXIS2_PLACEMENT_3D ( 'NONE', #24, #315, #132 ) ;
#188 = ADVANCED_FACE ( 'NONE', ( #347 ), #182, .T. ) ;
#189 = DIRECTION ( 'NONE',  ( -0.0000000000000000000, -0.0000000000000000000, -1.000000000000000000 ) ) ;
#190 = LINE ( 'NONE', #157, #333 ) ;
#191 = VECTOR ( 'NONE', #6, 39.37007874015748143 ) ;
#192 = VERTEX_POINT ( 'NONE', #342 ) ;
#193 = EDGE_CURVE ( 'NONE', #219, #200, #88, .T. ) ;
#194 = ADVANCED_FACE ( 'NONE', ( #55 ), #21, .T. ) ;
#195 = DIRECTION ( 'NONE',  ( 0.0000000000000000000, 0.0000000000000000000, 1.000000000000000000 ) ) ;
#196 = ORIENTED_EDGE ( 'NONE', *, *, #230, .T. ) ;
#197 = VERTEX_POINT ( 'NONE', #152 ) ;
#198 = CONICAL_SURFACE ( 'NONE', #48, 0.2350000000000003753, 0.7853981633974278509 ) ;
#199 = VECTOR ( 'NONE', #159, 39.37007874015748143 ) ;
#200 = VERTEX_POINT ( 'NONE', #314 ) ;
#201 = EDGE_LOOP ( 'NONE', ( #31, #166, #305, #7 ) ) ;
#202 = DIRECTION ( 'NONE',  ( 0.0000000000000000000, 0.0000000000000000000, 1.000000000000000000 ) ) ;
#203 = PRODUCT_DEFINITION ( 'UNKNOWN', '', #236, #181 ) ;
#204 = VECTOR ( 'NONE', #27, 39.37007874015748854 ) ;
#205 = DIRECTION ( 'NONE',  ( -0.7071067811865330288, 0.0000000000000000000, -0.7071067811865618946 ) ) ;
#206 = DIRECTION ( 'NONE',  ( 0.0000000000000000000, 0.0000000000000000000, -1.000000000000000000 ) ) ;
#207 = DIRECTION ( 'NONE',  ( 1.000000000000000000, 0.0000000000000000000, 0.0000000000000000000 ) ) ;
#208 = AXIS2_PLACEMENT_3D ( 'NONE', #242, #189, #29 ) ;
#209 = SURFACE_SIDE_STYLE ('',( #10 ) ) ;
#210 = LENGTH_MEASURE_WITH_UNIT ( LENGTH_MEASURE( 0.02539999999999999897 ), #86 );
#211 = LENGTH_MEASURE_WITH_UNIT ( LENGTH_MEASURE( 0.02539999999999999897 ), #20 );
#212 = CYLINDRICAL_SURFACE ( 'NONE', #289, 0.2500000000000000000 ) ;
#213 = EDGE_CURVE ( 'NONE', #200, #87, #190, .T. ) ;
#214 = CARTESIAN_POINT ( 'NONE',  ( 0.0000000000000000000, 0.0000000000000000000, 2.500000000000000000 ) ) ;
#215 = CIRCLE ( 'NONE', #161, 0.2350000000000003753 ) ;
#216 = DIRECTION ( 'NONE',  ( -0.0000000000000000000, -0.0000000000000000000, -1.000000000000000000 ) ) ;
#217 = CARTESIAN_POINT ( 'NONE',  ( 0.0000000000000000000, 0.0000000000000000000, 0.0000000000000000000 ) ) ;
#218 = VERTEX_POINT ( 'NONE', #109 ) ;
#219 = VERTEX_POINT ( 'NONE', #156 ) ;
#220 = VECTOR ( 'NONE', #126, 39.37007874015748143 ) ;
#221 = AXIS2_PLACEMENT_3D ( 'NONE', #57, #281, #67 ) ;
#222 = DIRECTION ( 'NONE',  ( -0.0000000000000000000, -0.0000000000000000000, -1.000000000000000000 ) ) ;
#223 = ORIENTED_EDGE ( 'NONE', *, *, #329, .F. ) ;
#224 =( NAMED_UNIT ( * ) SI_UNIT ( $, .STERADIAN. ) SOLID_ANGLE_UNIT ( ) );
#225 = ORIENTED_EDGE ( 'NONE', *, *, #329, .T. ) ;
#226 = ORIENTED_EDGE ( 'NONE', *, *, #310, .F. ) ;
#227 = CONICAL_SURFACE ( 'NONE', #231, 0.03749999999999999861, 0.8726646259971667652 ) ;
#228 = EDGE_LOOP ( 'NONE', ( #97, #320, #40, #169 ) ) ;
#229 = VERTEX_POINT ( 'NONE', #345 ) ;
#230 = EDGE_CURVE ( 'NONE', #219, #2, #83, .T. ) ;
#231 = AXIS2_PLACEMENT_3D ( 'NONE', #312, #150, #123 ) ;
#232 =( CONVERSION_BASED_UNIT ( 'INCH', #211 ) LENGTH_UNIT ( ) NAMED_UNIT ( #233 ) );
#233 = DIMENSIONAL_EXPONENTS ( 1.000000000000000000, 0.0000000000000000000, 0.0000000000000000000, 0.0000000000000000000, 0.0000000000000000000, 0.0000000000000000000, 0.0000000000000000000 ) ;
#234 = UNCERTAINTY_MEASURE_WITH_UNIT (LENGTH_MEASURE( 1.000000000000000082E-05 ), #232, 'distance_accuracy_value', 'NONE');
#235 = DIRECTION ( 'NONE',  ( -1.000000000000000000, 0.0000000000000000000, 0.0000000000000000000 ) ) ;
#236 = PRODUCT_DEFINITION_FORMATION_WITH_SPECIFIED_SOURCE ( 'ANY', '', #296, .NOT_KNOWN. ) ;
#237 =( NAMED_UNIT ( * ) SI_UNIT ( $, .STERADIAN. ) SOLID_ANGLE_UNIT ( ) );
#238 = FACE_OUTER_BOUND ( 'NONE', #173, .T. ) ;
#239 = EDGE_CURVE ( 'NONE', #218, #192, #56, .T. ) ;
#240 = CARTESIAN_POINT ( 'NONE',  ( 0.0000000000000000000, 0.0000000000000000000, 0.0000000000000000000 ) ) ;
#241 = AXIS2_PLACEMENT_3D ( 'NONE', #313, #107, #128 ) ;
#242 = CARTESIAN_POINT ( 'NONE',  ( 0.0000000000000000000, 0.0000000000000000000, 0.0000000000000000000 ) ) ;
#243 = EDGE_CURVE ( 'NONE', #68, #229, #341, .T. ) ;
#244 =( CONVERSION_BASED_UNIT ( 'INCH', #36 ) LENGTH_UNIT ( ) NAMED_UNIT ( #163 ) );
#245 = EDGE_LOOP ( 'NONE', ( #58, #112 ) ) ;
#246 = DIRECTION ( 'NONE',  ( -1.000000000000000000, 0.0000000000000000000, 0.0000000000000000000 ) ) ;
#247 = ORIENTED_EDGE ( 'NONE', *, *, #334, .T. ) ;
#248 = CIRCLE ( 'NONE', #133, 0.03749999999999999861 ) ;
#249 = CARTESIAN_POINT ( 'NONE',  ( -0.2500000000000000000, 0.0000000000000000000, 2.500000000000000000 ) ) ;
#250 = ORIENTED_EDGE ( 'NONE', *, *, #134, .F. ) ;
#251 = CARTESIAN_POINT ( 'NONE',  ( -0.2499500000000001165, 3.061004674468810760E-17, 1.000000000000000000 ) ) ;
#252 = ORIENTED_EDGE ( 'NONE', *, *, #79, .T. ) ;
#253 = AXIS2_PLACEMENT_3D ( 'NONE', #217, #3, #30 ) ;
#254 = DIRECTION ( 'NONE',  ( -0.0000000000000000000, -0.0000000000000000000, -1.000000000000000000 ) ) ;
#255 = EDGE_CURVE ( 'NONE', #61, #192, #53, .T. ) ;
#256 = EDGE_CURVE ( 'NONE', #326, #89, #96, .T. ) ;
#257 = DIRECTION ( 'NONE',  ( -1.000000000000000000, 0.0000000000000000000, 0.0000000000000000000 ) ) ;
#258 =( GEOMETRIC_REPRESENTATION_CONTEXT ( 3 ) GLOBAL_UNCERTAINTY_ASSIGNED_CONTEXT ( ( #234 ) ) GLOBAL_UNIT_ASSIGNED_CONTEXT ( ( #232, #183, #46 ) ) REPRESENTATION_CONTEXT ( 'NONE', 'WORKASPACE' ) );
#259 = ORIENTED_EDGE ( 'NONE', *, *, #343, .F. ) ;
#260 = FACE_OUTER_BOUND ( 'NONE', #122, .T. ) ;
#261 = ADVANCED_FACE ( 'NONE', ( #238 ), #212, .T. ) ;
#262 = CARTESIAN_POINT ( 'NONE',  ( 0.0000000000000000000, 0.0000000000000000000, 2.500000000000000000 ) ) ;
#263 = DIRECTION ( 'NONE',  ( 0.7660444431189793457, 0.0000000000000000000, 0.6427876096865378086 ) ) ;
#264 = CIRCLE ( 'NONE', #84, 0.2499500000000000610 ) ;
#265 = AXIS2_PLACEMENT_3D ( 'NONE', #81, #105, #268 ) ;
#266 = CARTESIAN_POINT ( 'NONE',  ( 0.2350000000000003753, 2.877919977996284141E-17, 2.500000000000000000 ) ) ;
#267 = DIRECTION ( 'NONE',  ( -0.0000000000000000000, -0.0000000000000000000, -1.000000000000000000 ) ) ;
#268 = DIRECTION ( 'NONE',  ( -1.000000000000000000, 0.0000000000000000000, 0.0000000000000000000 ) ) ;
#269 = DIRECTION ( 'NONE',  ( 1.000000000000000000, 0.0000000000000000000, 0.0000000000000000000 ) ) ;
#270 = STYLED_ITEM ( 'NONE', ( #43 ), #178 ) ;
#271 = ORIENTED_EDGE ( 'NONE', *, *, #25, .T. ) ;
#272 = APPLICATION_CONTEXT ( 'automotive_design' ) ;
#273 = ADVANCED_FACE ( 'NONE', ( #294 ), #54, .T. ) ;
#274 = ORIENTED_EDGE ( 'NONE', *, *, #256, .T. ) ;
#275 = AXIS2_PLACEMENT_3D ( 'NONE', #344, #340, #82 ) ;
#276 = ORIENTED_EDGE ( 'NONE', *, *, #255, .T. ) ;
#277 = LINE ( 'NONE', #1, #138 ) ;
#278 = ORIENTED_EDGE ( 'NONE', *, *, #108, .T. ) ;
#279 = CIRCLE ( 'NONE', #64, 0.2499500000000001165 ) ;
#280 = DIRECTION ( 'NONE',  ( 1.000000000000000000, 0.0000000000000000000, 0.0000000000000000000 ) ) ;
#281 = DIRECTION ( 'NONE',  ( 0.0000000000000000000, 0.0000000000000000000, 1.000000000000000000 ) ) ;
#282 = ORIENTED_EDGE ( 'NONE', *, *, #239, .T. ) ;
#283 = DIRECTION ( 'NONE',  ( 0.7071067811865490160, 0.0000000000000000000, 0.7071067811865460184 ) ) ;
#284 = EDGE_CURVE ( 'NONE', #200, #219, #248, .T. ) ;
#285 = DIRECTION ( 'NONE',  ( -0.0000000000000000000, -0.0000000000000000000, -1.000000000000000000 ) ) ;
#286 = CARTESIAN_POINT ( 'NONE',  ( 0.0000000000000000000, 0.0000000000000000000, 0.1782667166436124329 ) ) ;
#287 = CARTESIAN_POINT ( 'NONE',  ( 0.0000000000000000000, 0.0000000000000000000, 1.000000000000000000 ) ) ;
#288 = ADVANCED_FACE ( 'NONE', ( #111 ), #37, .T. ) ;
#289 = AXIS2_PLACEMENT_3D ( 'NONE', #214, #110, #186 ) ;
#290 = FILL_AREA_STYLE ('',( #69 ) ) ;
#291 = CARTESIAN_POINT ( 'NONE',  ( 0.0000000000000000000, 0.0000000000000000000, 2.484999999999999876 ) ) ;
#292 = DIRECTION ( 'NONE',  ( 1.000000000000000000, 0.0000000000000000000, 0.0000000000000000000 ) ) ;
#293 = CIRCLE ( 'NONE', #146, 0.2500000000000000000 ) ;
#294 = FACE_OUTER_BOUND ( 'NONE', #139, .T. ) ;
#295 =( NAMED_UNIT ( * ) PLANE_ANGLE_UNIT ( ) SI_UNIT ( $, .RADIAN. ) );
#296 = PRODUCT ( 'Micro_SPD-500-100', 'Micro_SPD-500-100', '', ( #51 ) ) ;
#297 = ADVANCED_FACE ( 'NONE', ( #141 ), #114, .F. ) ;
#298 = AXIS2_PLACEMENT_3D ( 'NONE', #154, #23, #131 ) ;
#299 = EDGE_CURVE ( 'NONE', #89, #68, #34, .T. ) ;
#300 = LINE ( 'NONE', #249, #328 ) ;
#301 = EDGE_LOOP ( 'NONE', ( #63, #164, #250, #94 ) ) ;
#302 = DIRECTION ( 'NONE',  ( 0.0000000000000000000, 0.0000000000000000000, 1.000000000000000000 ) ) ;
#303 = ORIENTED_EDGE ( 'NONE', *, *, #255, .F. ) ;
#304 = LINE ( 'NONE', #165, #129 ) ;
#305 = ORIENTED_EDGE ( 'NONE', *, *, #158, .T. ) ;
#306 = CARTESIAN_POINT ( 'NONE',  ( 0.2350000000000003753, 2.969768487932332963E-17, 2.500000000000000000 ) ) ;
#307 = COLOUR_RGB ( '',0.7921568627450980005, 0.8196078431372548767, 0.9333333333333333481 ) ;
#308 = CARTESIAN_POINT ( 'NONE',  ( -0.2500000000000000000, 0.0000000000000000000, 1.000049999999999883 ) ) ;
#309 = FILL_AREA_STYLE ('',( #106 ) ) ;
#310 = EDGE_CURVE ( 'NONE', #218, #68, #300, .T. ) ;
#311 = CARTESIAN_POINT ( 'NONE',  ( 0.0000000000000000000, 0.0000000000000000000, 0.1782667166436124329 ) ) ;
#312 = CARTESIAN_POINT ( 'NONE',  ( 0.0000000000000000000, 0.0000000000000000000, 0.0000000000000000000 ) ) ;
#313 = CARTESIAN_POINT ( 'NONE',  ( 0.0000000000000000000, 0.0000000000000000000, 0.0000000000000000000 ) ) ;
#314 = CARTESIAN_POINT ( 'NONE',  ( 0.03749999999999999861, 0.0000000000000000000, 0.0000000000000000000 ) ) ;
#315 = DIRECTION ( 'NONE',  ( -0.0000000000000000000, -0.0000000000000000000, -1.000000000000000000 ) ) ;
#316 = CARTESIAN_POINT ( 'NONE',  ( -0.03749999999999999861, 4.592425496802573602E-18, 0.0000000000000000000 ) ) ;
#317 = CARTESIAN_POINT ( 'NONE',  ( 0.2499500000000001165, 0.0000000000000000000, 1.000000000000000000 ) ) ;
#318 = CARTESIAN_POINT ( 'NONE',  ( 0.0000000000000000000, 0.0000000000000000000, 0.0000000000000000000 ) ) ;
#319 = AXIS2_PLACEMENT_3D ( 'NONE', #318, #195, #280 ) ;
#320 = ORIENTED_EDGE ( 'NONE', *, *, #299, .T. ) ;
#321 = FACE_OUTER_BOUND ( 'NONE', #228, .T. ) ;
#322 = ORIENTED_EDGE ( 'NONE', *, *, #193, .F. ) ;
#323 = PRODUCT_DEFINITION_SHAPE ( 'NONE', 'NONE',  #203 ) ;
#324 = DIRECTION ( 'NONE',  ( -0.0000000000000000000, -0.0000000000000000000, -1.000000000000000000 ) ) ;
#325 =( GEOMETRIC_REPRESENTATION_CONTEXT ( 3 ) GLOBAL_UNCERTAINTY_ASSIGNED_CONTEXT ( ( #336 ) ) GLOBAL_UNIT_ASSIGNED_CONTEXT ( ( #244, #172, #224 ) ) REPRESENTATION_CONTEXT ( 'NONE', 'WORKASPACE' ) );
#326 = VERTEX_POINT ( 'NONE', #317 ) ;
#327 = EDGE_LOOP ( 'NONE', ( #271, #225 ) ) ;
#328 = VECTOR ( 'NONE', #222, 39.37007874015748143 ) ;
#329 = EDGE_CURVE ( 'NONE', #61, #197, #72, .T. ) ;
#330 = ADVANCED_FACE ( 'NONE', ( #65 ), #176, .T. ) ;
#331 = ORIENTED_EDGE ( 'NONE', *, *, #243, .F. ) ;
#332 = FACE_OUTER_BOUND ( 'NONE', #38, .T. ) ;
#333 = VECTOR ( 'NONE', #263, 39.37007874015748143 ) ;
#334 = EDGE_CURVE ( 'NONE', #192, #229, #304, .T. ) ;
#335 = ADVANCED_FACE ( 'NONE', ( #321 ), #346, .T. ) ;
#336 = UNCERTAINTY_MEASURE_WITH_UNIT (LENGTH_MEASURE( 1.000000000000000082E-05 ), #244, 'distance_accuracy_value', 'NONE');
#337 = CARTESIAN_POINT ( 'NONE',  ( 0.0000000000000000000, 0.0000000000000000000, 2.484999999999999876 ) ) ;
#338 = ORIENTED_EDGE ( 'NONE', *, *, #79, .F. ) ;
#339 = DIRECTION ( 'NONE',  ( 0.0000000000000000000, 0.0000000000000000000, 1.000000000000000000 ) ) ;
#340 = DIRECTION ( 'NONE',  ( 0.0000000000000000000, 0.0000000000000000000, 1.000000000000000000 ) ) ;
#341 = CIRCLE ( 'NONE', #28, 0.2500000000000000000 ) ;
#342 = CARTESIAN_POINT ( 'NONE',  ( 0.2500000000000000000, 3.061616997868383018E-17, 2.484999999999999876 ) ) ;
#343 = EDGE_CURVE ( 'NONE', #229, #68, #293, .T. ) ;
#344 = CARTESIAN_POINT ( 'NONE',  ( 0.0000000000000000000, 0.0000000000000000000, 0.0000000000000000000 ) ) ;
#345 = CARTESIAN_POINT ( 'NONE',  ( 0.2500000000000000000, 3.061616997868383018E-17, 1.000049999999999883 ) ) ;
#346 = CONICAL_SURFACE ( 'NONE', #92, 0.2499500000000001165, 0.7853981633974503884 ) ;
#347 = FACE_OUTER_BOUND ( 'NONE', #301, .T. ) ;
#348 = EDGE_CURVE ( 'NONE', #326, #87, #277, .T. ) ;
#349 = AXIS2_PLACEMENT_3D ( 'NONE', #49, #206, #235 ) ;
ENDSEC;
END-ISO-10303-21;
