ISO-10303-21;
HEADER;
FILE_DESCRIPTION (( 'STEP AP214' ),
    '1' );
FILE_NAME ('82459.STEP',
    '2023-06-30T22:40:56',
    ( '' ),
    ( '' ),
    'SwSTEP 2.0',
    'SolidWorks 2023',
    '' );
FILE_SCHEMA (( 'AUTOMOTIVE_DESIGN' ));
ENDSEC;

DATA;
#1 =( NAMED_UNIT ( * ) PLANE_ANGLE_UNIT ( ) SI_UNIT ( $, .RADIAN. ) );
#2 = ORIENTED_EDGE ( 'NONE', *, *, #243, .F. ) ;
#3 =( NAMED_UNIT ( * ) SI_UNIT ( $, .STERADIAN. ) SOLID_ANGLE_UNIT ( ) );
#4 = PRESENTATION_LAYER_ASSIGNMENT (  '', '', ( #255 ) ) ;
#5 = MECHANICAL_DESIGN_GEOMETRIC_PRESENTATION_REPRESENTATION (  '', ( #162 ), #231 ) ;
#6 = EDGE_LOOP ( 'NONE', ( #359, #43, #120, #205, #361 ) ) ;
#7 = ORIENTED_EDGE ( 'NONE', *, *, #48, .F. ) ;
#8 =( LENGTH_UNIT ( ) NAMED_UNIT ( * ) SI_UNIT ( $, .METRE. ) );
#9 = VECTOR ( 'NONE', #38, 39.37007874015748143 ) ;
#10 =( GEOMETRIC_REPRESENTATION_CONTEXT ( 3 ) GLOBAL_UNCERTAINTY_ASSIGNED_CONTEXT ( ( #20 ) ) GLOBAL_UNIT_ASSIGNED_CONTEXT ( ( #235, #118, #360 ) ) REPRESENTATION_CONTEXT ( 'NONE', 'WORKASPACE' ) );
#11 = CARTESIAN_POINT ( 'NONE',  ( 0.000000000000000000, 0.1562500000000000000, -0.1562499999999999722 ) ) ;
#12 = VERTEX_POINT ( 'NONE', #329 ) ;
#13 = EDGE_CURVE ( 'NONE', #306, #57, #261, .T. ) ;
#14 =( LENGTH_UNIT ( ) NAMED_UNIT ( * ) SI_UNIT ( $, .METRE. ) );
#15 = APPLICATION_PROTOCOL_DEFINITION ( 'draft international standard', 'automotive_design', 1998, #19 ) ;
#16 = LINE ( 'NONE', #133, #238 ) ;
#17 = AXIS2_PLACEMENT_3D ( 'NONE', #82, #362, #55 ) ;
#18 = ADVANCED_FACE ( 'NONE', ( #147 ), #341, .T. ) ;
#19 = APPLICATION_CONTEXT ( 'automotive_design' ) ;
#20 = UNCERTAINTY_MEASURE_WITH_UNIT (LENGTH_MEASURE( 1.000000000000000082E-05 ), #235, 'distance_accuracy_value', 'NONE');
#21 = CARTESIAN_POINT ( 'NONE',  ( -9.567553118338692694E-18, -3.414809992080329023E-17, 0.000000000000000000 ) ) ;
#22 = FILL_AREA_STYLE_COLOUR ( '', #324 ) ;
#23 = AXIS2_PLACEMENT_3D ( 'NONE', #309, #187, #163 ) ;
#24 = ORIENTED_EDGE ( 'NONE', *, *, #37, .F. ) ;
#25 = LENGTH_MEASURE_WITH_UNIT ( LENGTH_MEASURE( 0.02539999999999999897 ), #137 );
#26 = CARTESIAN_POINT ( 'NONE',  ( 0.1562499999999998612, 3.000000000000000444, 0.000000000000000000 ) ) ;
#27 = DIRECTION ( 'NONE',  ( -0.000000000000000000, -1.000000000000000000, -0.000000000000000000 ) ) ;
#28 = DIMENSIONAL_EXPONENTS ( 1.000000000000000000, 0.000000000000000000, 0.000000000000000000, 0.000000000000000000, 0.000000000000000000, 0.000000000000000000, 0.000000000000000000 ) ;
#29 = CIRCLE ( 'NONE', #314, 0.1562499999999996392 ) ;
#30 = CYLINDRICAL_SURFACE ( 'NONE', #155, 0.1562499999999998057 ) ;
#31 = SURFACE_STYLE_USAGE ( .BOTH. , #176 ) ;
#32 = CARTESIAN_POINT ( 'NONE',  ( 2.452221597045685091E-16, 1.000000000000000000, 0.000000000000000000 ) ) ;
#33 = CARTESIAN_POINT ( 'NONE',  ( 0.1562499999999998612, 3.000000000000000444, 1.913510623667737923E-17 ) ) ;
#34 = EDGE_LOOP ( 'NONE', ( #174, #41 ) ) ;
#35 =( GEOMETRIC_REPRESENTATION_CONTEXT ( 3 ) GLOBAL_UNCERTAINTY_ASSIGNED_CONTEXT ( ( #194 ) ) GLOBAL_UNIT_ASSIGNED_CONTEXT ( ( #224, #320, #192 ) ) REPRESENTATION_CONTEXT ( 'NONE', 'WORKASPACE' ) );
#36 = CIRCLE ( 'NONE', #195, 0.1562500000000000000 ) ;
#37 = EDGE_CURVE ( 'NONE', #149, #65, #219, .T. ) ;
#38 = DIRECTION ( 'NONE',  ( -0.000000000000000000, -1.000000000000000000, -0.000000000000000000 ) ) ;
#39 = VERTEX_POINT ( 'NONE', #284 ) ;
#40 = LENGTH_MEASURE_WITH_UNIT ( LENGTH_MEASURE( 0.02539999999999999897 ), #241 );
#41 = ORIENTED_EDGE ( 'NONE', *, *, #64, .T. ) ;
#42 = DIRECTION ( 'NONE',  ( 0.000000000000000000, 1.000000000000000000, 0.000000000000000000 ) ) ;
#43 = ORIENTED_EDGE ( 'NONE', *, *, #48, .T. ) ;
#44 = EDGE_CURVE ( 'NONE', #168, #12, #29, .T. ) ;
#45 = COLOUR_RGB ( '',1.000000000000000000, 0.000000000000000000, 0.000000000000000000 ) ;
#46 = DIRECTION ( 'NONE',  ( 1.000000000000000000, 0.000000000000000000, 0.000000000000000000 ) ) ;
#47 = MECHANICAL_DESIGN_GEOMETRIC_PRESENTATION_REPRESENTATION (  '', ( #255 ), #185 ) ;
#48 = EDGE_CURVE ( 'NONE', #207, #39, #339, .T. ) ;
#49 = DIRECTION ( 'NONE',  ( -1.532272498309680909E-16, 1.000000000000000000, -0.000000000000000000 ) ) ;
#50 = STYLED_ITEM ( 'NONE', ( #228 ), #342 ) ;
#51 = DIRECTION ( 'NONE',  ( -1.000000000000000000, 0.000000000000000000, 0.000000000000000000 ) ) ;
#52 = ADVANCED_FACE ( 'NONE', ( #363 ), #213, .T. ) ;
#53 = DIRECTION ( 'NONE',  ( 1.532272498309680909E-16, -1.000000000000000000, 0.000000000000000000 ) ) ;
#54 = AXIS2_PLACEMENT_3D ( 'NONE', #298, #206, #119 ) ;
#55 = DIRECTION ( 'NONE',  ( 0.000000000000000000, 0.000000000000000000, -1.000000000000000000 ) ) ;
#56 = UNCERTAINTY_MEASURE_WITH_UNIT (LENGTH_MEASURE( 1.000000000000000082E-05 ), #87, 'distance_accuracy_value', 'NONE');
#57 = VERTEX_POINT ( 'NONE', #21 ) ;
#58 = DIRECTION ( 'NONE',  ( 0.000000000000000000, 0.000000000000000000, -1.000000000000000000 ) ) ;
#59 = MECHANICAL_DESIGN_GEOMETRIC_PRESENTATION_REPRESENTATION (  '', ( #50 ), #10 ) ;
#60 = DIRECTION ( 'NONE',  ( -0.000000000000000000, -1.000000000000000000, -0.000000000000000000 ) ) ;
#61 = CARTESIAN_POINT ( 'NONE',  ( 1.913510623667738539E-17, 0.000000000000000000, 0.1562499999999999445 ) ) ;
#62 = SURFACE_STYLE_USAGE ( .BOTH. , #331 ) ;
#63 = EDGE_LOOP ( 'NONE', ( #355, #96, #272, #69 ) ) ;
#64 = EDGE_CURVE ( 'NONE', #65, #149, #141, .T. ) ;
#65 = VERTEX_POINT ( 'NONE', #33 ) ;
#66 = SHAPE_DEFINITION_REPRESENTATION ( #364, #340 ) ;
#67 = MECHANICAL_DESIGN_GEOMETRIC_PRESENTATION_REPRESENTATION (  '', ( #248 ), #112 ) ;
#68 = FACE_OUTER_BOUND ( 'NONE', #71, .T. ) ;
#69 = ORIENTED_EDGE ( 'NONE', *, *, #335, .T. ) ;
#70 = DIRECTION ( 'NONE',  ( 1.000000000000000000, 0.000000000000000000, 0.000000000000000000 ) ) ;
#71 = EDGE_LOOP ( 'NONE', ( #126, #267, #24, #124 ) ) ;
#72 = DIRECTION ( 'NONE',  ( 1.000000000000000000, 0.000000000000000000, -1.224646799147353207E-16 ) ) ;
#73 = EDGE_CURVE ( 'NONE', #39, #154, #302, .T. ) ;
#74 = AXIS2_PLACEMENT_3D ( 'NONE', #134, #79, #46 ) ;
#75 = DIRECTION ( 'NONE',  ( 0.000000000000000000, 0.000000000000000000, -1.000000000000000000 ) ) ;
#76 = FILL_AREA_STYLE ('',( #221 ) ) ;
#77 = CIRCLE ( 'NONE', #294, 0.1562499999999999722 ) ;
#78 = UNCERTAINTY_MEASURE_WITH_UNIT (LENGTH_MEASURE( 1.000000000000000082E-05 ), #276, 'distance_accuracy_value', 'NONE');
#79 = DIRECTION ( 'NONE',  ( 0.000000000000000000, 0.000000000000000000, 1.000000000000000000 ) ) ;
#80 = LENGTH_MEASURE_WITH_UNIT ( LENGTH_MEASURE( 0.02539999999999999897 ), #14 );
#81 = CARTESIAN_POINT ( 'NONE',  ( 1.913510623667738231E-17, 1.000000000000000000, 0.1562499999999998612 ) ) ;
#82 = CARTESIAN_POINT ( 'NONE',  ( 0.000000000000000000, 1.000000000000000000, 0.000000000000000000 ) ) ;
#83 =( GEOMETRIC_REPRESENTATION_CONTEXT ( 3 ) GLOBAL_UNCERTAINTY_ASSIGNED_CONTEXT ( ( #78 ) ) GLOBAL_UNIT_ASSIGNED_CONTEXT ( ( #276, #182, #371 ) ) REPRESENTATION_CONTEXT ( 'NONE', 'WORKASPACE' ) );
#84 = SURFACE_SIDE_STYLE ('',( #260 ) ) ;
#85 = SURFACE_STYLE_USAGE ( .BOTH. , #232 ) ;
#86 = EDGE_CURVE ( 'NONE', #168, #149, #145, .T. ) ;
#87 =( CONVERSION_BASED_UNIT ( 'INCH', #140 ) LENGTH_UNIT ( ) NAMED_UNIT ( #366 ) );
#88 =( NAMED_UNIT ( * ) PLANE_ANGLE_UNIT ( ) SI_UNIT ( $, .RADIAN. ) );
#89 = MECHANICAL_DESIGN_GEOMETRIC_PRESENTATION_REPRESENTATION (  '', ( #199 ), #35 ) ;
#90 = AXIS2_PLACEMENT_3D ( 'NONE', #203, #327, #293 ) ;
#91 = DIRECTION ( 'NONE',  ( -1.000000000000000000, 0.000000000000000000, 0.000000000000000000 ) ) ;
#92 = CARTESIAN_POINT ( 'NONE',  ( -0.1562499999999998612, 3.000000000000000444, 0.000000000000000000 ) ) ;
#93 = ORIENTED_EDGE ( 'NONE', *, *, #86, .T. ) ;
#94 = DIRECTION ( 'NONE',  ( -1.000000000000000000, 0.000000000000000000, 0.000000000000000000 ) ) ;
#95 = CARTESIAN_POINT ( 'NONE',  ( 0.000000000000000000, 1.000000000000000000, 0.000000000000000000 ) ) ;
#96 = ORIENTED_EDGE ( 'NONE', *, *, #326, .T. ) ;
#97 = FILL_AREA_STYLE ('',( #178 ) ) ;
#98 = ORIENTED_EDGE ( 'NONE', *, *, #152, .F. ) ;
#99 = DIRECTION ( 'NONE',  ( 0.000000000000000000, 0.000000000000000000, -1.000000000000000000 ) ) ;
#100 = CLOSED_SHELL ( 'NONE', ( #52, #263, #111, #342, #18 ) ) ;
#101 = CIRCLE ( 'NONE', #159, 0.1562499999999996392 ) ;
#102 = PLANE ( 'NONE',  #344 ) ;
#103 = EDGE_LOOP ( 'NONE', ( #275, #353, #98, #2, #296 ) ) ;
#104 = PRODUCT_RELATED_PRODUCT_CATEGORY ( 'part', '', ( #127 ) ) ;
#105 = SURFACE_STYLE_FILL_AREA ( #290 ) ;
#106 = CARTESIAN_POINT ( 'NONE',  ( -1.913510623667738847E-17, 0.1562499999999999722, 0.000000000000000000 ) ) ;
#107 = DIRECTION ( 'NONE',  ( -0.000000000000000000, -1.000000000000000000, -0.000000000000000000 ) ) ;
#108 = SURFACE_STYLE_USAGE ( .BOTH. , #225 ) ;
#109 =( GEOMETRIC_REPRESENTATION_CONTEXT ( 3 ) GLOBAL_UNCERTAINTY_ASSIGNED_CONTEXT ( ( #229 ) ) GLOBAL_UNIT_ASSIGNED_CONTEXT ( ( #277, #250, #215 ) ) REPRESENTATION_CONTEXT ( 'NONE', 'WORKASPACE' ) );
#110 = DIRECTION ( 'NONE',  ( -1.000000000000000000, 0.000000000000000000, 0.000000000000000000 ) ) ;
#111 = ADVANCED_FACE ( 'NONE', ( #352 ), #102, .T. ) ;
#112 =( GEOMETRIC_REPRESENTATION_CONTEXT ( 3 ) GLOBAL_UNCERTAINTY_ASSIGNED_CONTEXT ( ( #279 ) ) GLOBAL_UNIT_ASSIGNED_CONTEXT ( ( #318, #1, #336 ) ) REPRESENTATION_CONTEXT ( 'NONE', 'WORKASPACE' ) );
#113 = CYLINDRICAL_SURFACE ( 'NONE', #220, 0.1562499999999999445 ) ;
#114 = PRESENTATION_STYLE_ASSIGNMENT (( #108 ) ) ;
#115 = FACE_OUTER_BOUND ( 'NONE', #6, .T. ) ;
#116 = SURFACE_STYLE_FILL_AREA ( #198 ) ;
#117 = VERTEX_POINT ( 'NONE', #356 ) ;
#118 =( NAMED_UNIT ( * ) PLANE_ANGLE_UNIT ( ) SI_UNIT ( $, .RADIAN. ) );
#119 = DIRECTION ( 'NONE',  ( -1.000000000000000000, 0.000000000000000000, 0.000000000000000000 ) ) ;
#120 = ORIENTED_EDGE ( 'NONE', *, *, #73, .T. ) ;
#121 = PRESENTATION_LAYER_ASSIGNMENT (  '', '', ( #256 ) ) ;
#122 = FILL_AREA_STYLE ('',( #271 ) ) ;
#123 = CARTESIAN_POINT ( 'NONE',  ( -1.913510623667738847E-17, 0.1562499999999999722, 0.000000000000000000 ) ) ;
#124 = ORIENTED_EDGE ( 'NONE', *, *, #86, .F. ) ;
#125 = SURFACE_STYLE_FILL_AREA ( #97 ) ;
#126 = ORIENTED_EDGE ( 'NONE', *, *, #44, .T. ) ;
#127 = PRODUCT ( '82459', '82459', '', ( #253 ) ) ;
#128 = CLOSED_SHELL ( 'NONE', ( #175, #226, #157, #202 ) ) ;
#129 = FACE_OUTER_BOUND ( 'NONE', #217, .T. ) ;
#130 =( LENGTH_UNIT ( ) NAMED_UNIT ( * ) SI_UNIT ( $, .METRE. ) );
#131 = SURFACE_STYLE_FILL_AREA ( #285 ) ;
#132 = DIRECTION ( 'NONE',  ( 1.000000000000000000, 0.000000000000000000, 0.000000000000000000 ) ) ;
#133 = CARTESIAN_POINT ( 'NONE',  ( 0.1562499999999997224, 3.000000000000000444, 1.913510623667736998E-17 ) ) ;
#134 = CARTESIAN_POINT ( 'NONE',  ( -1.913510623667738847E-17, 0.1562499999999999722, 0.000000000000000000 ) ) ;
#135 = STYLED_ITEM ( 'NONE', ( #328 ), #111 ) ;
#136 = CARTESIAN_POINT ( 'NONE',  ( 2.452221597045685091E-16, 1.000000000000000000, 0.000000000000000000 ) ) ;
#137 =( LENGTH_UNIT ( ) NAMED_UNIT ( * ) SI_UNIT ( $, .METRE. ) );
#138 = COLOUR_RGB ( '',1.000000000000000000, 0.000000000000000000, 0.000000000000000000 ) ;
#139 = DIRECTION ( 'NONE',  ( -0.000000000000000000, -1.000000000000000000, -0.000000000000000000 ) ) ;
#140 = LENGTH_MEASURE_WITH_UNIT ( LENGTH_MEASURE( 0.02539999999999999897 ), #240 );
#141 = CIRCLE ( 'NONE', #54, 0.1562499999999999445 ) ;
#142 = PRODUCT_DEFINITION_FORMATION_WITH_SPECIFIED_SOURCE ( 'ANY', '', #127, .NOT_KNOWN. ) ;
#143 = FILL_AREA_STYLE_COLOUR ( '', #138 ) ;
#144 = SURFACE_STYLE_USAGE ( .BOTH. , #84 ) ;
#145 = LINE ( 'NONE', #92, #319 ) ;
#146 =( CONVERSION_BASED_UNIT ( 'INCH', #40 ) LENGTH_UNIT ( ) NAMED_UNIT ( #209 ) );
#147 = FACE_OUTER_BOUND ( 'NONE', #63, .T. ) ;
#148 = MECHANICAL_DESIGN_GEOMETRIC_PRESENTATION_REPRESENTATION (  '', ( #135 ), #301 ) ;
#149 = VERTEX_POINT ( 'NONE', #208 ) ;
#150 = CARTESIAN_POINT ( 'NONE',  ( -6.123233995736772199E-17, 3.000000000000000444, 0.000000000000000000 ) ) ;
#151 = PRESENTATION_STYLE_ASSIGNMENT (( #31 ) ) ;
#152 = EDGE_CURVE ( 'NONE', #117, #338, #77, .T. ) ;
#153 = CARTESIAN_POINT ( 'NONE',  ( 0.000000000000000000, 0.1562500000000000000, 0.000000000000000000 ) ) ;
#154 = VERTEX_POINT ( 'NONE', #11 ) ;
#155 = AXIS2_PLACEMENT_3D ( 'NONE', #266, #251, #216 ) ;
#156 = PRESENTATION_STYLE_ASSIGNMENT (( #343 ) ) ;
#157 = ADVANCED_FACE ( 'NONE', ( #129 ), #200, .T. ) ;
#158 = CARTESIAN_POINT ( 'NONE',  ( 0.000000000000000000, 1.000000000000000000, 0.000000000000000000 ) ) ;
#159 = AXIS2_PLACEMENT_3D ( 'NONE', #32, #166, #91 ) ;
#160 = DIRECTION ( 'NONE',  ( 0.000000000000000000, 0.000000000000000000, -1.000000000000000000 ) ) ;
#161 = AXIS2_PLACEMENT_3D ( 'NONE', #332, #49, #110 ) ;
#162 = STYLED_ITEM ( 'NONE', ( #297 ), #330 ) ;
#163 = DIRECTION ( 'NONE',  ( -1.000000000000000000, -1.532272498309680909E-16, 0.000000000000000000 ) ) ;
#164 = FILL_AREA_STYLE_COLOUR ( '', #211 ) ;
#165 = PRESENTATION_LAYER_ASSIGNMENT (  '', '', ( #248 ) ) ;
#166 = DIRECTION ( 'NONE',  ( -1.532272498309680909E-16, 1.000000000000000000, -0.000000000000000000 ) ) ;
#167 = DIRECTION ( 'NONE',  ( -0.000000000000000000, -1.000000000000000000, -0.000000000000000000 ) ) ;
#168 = VERTEX_POINT ( 'NONE', #325 ) ;
#169 = FILL_AREA_STYLE ('',( #164 ) ) ;
#170 = ORIENTED_EDGE ( 'NONE', *, *, #64, .F. ) ;
#171 = DIMENSIONAL_EXPONENTS ( 1.000000000000000000, 0.000000000000000000, 0.000000000000000000, 0.000000000000000000, 0.000000000000000000, 0.000000000000000000, 0.000000000000000000 ) ;
#172 =( NAMED_UNIT ( * ) PLANE_ANGLE_UNIT ( ) SI_UNIT ( $, .RADIAN. ) );
#173 = DIRECTION ( 'NONE',  ( -1.532272498309680909E-16, 1.000000000000000000, -0.000000000000000000 ) ) ;
#174 = ORIENTED_EDGE ( 'NONE', *, *, #37, .T. ) ;
#175 = ADVANCED_FACE ( 'NONE', ( #68 ), #30, .T. ) ;
#176 = SURFACE_SIDE_STYLE ('',( #242 ) ) ;
#177 = APPLICATION_PROTOCOL_DEFINITION ( 'draft international standard', 'automotive_design', 1998, #281 ) ;
#178 = FILL_AREA_STYLE_COLOUR ( '', #268 ) ;
#179 = ORIENTED_EDGE ( 'NONE', *, *, #13, .T. ) ;
#180 = CARTESIAN_POINT ( 'NONE',  ( 0.000000000000000000, 0.000000000000000000, 0.000000000000000000 ) ) ;
#181 = AXIS2_PLACEMENT_3D ( 'NONE', #26, #53, #278 ) ;
#182 =( NAMED_UNIT ( * ) PLANE_ANGLE_UNIT ( ) SI_UNIT ( $, .RADIAN. ) );
#183 = SURFACE_STYLE_FILL_AREA ( #76 ) ;
#184 = LENGTH_MEASURE_WITH_UNIT ( LENGTH_MEASURE( 0.02539999999999999897 ), #8 );
#185 =( GEOMETRIC_REPRESENTATION_CONTEXT ( 3 ) GLOBAL_UNCERTAINTY_ASSIGNED_CONTEXT ( ( #348 ) ) GLOBAL_UNIT_ASSIGNED_CONTEXT ( ( #280, #218, #312 ) ) REPRESENTATION_CONTEXT ( 'NONE', 'WORKASPACE' ) );
#186 = DIRECTION ( 'NONE',  ( -1.532272498309680909E-16, 1.000000000000000000, -0.000000000000000000 ) ) ;
#187 = DIRECTION ( 'NONE',  ( -1.532272498309680909E-16, 1.000000000000000000, 0.000000000000000000 ) ) ;
#188 = LENGTH_MEASURE_WITH_UNIT ( LENGTH_MEASURE( 0.02539999999999999897 ), #322 );
#189 = SURFACE_SIDE_STYLE ('',( #131 ) ) ;
#190 = MANIFOLD_SOLID_BREP ( 'Revolve - Cutting Edge', #100 ) ;
#191 = EDGE_CURVE ( 'NONE', #39, #207, #350, .T. ) ;
#192 =( NAMED_UNIT ( * ) SI_UNIT ( $, .STERADIAN. ) SOLID_ANGLE_UNIT ( ) );
#193 = PRESENTATION_LAYER_ASSIGNMENT (  '', '', ( #199 ) ) ;
#194 = UNCERTAINTY_MEASURE_WITH_UNIT (LENGTH_MEASURE( 1.000000000000000082E-05 ), #224, 'distance_accuracy_value', 'NONE');
#195 = AXIS2_PLACEMENT_3D ( 'NONE', #354, #265, #94 ) ;
#196 = PRESENTATION_STYLE_ASSIGNMENT (( #234 ) ) ;
#197 = LINE ( 'NONE', #61, #346 ) ;
#198 = FILL_AREA_STYLE ('',( #143 ) ) ;
#199 = STYLED_ITEM ( 'NONE', ( #156 ), #190 ) ;
#200 = CYLINDRICAL_SURFACE ( 'NONE', #223, 0.1562499999999998057 ) ;
#201 = AXIS2_PLACEMENT_3D ( 'NONE', #244, #107, #99 ) ;
#202 = ADVANCED_FACE ( 'NONE', ( #317 ), #365, .F. ) ;
#203 = CARTESIAN_POINT ( 'NONE',  ( 0.000000000000000000, 0.1562500000000000000, 0.000000000000000000 ) ) ;
#204 = CARTESIAN_POINT ( 'NONE',  ( 0.000000000000000000, 0.000000000000000000, -0.1562499999999999445 ) ) ;
#205 = ORIENTED_EDGE ( 'NONE', *, *, #326, .F. ) ;
#206 = DIRECTION ( 'NONE',  ( -1.532272498309680909E-16, 1.000000000000000000, -0.000000000000000000 ) ) ;
#207 = VERTEX_POINT ( 'NONE', #81 ) ;
#208 = CARTESIAN_POINT ( 'NONE',  ( -0.1562500000000000000, 3.000000000000000444, 0.000000000000000000 ) ) ;
#209 = DIMENSIONAL_EXPONENTS ( 1.000000000000000000, 0.000000000000000000, 0.000000000000000000, 0.000000000000000000, 0.000000000000000000, 0.000000000000000000, 0.000000000000000000 ) ;
#210 = ORIENTED_EDGE ( 'NONE', *, *, #257, .F. ) ;
#211 = COLOUR_RGB ( '',0.7921568627450980005, 0.8196078431372548767, 0.9333333333333333481 ) ;
#212 = LENGTH_MEASURE_WITH_UNIT ( LENGTH_MEASURE( 0.02539999999999999897 ), #130 );
#213 = SPHERICAL_SURFACE ( 'NONE', #230, 0.1562500000000000000 ) ;
#214 = ORIENTED_EDGE ( 'NONE', *, *, #191, .F. ) ;
#215 =( NAMED_UNIT ( * ) SI_UNIT ( $, .STERADIAN. ) SOLID_ANGLE_UNIT ( ) );
#216 = DIRECTION ( 'NONE',  ( -1.000000000000000000, 0.000000000000000000, 0.000000000000000000 ) ) ;
#217 = EDGE_LOOP ( 'NONE', ( #210, #334, #93, #170 ) ) ;
#218 =( NAMED_UNIT ( * ) PLANE_ANGLE_UNIT ( ) SI_UNIT ( $, .RADIAN. ) );
#219 = CIRCLE ( 'NONE', #161, 0.1562499999999999445 ) ;
#220 = AXIS2_PLACEMENT_3D ( 'NONE', #349, #60, #58 ) ;
#221 = FILL_AREA_STYLE_COLOUR ( '', #315 ) ;
#222 = UNCERTAINTY_MEASURE_WITH_UNIT (LENGTH_MEASURE( 1.000000000000000082E-05 ), #146, 'distance_accuracy_value', 'NONE');
#223 = AXIS2_PLACEMENT_3D ( 'NONE', #150, #333, #295 ) ;
#224 =( CONVERSION_BASED_UNIT ( 'INCH', #25 ) LENGTH_UNIT ( ) NAMED_UNIT ( #273 ) );
#225 = SURFACE_SIDE_STYLE ('',( #105 ) ) ;
#226 = ADVANCED_FACE ( 'NONE', ( #287 ), #311, .F. ) ;
#227 = DIMENSIONAL_EXPONENTS ( 1.000000000000000000, 0.000000000000000000, 0.000000000000000000, 0.000000000000000000, 0.000000000000000000, 0.000000000000000000, 0.000000000000000000 ) ;
#228 = PRESENTATION_STYLE_ASSIGNMENT (( #85 ) ) ;
#229 = UNCERTAINTY_MEASURE_WITH_UNIT (LENGTH_MEASURE( 1.000000000000000082E-05 ), #277, 'distance_accuracy_value', 'NONE');
#230 = AXIS2_PLACEMENT_3D ( 'NONE', #123, #237, #70 ) ;
#231 =( GEOMETRIC_REPRESENTATION_CONTEXT ( 3 ) GLOBAL_UNCERTAINTY_ASSIGNED_CONTEXT ( ( #56 ) ) GLOBAL_UNIT_ASSIGNED_CONTEXT ( ( #87, #172, #3 ) ) REPRESENTATION_CONTEXT ( 'NONE', 'WORKASPACE' ) );
#232 = SURFACE_SIDE_STYLE ('',( #116 ) ) ;
#233 = PRODUCT_DEFINITION ( 'UNKNOWN', '', #142, #321 ) ;
#234 = SURFACE_STYLE_USAGE ( .BOTH. , #289 ) ;
#235 =( CONVERSION_BASED_UNIT ( 'INCH', #264 ) LENGTH_UNIT ( ) NAMED_UNIT ( #171 ) );
#236 = CIRCLE ( 'NONE', #286, 0.1562499999999999722 ) ;
#237 = DIRECTION ( 'NONE',  ( 0.000000000000000000, 0.000000000000000000, 1.000000000000000000 ) ) ;
#238 = VECTOR ( 'NONE', #316, 39.37007874015748143 ) ;
#239 = ORIENTED_EDGE ( 'NONE', *, *, #44, .F. ) ;
#240 =( LENGTH_UNIT ( ) NAMED_UNIT ( * ) SI_UNIT ( $, .METRE. ) );
#241 =( LENGTH_UNIT ( ) NAMED_UNIT ( * ) SI_UNIT ( $, .METRE. ) );
#242 = SURFACE_STYLE_FILL_AREA ( #122 ) ;
#243 = EDGE_CURVE ( 'NONE', #154, #117, #236, .T. ) ;
#244 = CARTESIAN_POINT ( 'NONE',  ( 0.000000000000000000, 0.000000000000000000, 0.000000000000000000 ) ) ;
#245 = DIRECTION ( 'NONE',  ( 0.000000000000000000, -0.000000000000000000, 1.000000000000000000 ) ) ;
#246 = ORIENTED_EDGE ( 'NONE', *, *, #152, .T. ) ;
#247 = DIRECTION ( 'NONE',  ( 0.000000000000000000, 0.000000000000000000, -1.000000000000000000 ) ) ;
#248 = STYLED_ITEM ( 'NONE', ( #196 ), #52 ) ;
#249 = EDGE_LOOP ( 'NONE', ( #214, #7 ) ) ;
#250 =( NAMED_UNIT ( * ) PLANE_ANGLE_UNIT ( ) SI_UNIT ( $, .RADIAN. ) );
#251 = DIRECTION ( 'NONE',  ( -1.532272498309680909E-16, 1.000000000000000000, -0.000000000000000000 ) ) ;
#252 = EDGE_LOOP ( 'NONE', ( #239, #307 ) ) ;
#253 = PRODUCT_CONTEXT ( 'NONE', #19, 'mechanical' ) ;
#254 = DIRECTION ( 'NONE',  ( -0.000000000000000000, -1.000000000000000000, -0.000000000000000000 ) ) ;
#255 = STYLED_ITEM ( 'NONE', ( #151 ), #18 ) ;
#256 = STYLED_ITEM ( 'NONE', ( #114 ), #263 ) ;
#257 = EDGE_CURVE ( 'NONE', #12, #65, #16, .T. ) ;
#258 = FACE_OUTER_BOUND ( 'NONE', #103, .T. ) ;
#259 = DIMENSIONAL_EXPONENTS ( 1.000000000000000000, 0.000000000000000000, 0.000000000000000000, 0.000000000000000000, 0.000000000000000000, 0.000000000000000000, 0.000000000000000000 ) ;
#260 = SURFACE_STYLE_FILL_AREA ( #169 ) ;
#261 = CIRCLE ( 'NONE', #282, 0.1562500000000000000 ) ;
#262 = CIRCLE ( 'NONE', #303, 0.1562499999999999722 ) ;
#263 = ADVANCED_FACE ( 'NONE', ( #258 ), #113, .T. ) ;
#264 = LENGTH_MEASURE_WITH_UNIT ( LENGTH_MEASURE( 0.02539999999999999897 ), #323 );
#265 = DIRECTION ( 'NONE',  ( 0.000000000000000000, 0.000000000000000000, -1.000000000000000000 ) ) ;
#266 = CARTESIAN_POINT ( 'NONE',  ( -6.123233995736772199E-17, 3.000000000000000444, 0.000000000000000000 ) ) ;
#267 = ORIENTED_EDGE ( 'NONE', *, *, #257, .T. ) ;
#268 = COLOUR_RGB ( '',1.000000000000000000, 0.000000000000000000, 0.000000000000000000 ) ;
#269 = EDGE_CURVE ( 'NONE', #12, #168, #101, .T. ) ;
#270 =( NAMED_UNIT ( * ) SI_UNIT ( $, .STERADIAN. ) SOLID_ANGLE_UNIT ( ) );
#271 = FILL_AREA_STYLE_COLOUR ( '', #45 ) ;
#272 = ORIENTED_EDGE ( 'NONE', *, *, #243, .T. ) ;
#273 = DIMENSIONAL_EXPONENTS ( 1.000000000000000000, 0.000000000000000000, 0.000000000000000000, 0.000000000000000000, 0.000000000000000000, 0.000000000000000000, 0.000000000000000000 ) ;
#274 = PRESENTATION_LAYER_ASSIGNMENT (  '', '', ( #135 ) ) ;
#275 = ORIENTED_EDGE ( 'NONE', *, *, #191, .T. ) ;
#276 =( CONVERSION_BASED_UNIT ( 'INCH', #80 ) LENGTH_UNIT ( ) NAMED_UNIT ( #259 ) );
#277 =( CONVERSION_BASED_UNIT ( 'INCH', #212 ) LENGTH_UNIT ( ) NAMED_UNIT ( #28 ) );
#278 = DIRECTION ( 'NONE',  ( 1.000000000000000000, 1.532272498309680909E-16, 0.000000000000000000 ) ) ;
#279 = UNCERTAINTY_MEASURE_WITH_UNIT (LENGTH_MEASURE( 1.000000000000000082E-05 ), #318, 'distance_accuracy_value', 'NONE');
#280 =( CONVERSION_BASED_UNIT ( 'INCH', #184 ) LENGTH_UNIT ( ) NAMED_UNIT ( #227 ) );
#281 = APPLICATION_CONTEXT ( 'automotive_design' ) ;
#282 = AXIS2_PLACEMENT_3D ( 'NONE', #106, #304, #72 ) ;
#283 = AXIS2_PLACEMENT_3D ( 'NONE', #180, #305, #132 ) ;
#284 = CARTESIAN_POINT ( 'NONE',  ( 0.000000000000000000, 1.000000000000000000, -0.1562499999999998612 ) ) ;
#285 = FILL_AREA_STYLE ('',( #22 ) ) ;
#286 = AXIS2_PLACEMENT_3D ( 'NONE', #367, #139, #75 ) ;
#287 = FACE_OUTER_BOUND ( 'NONE', #252, .T. ) ;
#288 = COLOUR_RGB ( '',1.000000000000000000, 0.000000000000000000, 0.000000000000000000 ) ;
#289 = SURFACE_SIDE_STYLE ('',( #183 ) ) ;
#290 = FILL_AREA_STYLE ('',( #368 ) ) ;
#291 = DIRECTION ( 'NONE',  ( -0.000000000000000000, -1.000000000000000000, -0.000000000000000000 ) ) ;
#292 = DIMENSIONAL_EXPONENTS ( 1.000000000000000000, 0.000000000000000000, 0.000000000000000000, 0.000000000000000000, 0.000000000000000000, 0.000000000000000000, 0.000000000000000000 ) ;
#293 = DIRECTION ( 'NONE',  ( 0.000000000000000000, 0.000000000000000000, -1.000000000000000000 ) ) ;
#294 = AXIS2_PLACEMENT_3D ( 'NONE', #153, #167, #247 ) ;
#295 = DIRECTION ( 'NONE',  ( -1.000000000000000000, 0.000000000000000000, 0.000000000000000000 ) ) ;
#296 = ORIENTED_EDGE ( 'NONE', *, *, #73, .F. ) ;
#297 = PRESENTATION_STYLE_ASSIGNMENT (( #144 ) ) ;
#298 = CARTESIAN_POINT ( 'NONE',  ( -6.123233995736772199E-17, 3.000000000000000444, 0.000000000000000000 ) ) ;
#299 = ORIENTED_EDGE ( 'NONE', *, *, #308, .T. ) ;
#300 = CARTESIAN_POINT ( 'NONE',  ( 0.000000000000000000, 0.1562500000000000000, 0.000000000000000000 ) ) ;
#301 =( GEOMETRIC_REPRESENTATION_CONTEXT ( 3 ) GLOBAL_UNCERTAINTY_ASSIGNED_CONTEXT ( ( #222 ) ) GLOBAL_UNIT_ASSIGNED_CONTEXT ( ( #146, #88, #270 ) ) REPRESENTATION_CONTEXT ( 'NONE', 'WORKASPACE' ) );
#302 = LINE ( 'NONE', #204, #9 ) ;
#303 = AXIS2_PLACEMENT_3D ( 'NONE', #300, #27, #373 ) ;
#304 = DIRECTION ( 'NONE',  ( 1.224646799147353207E-16, -0.000000000000000000, 1.000000000000000000 ) ) ;
#305 = DIRECTION ( 'NONE',  ( 0.000000000000000000, 0.000000000000000000, 1.000000000000000000 ) ) ;
#306 = VERTEX_POINT ( 'NONE', #345 ) ;
#307 = ORIENTED_EDGE ( 'NONE', *, *, #269, .F. ) ;
#308 = EDGE_CURVE ( 'NONE', #338, #306, #372, .T. ) ;
#309 = CARTESIAN_POINT ( 'NONE',  ( 2.452221597045684598E-16, 1.000000000000000000, 0.000000000000000000 ) ) ;
#310 = PRESENTATION_LAYER_ASSIGNMENT (  '', '', ( #162 ) ) ;
#311 = PLANE ( 'NONE',  #23 ) ;
#312 =( NAMED_UNIT ( * ) SI_UNIT ( $, .STERADIAN. ) SOLID_ANGLE_UNIT ( ) );
#313 = EDGE_CURVE ( 'NONE', #207, #338, #197, .T. ) ;
#314 = AXIS2_PLACEMENT_3D ( 'NONE', #136, #186, #51 ) ;
#315 = COLOUR_RGB ( '',1.000000000000000000, 0.000000000000000000, 0.000000000000000000 ) ;
#316 = DIRECTION ( 'NONE',  ( -1.532272498309680909E-16, 1.000000000000000000, -0.000000000000000000 ) ) ;
#317 = FACE_OUTER_BOUND ( 'NONE', #34, .T. ) ;
#318 =( CONVERSION_BASED_UNIT ( 'INCH', #188 ) LENGTH_UNIT ( ) NAMED_UNIT ( #292 ) );
#319 = VECTOR ( 'NONE', #173, 39.37007874015748143 ) ;
#320 =( NAMED_UNIT ( * ) PLANE_ANGLE_UNIT ( ) SI_UNIT ( $, .RADIAN. ) );
#321 = PRODUCT_DEFINITION_CONTEXT ( 'detailed design', #281, 'design' ) ;
#322 =( LENGTH_UNIT ( ) NAMED_UNIT ( * ) SI_UNIT ( $, .METRE. ) );
#323 =( LENGTH_UNIT ( ) NAMED_UNIT ( * ) SI_UNIT ( $, .METRE. ) );
#324 = COLOUR_RGB ( '',0.7921568627450980005, 0.8196078431372548767, 0.9333333333333333481 ) ;
#325 = CARTESIAN_POINT ( 'NONE',  ( -0.1562499999999993894, 1.000000000000000000, 0.000000000000000000 ) ) ;
#326 = EDGE_CURVE ( 'NONE', #306, #154, #262, .T. ) ;
#327 = DIRECTION ( 'NONE',  ( -0.000000000000000000, -1.000000000000000000, -0.000000000000000000 ) ) ;
#328 = PRESENTATION_STYLE_ASSIGNMENT (( #62 ) ) ;
#329 = CARTESIAN_POINT ( 'NONE',  ( 0.1562499999999998612, 1.000000000000000000, 1.913510623667737923E-17 ) ) ;
#330 = MANIFOLD_SOLID_BREP ( 'Revolve - Tool Body (Straight Shanked)', #128 ) ;
#331 = SURFACE_SIDE_STYLE ('',( #125 ) ) ;
#332 = CARTESIAN_POINT ( 'NONE',  ( -6.123233995736772199E-17, 3.000000000000000444, 0.000000000000000000 ) ) ;
#333 = DIRECTION ( 'NONE',  ( -1.532272498309680909E-16, 1.000000000000000000, -0.000000000000000000 ) ) ;
#334 = ORIENTED_EDGE ( 'NONE', *, *, #269, .T. ) ;
#335 = EDGE_CURVE ( 'NONE', #117, #57, #36, .T. ) ;
#336 =( NAMED_UNIT ( * ) SI_UNIT ( $, .STERADIAN. ) SOLID_ANGLE_UNIT ( ) );
#337 = ORIENTED_EDGE ( 'NONE', *, *, #335, .F. ) ;
#338 = VERTEX_POINT ( 'NONE', #369 ) ;
#339 = CIRCLE ( 'NONE', #370, 0.1562499999999998612 ) ;
#340 = ADVANCED_BREP_SHAPE_REPRESENTATION ( '82459', ( #190, #330, #283 ), #109 ) ;
#341 = SPHERICAL_SURFACE ( 'NONE', #74, 0.1562500000000000000 ) ;
#342 = ADVANCED_FACE ( 'NONE', ( #115 ), #347, .T. ) ;
#343 = SURFACE_STYLE_USAGE ( .BOTH. , #189 ) ;
#344 = AXIS2_PLACEMENT_3D ( 'NONE', #95, #42, #245 ) ;
#345 = CARTESIAN_POINT ( 'NONE',  ( -0.1562500000000000000, 0.1562500000000000000, 1.913510623667738847E-17 ) ) ;
#346 = VECTOR ( 'NONE', #291, 39.37007874015748143 ) ;
#347 = CYLINDRICAL_SURFACE ( 'NONE', #201, 0.1562499999999999445 ) ;
#348 = UNCERTAINTY_MEASURE_WITH_UNIT (LENGTH_MEASURE( 1.000000000000000082E-05 ), #280, 'distance_accuracy_value', 'NONE');
#349 = CARTESIAN_POINT ( 'NONE',  ( 0.000000000000000000, 0.000000000000000000, 0.000000000000000000 ) ) ;
#350 = CIRCLE ( 'NONE', #17, 0.1562499999999998612 ) ;
#351 = PRESENTATION_LAYER_ASSIGNMENT (  '', '', ( #50 ) ) ;
#352 = FACE_OUTER_BOUND ( 'NONE', #249, .T. ) ;
#353 = ORIENTED_EDGE ( 'NONE', *, *, #313, .T. ) ;
#354 = CARTESIAN_POINT ( 'NONE',  ( -1.913510623667738847E-17, 0.1562499999999999722, 0.000000000000000000 ) ) ;
#355 = ORIENTED_EDGE ( 'NONE', *, *, #13, .F. ) ;
#356 = CARTESIAN_POINT ( 'NONE',  ( 0.1562499999999999722, 0.1562500000000000000, 0.000000000000000000 ) ) ;
#357 = EDGE_LOOP ( 'NONE', ( #299, #179, #337, #246 ) ) ;
#358 = MECHANICAL_DESIGN_GEOMETRIC_PRESENTATION_REPRESENTATION (  '', ( #256 ), #83 ) ;
#359 = ORIENTED_EDGE ( 'NONE', *, *, #313, .F. ) ;
#360 =( NAMED_UNIT ( * ) SI_UNIT ( $, .STERADIAN. ) SOLID_ANGLE_UNIT ( ) );
#361 = ORIENTED_EDGE ( 'NONE', *, *, #308, .F. ) ;
#362 = DIRECTION ( 'NONE',  ( -0.000000000000000000, -1.000000000000000000, -0.000000000000000000 ) ) ;
#363 = FACE_OUTER_BOUND ( 'NONE', #357, .T. ) ;
#364 = PRODUCT_DEFINITION_SHAPE ( 'NONE', 'NONE',  #233 ) ;
#365 = PLANE ( 'NONE',  #181 ) ;
#366 = DIMENSIONAL_EXPONENTS ( 1.000000000000000000, 0.000000000000000000, 0.000000000000000000, 0.000000000000000000, 0.000000000000000000, 0.000000000000000000, 0.000000000000000000 ) ;
#367 = CARTESIAN_POINT ( 'NONE',  ( 0.000000000000000000, 0.1562500000000000000, 0.000000000000000000 ) ) ;
#368 = FILL_AREA_STYLE_COLOUR ( '', #288 ) ;
#369 = CARTESIAN_POINT ( 'NONE',  ( 1.913510623667738847E-17, 0.1562500000000000000, 0.1562499999999999722 ) ) ;
#370 = AXIS2_PLACEMENT_3D ( 'NONE', #158, #254, #160 ) ;
#371 =( NAMED_UNIT ( * ) SI_UNIT ( $, .STERADIAN. ) SOLID_ANGLE_UNIT ( ) );
#372 = CIRCLE ( 'NONE', #90, 0.1562499999999999722 ) ;
#373 = DIRECTION ( 'NONE',  ( 0.000000000000000000, 0.000000000000000000, -1.000000000000000000 ) ) ;
ENDSEC;
END-ISO-10303-21;
