ISO-10303-21;
HEADER;
FILE_DESCRIPTION (( 'STEP AP214' ),
    '1' );
FILE_NAME ('Micro_DMM-050-2120X.STEP',
    '2021-09-02T16:19:57',
    ( '' ),
    ( '' ),
    'SwSTEP 2.0',
    'SolidWorks 2020',
    '' );
FILE_SCHEMA (( 'AUTOMOTIVE_DESIGN' ));
ENDSEC;

DATA;
#1 = ORIENTED_EDGE ( 'NONE', *, *, #158, .T. ) ;
#2 = DIRECTION ( 'NONE',  ( -0.0000000000000000000, -0.0000000000000000000, -1.000000000000000000 ) ) ;
#3 = FACE_OUTER_BOUND ( 'NONE', #278, .T. ) ;
#4 = ORIENTED_EDGE ( 'NONE', *, *, #234, .F. ) ;
#5 =( NAMED_UNIT ( * ) SI_UNIT ( $, .STERADIAN. ) SOLID_ANGLE_UNIT ( ) );
#6 = ADVANCED_FACE ( 'NONE', ( #146 ), #327, .T. ) ;
#7 = DIRECTION ( 'NONE',  ( -1.000000000000000000, 0.0000000000000000000, 0.0000000000000000000 ) ) ;
#8 = VECTOR ( 'NONE', #32, 39.37007874015748143 ) ;
#9 = DIRECTION ( 'NONE',  ( -1.000000000000000000, 0.0000000000000000000, 0.0000000000000000000 ) ) ;
#10 = EDGE_CURVE ( 'NONE', #48, #22, #328, .T. ) ;
#11 = CARTESIAN_POINT ( 'NONE',  ( 0.0000000000000000000, 0.0000000000000000000, 1.707404996040164512E-17 ) ) ;
#12 = ORIENTED_EDGE ( 'NONE', *, *, #191, .F. ) ;
#13 = SURFACE_STYLE_USAGE ( .BOTH. , #287 ) ;
#14 = AXIS2_PLACEMENT_3D ( 'NONE', #217, #42, #139 ) ;
#15 = EDGE_LOOP ( 'NONE', ( #86, #53 ) ) ;
#16 = DIMENSIONAL_EXPONENTS ( 1.000000000000000000, 0.0000000000000000000, 0.0000000000000000000, 0.0000000000000000000, 0.0000000000000000000, 0.0000000000000000000, 0.0000000000000000000 ) ;
#17 = ORIENTED_EDGE ( 'NONE', *, *, #24, .F. ) ;
#18 = AXIS2_PLACEMENT_3D ( 'NONE', #11, #73, #162 ) ;
#19 =( NAMED_UNIT ( * ) SI_UNIT ( $, .STERADIAN. ) SOLID_ANGLE_UNIT ( ) );
#20 = DIRECTION ( 'NONE',  ( -0.7071067811865358044, 0.0000000000000000000, -0.7071067811865590080 ) ) ;
#21 = ADVANCED_FACE ( 'NONE', ( #126 ), #240, .T. ) ;
#22 = VERTEX_POINT ( 'NONE', #105 ) ;
#23 = ORIENTED_EDGE ( 'NONE', *, *, #10, .F. ) ;
#24 = EDGE_CURVE ( 'NONE', #175, #125, #256, .T. ) ;
#25 = UNCERTAINTY_MEASURE_WITH_UNIT (LENGTH_MEASURE( 1.000000000000000082E-05 ), #119, 'distance_accuracy_value', 'NONE');
#26 = FILL_AREA_STYLE_COLOUR ( '', #173 ) ;
#27 = VECTOR ( 'NONE', #30, 39.37007874015748143 ) ;
#28 = VERTEX_POINT ( 'NONE', #199 ) ;
#29 = AXIS2_PLACEMENT_3D ( 'NONE', #185, #135, #31 ) ;
#30 = DIRECTION ( 'NONE',  ( -0.0000000000000000000, -0.0000000000000000000, -1.000000000000000000 ) ) ;
#31 = DIRECTION ( 'NONE',  ( 1.000000000000000000, 0.0000000000000000000, 0.0000000000000000000 ) ) ;
#32 = DIRECTION ( 'NONE',  ( -0.8660254037844400399, 1.060575238724908640E-16, 0.4999999999999976685 ) ) ;
#33 = DIRECTION ( 'NONE',  ( -1.000000000000000000, 0.0000000000000000000, 0.0000000000000000000 ) ) ;
#34 = DIRECTION ( 'NONE',  ( -0.0000000000000000000, -0.0000000000000000000, -1.000000000000000000 ) ) ;
#35 = ORIENTED_EDGE ( 'NONE', *, *, #142, .T. ) ;
#36 = ADVANCED_BREP_SHAPE_REPRESENTATION ( 'Micro_DMM-050-2120X', ( #128, #47 ), #297 ) ;
#37 = CARTESIAN_POINT ( 'NONE',  ( 0.09837500000000004574, 0.0000000000000000000, 0.5118110000000000159 ) ) ;
#38 = LENGTH_MEASURE_WITH_UNIT ( LENGTH_MEASURE( 0.02539999999999999897 ), #212 );
#39 = AXIS2_PLACEMENT_3D ( 'NONE', #258, #56, #254 ) ;
#40 = PRODUCT_DEFINITION_FORMATION_WITH_SPECIFIED_SOURCE ( 'ANY', '', #165, .NOT_KNOWN. ) ;
#41 =( LENGTH_UNIT ( ) NAMED_UNIT ( * ) SI_UNIT ( $, .METRE. ) );
#42 = DIRECTION ( 'NONE',  ( -0.0000000000000000000, -0.0000000000000000000, -1.000000000000000000 ) ) ;
#43 =( NAMED_UNIT ( * ) PLANE_ANGLE_UNIT ( ) SI_UNIT ( $, .RADIAN. ) );
#44 = ORIENTED_EDGE ( 'NONE', *, *, #82, .F. ) ;
#45 = FACE_BOUND ( 'NONE', #325, .T. ) ;
#46 = ORIENTED_EDGE ( 'NONE', *, *, #207, .T. ) ;
#47 = AXIS2_PLACEMENT_3D ( 'NONE', #163, #170, #103 ) ;
#48 = VERTEX_POINT ( 'NONE', #180 ) ;
#49 = ADVANCED_FACE ( 'NONE', ( #90 ), #124, .T. ) ;
#50 = ORIENTED_EDGE ( 'NONE', *, *, #315, .T. ) ;
#51 = ORIENTED_EDGE ( 'NONE', *, *, #234, .T. ) ;
#52 = CIRCLE ( 'NONE', #228, 0.007499999999999999722 ) ;
#53 = ORIENTED_EDGE ( 'NONE', *, *, #203, .T. ) ;
#54 = UNCERTAINTY_MEASURE_WITH_UNIT (LENGTH_MEASURE( 1.000000000000000082E-05 ), #71, 'distance_accuracy_value', 'NONE');
#55 = FACE_OUTER_BOUND ( 'NONE', #242, .T. ) ;
#56 = DIRECTION ( 'NONE',  ( 0.0000000000000000000, 0.0000000000000000000, -1.000000000000000000 ) ) ;
#57 = DIRECTION ( 'NONE',  ( 0.0000000000000000000, 0.0000000000000000000, 1.000000000000000000 ) ) ;
#58 = CLOSED_SHELL ( 'NONE', ( #49, #138, #218, #147, #114, #6, #177, #171, #21, #200, #323 ) ) ;
#59 = CARTESIAN_POINT ( 'NONE',  ( 0.0000000000000000000, 0.0000000000000000000, 0.5118110000000000159 ) ) ;
#60 = AXIS2_PLACEMENT_3D ( 'NONE', #275, #235, #290 ) ;
#61 = DIRECTION ( 'NONE',  ( -1.000000000000000000, 0.0000000000000000000, 0.0000000000000000000 ) ) ;
#62 = DIRECTION ( 'NONE',  ( 0.0000000000000000000, 0.0000000000000000000, -1.000000000000000000 ) ) ;
#63 = DIRECTION ( 'NONE',  ( -1.000000000000000000, 0.0000000000000000000, 0.0000000000000000000 ) ) ;
#64 = CARTESIAN_POINT ( 'NONE',  ( 0.0000000000000000000, 0.0000000000000000000, 0.05246670571260693416 ) ) ;
#65 = CARTESIAN_POINT ( 'NONE',  ( -0.1181100000000000066, 0.0000000000000000000, 0.5118110000000001270 ) ) ;
#66 = EDGE_CURVE ( 'NONE', #273, #22, #75, .T. ) ;
#67 = DIRECTION ( 'NONE',  ( -0.0000000000000000000, -0.0000000000000000000, -1.000000000000000000 ) ) ;
#68 = DIRECTION ( 'NONE',  ( -1.000000000000000000, 0.0000000000000000000, 0.0000000000000000000 ) ) ;
#69 = CONICAL_SURFACE ( 'NONE', #279, 0.1031100000000002570, 0.7853981633974318477 ) ;
#70 = APPLICATION_CONTEXT ( 'automotive_design' ) ;
#71 =( CONVERSION_BASED_UNIT ( 'INCH', #215 ) LENGTH_UNIT ( ) NAMED_UNIT ( #326 ) );
#72 = ORIENTED_EDGE ( 'NONE', *, *, #158, .F. ) ;
#73 = DIRECTION ( 'NONE',  ( -0.0000000000000000000, -0.0000000000000000000, -1.000000000000000000 ) ) ;
#74 =( CONVERSION_BASED_UNIT ( 'INCH', #209 ) LENGTH_UNIT ( ) NAMED_UNIT ( #321 ) );
#75 = CIRCLE ( 'NONE', #39, 0.1181100000000000066 ) ;
#76 = AXIS2_PLACEMENT_3D ( 'NONE', #59, #286, #68 ) ;
#77 = EDGE_LOOP ( 'NONE', ( #35, #219, #169, #17 ) ) ;
#78 = UNCERTAINTY_MEASURE_WITH_UNIT (LENGTH_MEASURE( 1.000000000000000082E-05 ), #74, 'distance_accuracy_value', 'NONE');
#79 =( NAMED_UNIT ( * ) PLANE_ANGLE_UNIT ( ) SI_UNIT ( $, .RADIAN. ) );
#80 = SURFACE_STYLE_FILL_AREA ( #152 ) ;
#81 = CARTESIAN_POINT ( 'NONE',  ( -0.09837500000000001799, 1.204746288661208977E-17, 0.05246670571260693416 ) ) ;
#82 = EDGE_CURVE ( 'NONE', #48, #121, #101, .T. ) ;
#83 = CIRCLE ( 'NONE', #216, 0.09837500000000004574 ) ;
#84 = AXIS2_PLACEMENT_3D ( 'NONE', #230, #232, #140 ) ;
#85 = EDGE_CURVE ( 'NONE', #22, #224, #308, .T. ) ;
#86 = ORIENTED_EDGE ( 'NONE', *, *, #167, .T. ) ;
#87 = APPLICATION_CONTEXT ( 'automotive_design' ) ;
#88 = EDGE_LOOP ( 'NONE', ( #12, #322, #196, #72 ) ) ;
#89 = DIRECTION ( 'NONE',  ( -0.0000000000000000000, -0.0000000000000000000, -1.000000000000000000 ) ) ;
#90 = FACE_OUTER_BOUND ( 'NONE', #77, .T. ) ;
#91 = CARTESIAN_POINT ( 'NONE',  ( 0.0000000000000000000, 0.0000000000000000000, 0.0000000000000000000 ) ) ;
#92 = VECTOR ( 'NONE', #288, 39.37007874015748143 ) ;
#93 = FACE_OUTER_BOUND ( 'NONE', #88, .T. ) ;
#94 = SURFACE_STYLE_USAGE ( .BOTH. , #95 ) ;
#95 = SURFACE_SIDE_STYLE ('',( #208 ) ) ;
#96 = CIRCLE ( 'NONE', #271, 0.09837500000000001799 ) ;
#97 = ORIENTED_EDGE ( 'NONE', *, *, #301, .T. ) ;
#98 = DIRECTION ( 'NONE',  ( -1.000000000000000000, 0.0000000000000000000, 0.0000000000000000000 ) ) ;
#99 = ORIENTED_EDGE ( 'NONE', *, *, #142, .F. ) ;
#100 = EDGE_LOOP ( 'NONE', ( #266, #223, #51, #1 ) ) ;
#101 = CIRCLE ( 'NONE', #302, 0.1031100000000002570 ) ;
#102 = COLOUR_RGB ( '',0.7921568627450980005, 0.8196078431372548767, 0.9333333333333333481 ) ;
#103 = DIRECTION ( 'NONE',  ( 1.000000000000000000, 0.0000000000000000000, 0.0000000000000000000 ) ) ;
#104 = EDGE_LOOP ( 'NONE', ( #244, #149, #226, #23 ) ) ;
#105 = CARTESIAN_POINT ( 'NONE',  ( -0.1181100000000000066, 0.0000000000000000000, 2.229093999999999465 ) ) ;
#106 = STYLED_ITEM ( 'NONE', ( #295 ), #128 ) ;
#107 = VECTOR ( 'NONE', #113, 39.37007874015748143 ) ;
#108 = DIRECTION ( 'NONE',  ( 0.0000000000000000000, 0.0000000000000000000, 1.000000000000000000 ) ) ;
#109 = EDGE_CURVE ( 'NONE', #220, #125, #247, .T. ) ;
#110 = CARTESIAN_POINT ( 'NONE',  ( -0.007499999999999999722, 9.184850993605147975E-19, 1.707404996040164512E-17 ) ) ;
#111 = CARTESIAN_POINT ( 'NONE',  ( 0.0000000000000000000, 0.0000000000000000000, 1.707404996040164512E-17 ) ) ;
#112 = CARTESIAN_POINT ( 'NONE',  ( 0.0000000000000000000, 0.0000000000000000000, 0.5118110000000000159 ) ) ;
#113 = DIRECTION ( 'NONE',  ( -0.0000000000000000000, -0.0000000000000000000, -1.000000000000000000 ) ) ;
#114 = ADVANCED_FACE ( 'NONE', ( #55 ), #148, .T. ) ;
#115 = CARTESIAN_POINT ( 'NONE',  ( -0.09837500000000004574, 0.0000000000000000000, 0.5118110000000000159 ) ) ;
#116 = CARTESIAN_POINT ( 'NONE',  ( 0.0000000000000000000, 0.0000000000000000000, 2.229093999999999465 ) ) ;
#117 =( NAMED_UNIT ( * ) PLANE_ANGLE_UNIT ( ) SI_UNIT ( $, .RADIAN. ) );
#118 = LINE ( 'NONE', #190, #243 ) ;
#119 =( CONVERSION_BASED_UNIT ( 'INCH', #38 ) LENGTH_UNIT ( ) NAMED_UNIT ( #16 ) );
#120 = ORIENTED_EDGE ( 'NONE', *, *, #85, .T. ) ;
#121 = VERTEX_POINT ( 'NONE', #231 ) ;
#122 = EDGE_CURVE ( 'NONE', #273, #164, #298, .T. ) ;
#123 = AXIS2_PLACEMENT_3D ( 'NONE', #284, #67, #157 ) ;
#124 = CYLINDRICAL_SURFACE ( 'NONE', #317, 0.09837500000000003186 ) ;
#125 = VERTEX_POINT ( 'NONE', #81 ) ;
#126 = FACE_OUTER_BOUND ( 'NONE', #100, .T. ) ;
#127 = AXIS2_PLACEMENT_3D ( 'NONE', #129, #108, #151 ) ;
#128 = MANIFOLD_SOLID_BREP ( 'Cut-Revolve4', #58 ) ;
#129 = CARTESIAN_POINT ( 'NONE',  ( 0.0000000000000000000, 0.0000000000000000000, 2.244094000000000033 ) ) ;
#130 = DIRECTION ( 'NONE',  ( -1.000000000000000000, 0.0000000000000000000, 0.0000000000000000000 ) ) ;
#131 = DIRECTION ( 'NONE',  ( -1.000000000000000000, 0.0000000000000000000, 0.0000000000000000000 ) ) ;
#132 = DIRECTION ( 'NONE',  ( -0.0000000000000000000, -0.0000000000000000000, -1.000000000000000000 ) ) ;
#133 = FACE_OUTER_BOUND ( 'NONE', #15, .T. ) ;
#134 = PLANE ( 'NONE',  #201 ) ;
#135 = DIRECTION ( 'NONE',  ( 0.0000000000000000000, 0.0000000000000000000, 1.000000000000000000 ) ) ;
#136 = STYLED_ITEM ( 'NONE', ( #292 ), #36 ) ;
#137 = CYLINDRICAL_SURFACE ( 'NONE', #14, 0.1181100000000000066 ) ;
#138 = ADVANCED_FACE ( 'NONE', ( #159 ), #198, .T. ) ;
#139 = DIRECTION ( 'NONE',  ( -1.000000000000000000, 0.0000000000000000000, 0.0000000000000000000 ) ) ;
#140 = DIRECTION ( 'NONE',  ( 1.000000000000000000, 0.0000000000000000000, -0.0000000000000000000 ) ) ;
#141 = ORIENTED_EDGE ( 'NONE', *, *, #122, .T. ) ;
#142 = EDGE_CURVE ( 'NONE', #175, #227, #83, .T. ) ;
#143 = ORIENTED_EDGE ( 'NONE', *, *, #309, .T. ) ;
#144 = CIRCLE ( 'NONE', #281, 0.1181100000000000066 ) ;
#145 = PRODUCT_CONTEXT ( 'NONE', #70, 'mechanical' ) ;
#146 = FACE_OUTER_BOUND ( 'NONE', #312, .T. ) ;
#147 = ADVANCED_FACE ( 'NONE', ( #264 ), #137, .T. ) ;
#148 = CYLINDRICAL_SURFACE ( 'NONE', #194, 0.1181100000000000066 ) ;
#149 = ORIENTED_EDGE ( 'NONE', *, *, #150, .T. ) ;
#150 = EDGE_CURVE ( 'NONE', #121, #273, #118, .T. ) ;
#151 = DIRECTION ( 'NONE',  ( 1.000000000000000000, 0.0000000000000000000, -0.0000000000000000000 ) ) ;
#152 = FILL_AREA_STYLE ('',( #26 ) ) ;
#153 = DIRECTION ( 'NONE',  ( -0.0000000000000000000, -0.0000000000000000000, -1.000000000000000000 ) ) ;
#154 = CIRCLE ( 'NONE', #222, 0.1181100000000000066 ) ;
#155 = DIRECTION ( 'NONE',  ( 1.000000000000000000, 0.0000000000000000000, 0.0000000000000000000 ) ) ;
#156 = CARTESIAN_POINT ( 'NONE',  ( 0.007499999999999999722, 0.0000000000000000000, 1.707404996040164512E-17 ) ) ;
#157 = DIRECTION ( 'NONE',  ( -1.000000000000000000, 0.0000000000000000000, 0.0000000000000000000 ) ) ;
#158 = EDGE_CURVE ( 'NONE', #28, #125, #262, .T. ) ;
#159 = FACE_OUTER_BOUND ( 'NONE', #252, .T. ) ;
#160 = PRODUCT_DEFINITION ( 'UNKNOWN', '', #40, #236 ) ;
#161 = DIRECTION ( 'NONE',  ( 0.0000000000000000000, 0.0000000000000000000, -1.000000000000000000 ) ) ;
#162 = DIRECTION ( 'NONE',  ( -1.000000000000000000, 0.0000000000000000000, 0.0000000000000000000 ) ) ;
#163 = CARTESIAN_POINT ( 'NONE',  ( 0.0000000000000000000, 0.0000000000000000000, 0.0000000000000000000 ) ) ;
#164 = VERTEX_POINT ( 'NONE', #293 ) ;
#165 = PRODUCT ( 'Micro_DMM-050-2120X', 'Micro_DMM-050-2120X', '', ( #145 ) ) ;
#166 = AXIS2_PLACEMENT_3D ( 'NONE', #265, #34, #63 ) ;
#167 = EDGE_CURVE ( 'NONE', #179, #220, #310, .T. ) ;
#168 = SHAPE_DEFINITION_REPRESENTATION ( #289, #36 ) ;
#169 = ORIENTED_EDGE ( 'NONE', *, *, #207, .F. ) ;
#170 = DIRECTION ( 'NONE',  ( 0.0000000000000000000, 0.0000000000000000000, 1.000000000000000000 ) ) ;
#171 = ADVANCED_FACE ( 'NONE', ( #45, #260 ), #134, .T. ) ;
#172 = CARTESIAN_POINT ( 'NONE',  ( 0.0000000000000000000, 0.0000000000000000000, 2.244094000000000033 ) ) ;
#173 = COLOUR_RGB ( '',0.7921568627450980005, 0.8196078431372548767, 0.9333333333333333481 ) ;
#174 = ORIENTED_EDGE ( 'NONE', *, *, #203, .F. ) ;
#175 = VERTEX_POINT ( 'NONE', #115 ) ;
#176 = EDGE_LOOP ( 'NONE', ( #97, #141, #270, #238 ) ) ;
#177 = ADVANCED_FACE ( 'NONE', ( #3 ), #69, .T. ) ;
#178 = CARTESIAN_POINT ( 'NONE',  ( 0.0000000000000000000, 0.0000000000000000000, 0.0000000000000000000 ) ) ;
#179 = VERTEX_POINT ( 'NONE', #156 ) ;
#180 = CARTESIAN_POINT ( 'NONE',  ( -0.1031100000000002570, 0.0000000000000000000, 2.244094000000000033 ) ) ;
#181 = DIRECTION ( 'NONE',  ( 0.0000000000000000000, 0.0000000000000000000, -1.000000000000000000 ) ) ;
#182 = DIRECTION ( 'NONE',  ( -0.0000000000000000000, -0.0000000000000000000, -1.000000000000000000 ) ) ;
#183 = DIRECTION ( 'NONE',  ( -1.000000000000000000, 0.0000000000000000000, 0.0000000000000000000 ) ) ;
#184 = PRESENTATION_LAYER_ASSIGNMENT (  '', '', ( #136 ) ) ;
#185 = CARTESIAN_POINT ( 'NONE',  ( 0.0000000000000000000, 0.0000000000000000000, 2.244094000000000033 ) ) ;
#186 = CARTESIAN_POINT ( 'NONE',  ( 0.0000000000000000000, 0.0000000000000000000, 2.244094000000000033 ) ) ;
#187 = PLANE ( 'NONE',  #84 ) ;
#188 = CARTESIAN_POINT ( 'NONE',  ( 0.09837500000000004574, 1.204746288661209285E-17, 0.5118110000000000159 ) ) ;
#189 = AXIS2_PLACEMENT_3D ( 'NONE', #91, #306, #183 ) ;
#190 = CARTESIAN_POINT ( 'NONE',  ( 0.1031100000000002570, 1.262733314600838667E-17, 2.244094000000000033 ) ) ;
#191 = EDGE_CURVE ( 'NONE', #227, #28, #313, .T. ) ;
#192 = ORIENTED_EDGE ( 'NONE', *, *, #150, .F. ) ;
#193 = PRODUCT_RELATED_PRODUCT_CATEGORY ( 'part', '', ( #165 ) ) ;
#194 = AXIS2_PLACEMENT_3D ( 'NONE', #299, #280, #131 ) ;
#195 = APPLICATION_PROTOCOL_DEFINITION ( 'draft international standard', 'automotive_design', 1998, #87 ) ;
#196 = ORIENTED_EDGE ( 'NONE', *, *, #24, .T. ) ;
#197 = DIRECTION ( 'NONE',  ( 0.0000000000000000000, 0.0000000000000000000, 1.000000000000000000 ) ) ;
#198 = CONICAL_SURFACE ( 'NONE', #60, 0.007499999999999999722, 1.047197551196600518 ) ;
#199 = CARTESIAN_POINT ( 'NONE',  ( 0.09837500000000001799, 0.0000000000000000000, 0.05246670571260693416 ) ) ;
#200 = ADVANCED_FACE ( 'NONE', ( #93 ), #229, .T. ) ;
#201 = AXIS2_PLACEMENT_3D ( 'NONE', #37, #233, #9 ) ;
#202 = ORIENTED_EDGE ( 'NONE', *, *, #253, .T. ) ;
#203 = EDGE_CURVE ( 'NONE', #220, #179, #52, .T. ) ;
#204 = CARTESIAN_POINT ( 'NONE',  ( -0.1181100000000000066, 0.0000000000000000000, 2.244094000000000033 ) ) ;
#205 = CARTESIAN_POINT ( 'NONE',  ( 0.09837500000000003186, 1.204746288661209131E-17, 0.0000000000000000000 ) ) ;
#206 = CARTESIAN_POINT ( 'NONE',  ( -0.09837500000000003186, 0.0000000000000000000, 0.0000000000000000000 ) ) ;
#207 = EDGE_CURVE ( 'NONE', #125, #28, #96, .T. ) ;
#208 = SURFACE_STYLE_FILL_AREA ( #314 ) ;
#209 = LENGTH_MEASURE_WITH_UNIT ( LENGTH_MEASURE( 0.02539999999999999897 ), #268 );
#210 = CIRCLE ( 'NONE', #76, 0.09837500000000004574 ) ;
#211 = FACE_OUTER_BOUND ( 'NONE', #104, .T. ) ;
#212 =( LENGTH_UNIT ( ) NAMED_UNIT ( * ) SI_UNIT ( $, .METRE. ) );
#213 = FILL_AREA_STYLE_COLOUR ( '', #102 ) ;
#214 = DIRECTION ( 'NONE',  ( -0.0000000000000000000, -0.0000000000000000000, -1.000000000000000000 ) ) ;
#215 = LENGTH_MEASURE_WITH_UNIT ( LENGTH_MEASURE( 0.02539999999999999897 ), #41 );
#216 = AXIS2_PLACEMENT_3D ( 'NONE', #112, #214, #98 ) ;
#217 = CARTESIAN_POINT ( 'NONE',  ( 0.0000000000000000000, 0.0000000000000000000, 2.244094000000000033 ) ) ;
#218 = ADVANCED_FACE ( 'NONE', ( #211 ), #241, .T. ) ;
#219 = ORIENTED_EDGE ( 'NONE', *, *, #191, .T. ) ;
#220 = VERTEX_POINT ( 'NONE', #276 ) ;
#221 = VECTOR ( 'NONE', #182, 39.37007874015748143 ) ;
#222 = AXIS2_PLACEMENT_3D ( 'NONE', #116, #161, #283 ) ;
#223 = ORIENTED_EDGE ( 'NONE', *, *, #167, .F. ) ;
#224 = VERTEX_POINT ( 'NONE', #65 ) ;
#225 = PRESENTATION_LAYER_ASSIGNMENT (  '', '', ( #106 ) ) ;
#226 = ORIENTED_EDGE ( 'NONE', *, *, #301, .F. ) ;
#227 = VERTEX_POINT ( 'NONE', #188 ) ;
#228 = AXIS2_PLACEMENT_3D ( 'NONE', #259, #89, #33 ) ;
#229 = CYLINDRICAL_SURFACE ( 'NONE', #189, 0.09837500000000003186 ) ;
#230 = CARTESIAN_POINT ( 'NONE',  ( 0.0000000000000000000, 0.0000000000000000000, 0.0000000000000000000 ) ) ;
#231 = CARTESIAN_POINT ( 'NONE',  ( 0.1031100000000002570, 1.354581824536888722E-17, 2.244094000000000033 ) ) ;
#232 = DIRECTION ( 'NONE',  ( 0.0000000000000000000, 0.0000000000000000000, 1.000000000000000000 ) ) ;
#233 = DIRECTION ( 'NONE',  ( -0.0000000000000000000, 0.0000000000000000000, -1.000000000000000000 ) ) ;
#234 = EDGE_CURVE ( 'NONE', #179, #28, #277, .T. ) ;
#235 = DIRECTION ( 'NONE',  ( 0.0000000000000000000, 0.0000000000000000000, 1.000000000000000000 ) ) ;
#236 = PRODUCT_DEFINITION_CONTEXT ( 'detailed design', #87, 'design' ) ;
#237 = CARTESIAN_POINT ( 'NONE',  ( 0.007499999999999999722, 0.0000000000000000000, 1.707404996040164512E-17 ) ) ;
#238 = ORIENTED_EDGE ( 'NONE', *, *, #85, .F. ) ;
#239 =( NAMED_UNIT ( * ) SI_UNIT ( $, .STERADIAN. ) SOLID_ANGLE_UNIT ( ) );
#240 = CONICAL_SURFACE ( 'NONE', #250, 0.007499999999999999722, 1.047197551196600518 ) ;
#241 = CONICAL_SURFACE ( 'NONE', #329, 0.1031100000000002570, 0.7853981633974318477 ) ;
#242 = EDGE_LOOP ( 'NONE', ( #267, #320, #120, #296 ) ) ;
#243 = VECTOR ( 'NONE', #311, 39.37007874015748854 ) ;
#244 = ORIENTED_EDGE ( 'NONE', *, *, #315, .F. ) ;
#245 = ORIENTED_EDGE ( 'NONE', *, *, #109, .T. ) ;
#246 = MECHANICAL_DESIGN_GEOMETRIC_PRESENTATION_REPRESENTATION (  '', ( #136 ), #318 ) ;
#247 = LINE ( 'NONE', #110, #8 ) ;
#248 = DIRECTION ( 'NONE',  ( 1.000000000000000000, 0.0000000000000000000, 0.0000000000000000000 ) ) ;
#249 = ORIENTED_EDGE ( 'NONE', *, *, #10, .T. ) ;
#250 = AXIS2_PLACEMENT_3D ( 'NONE', #111, #197, #248 ) ;
#251 = VECTOR ( 'NONE', #2, 39.37007874015748143 ) ;
#252 = EDGE_LOOP ( 'NONE', ( #174, #245, #46, #4 ) ) ;
#253 = EDGE_CURVE ( 'NONE', #224, #164, #269, .T. ) ;
#254 = DIRECTION ( 'NONE',  ( 1.000000000000000000, 0.0000000000000000000, 0.0000000000000000000 ) ) ;
#255 = EDGE_CURVE ( 'NONE', #227, #175, #210, .T. ) ;
#256 = LINE ( 'NONE', #206, #221 ) ;
#257 = DIRECTION ( 'NONE',  ( -1.000000000000000000, 0.0000000000000000000, 0.0000000000000000000 ) ) ;
#258 = CARTESIAN_POINT ( 'NONE',  ( 0.0000000000000000000, 0.0000000000000000000, 2.229093999999999465 ) ) ;
#259 = CARTESIAN_POINT ( 'NONE',  ( 0.0000000000000000000, 0.0000000000000000000, 1.707404996040164512E-17 ) ) ;
#260 = FACE_OUTER_BOUND ( 'NONE', #307, .T. ) ;
#261 = CARTESIAN_POINT ( 'NONE',  ( 0.1181100000000000066, 1.446430334472939084E-17, 2.229093999999999465 ) ) ;
#262 = CIRCLE ( 'NONE', #123, 0.09837500000000001799 ) ;
#263 = APPLICATION_PROTOCOL_DEFINITION ( 'draft international standard', 'automotive_design', 1998, #70 ) ;
#264 = FACE_OUTER_BOUND ( 'NONE', #176, .T. ) ;
#265 = CARTESIAN_POINT ( 'NONE',  ( 0.0000000000000000000, 0.0000000000000000000, 0.5118110000000001270 ) ) ;
#266 = ORIENTED_EDGE ( 'NONE', *, *, #109, .F. ) ;
#267 = ORIENTED_EDGE ( 'NONE', *, *, #122, .F. ) ;
#268 =( LENGTH_UNIT ( ) NAMED_UNIT ( * ) SI_UNIT ( $, .METRE. ) );
#269 = CIRCLE ( 'NONE', #166, 0.1181100000000000066 ) ;
#270 = ORIENTED_EDGE ( 'NONE', *, *, #253, .F. ) ;
#271 = AXIS2_PLACEMENT_3D ( 'NONE', #64, #132, #7 ) ;
#272 = CARTESIAN_POINT ( 'NONE',  ( -0.1031100000000002570, 0.0000000000000000000, 2.244094000000000033 ) ) ;
#273 = VERTEX_POINT ( 'NONE', #261 ) ;
#274 = DIRECTION ( 'NONE',  ( -0.0000000000000000000, -0.0000000000000000000, -1.000000000000000000 ) ) ;
#275 = CARTESIAN_POINT ( 'NONE',  ( 0.0000000000000000000, 0.0000000000000000000, 1.707404996040164512E-17 ) ) ;
#276 = CARTESIAN_POINT ( 'NONE',  ( -0.007499999999999999722, 6.482973992986302093E-18, 1.707404996040164512E-17 ) ) ;
#277 = LINE ( 'NONE', #237, #92 ) ;
#278 = EDGE_LOOP ( 'NONE', ( #192, #44, #249, #300 ) ) ;
#279 = AXIS2_PLACEMENT_3D ( 'NONE', #282, #62, #130 ) ;
#280 = DIRECTION ( 'NONE',  ( -0.0000000000000000000, -0.0000000000000000000, -1.000000000000000000 ) ) ;
#281 = AXIS2_PLACEMENT_3D ( 'NONE', #319, #153, #257 ) ;
#282 = CARTESIAN_POINT ( 'NONE',  ( 0.0000000000000000000, 0.0000000000000000000, 2.244094000000000033 ) ) ;
#283 = DIRECTION ( 'NONE',  ( 1.000000000000000000, 0.0000000000000000000, 0.0000000000000000000 ) ) ;
#284 = CARTESIAN_POINT ( 'NONE',  ( 0.0000000000000000000, 0.0000000000000000000, 0.05246670571260693416 ) ) ;
#285 = DIRECTION ( 'NONE',  ( -1.000000000000000000, 0.0000000000000000000, 0.0000000000000000000 ) ) ;
#286 = DIRECTION ( 'NONE',  ( -0.0000000000000000000, -0.0000000000000000000, -1.000000000000000000 ) ) ;
#287 = SURFACE_SIDE_STYLE ('',( #80 ) ) ;
#288 = DIRECTION ( 'NONE',  ( 0.8660254037844400399, 0.0000000000000000000, 0.4999999999999976685 ) ) ;
#289 = PRODUCT_DEFINITION_SHAPE ( 'NONE', 'NONE',  #160 ) ;
#290 = DIRECTION ( 'NONE',  ( 1.000000000000000000, 0.0000000000000000000, 0.0000000000000000000 ) ) ;
#291 = MECHANICAL_DESIGN_GEOMETRIC_PRESENTATION_REPRESENTATION (  '', ( #106 ), #324 ) ;
#292 = PRESENTATION_STYLE_ASSIGNMENT (( #94 ) ) ;
#293 = CARTESIAN_POINT ( 'NONE',  ( 0.1181100000000000066, 1.446430334472939084E-17, 0.5118110000000001270 ) ) ;
#294 = ORIENTED_EDGE ( 'NONE', *, *, #82, .T. ) ;
#295 = PRESENTATION_STYLE_ASSIGNMENT (( #13 ) ) ;
#296 = ORIENTED_EDGE ( 'NONE', *, *, #309, .F. ) ;
#297 =( GEOMETRIC_REPRESENTATION_CONTEXT ( 3 ) GLOBAL_UNCERTAINTY_ASSIGNED_CONTEXT ( ( #25 ) ) GLOBAL_UNIT_ASSIGNED_CONTEXT ( ( #119, #43, #5 ) ) REPRESENTATION_CONTEXT ( 'NONE', 'WORKASPACE' ) );
#298 = LINE ( 'NONE', #305, #27 ) ;
#299 = CARTESIAN_POINT ( 'NONE',  ( 0.0000000000000000000, 0.0000000000000000000, 2.244094000000000033 ) ) ;
#300 = ORIENTED_EDGE ( 'NONE', *, *, #66, .F. ) ;
#301 = EDGE_CURVE ( 'NONE', #22, #273, #154, .T. ) ;
#302 = AXIS2_PLACEMENT_3D ( 'NONE', #172, #57, #155 ) ;
#303 = CIRCLE ( 'NONE', #29, 0.1031100000000002570 ) ;
#304 = ORIENTED_EDGE ( 'NONE', *, *, #255, .F. ) ;
#305 = CARTESIAN_POINT ( 'NONE',  ( 0.1181100000000000066, 1.446430334472939084E-17, 2.244094000000000033 ) ) ;
#306 = DIRECTION ( 'NONE',  ( -0.0000000000000000000, -0.0000000000000000000, -1.000000000000000000 ) ) ;
#307 = EDGE_LOOP ( 'NONE', ( #202, #143 ) ) ;
#308 = LINE ( 'NONE', #204, #251 ) ;
#309 = EDGE_CURVE ( 'NONE', #164, #224, #144, .T. ) ;
#310 = CIRCLE ( 'NONE', #18, 0.007499999999999999722 ) ;
#311 = DIRECTION ( 'NONE',  ( 0.7071067811865358044, 8.659560562354788645E-17, -0.7071067811865590080 ) ) ;
#312 = EDGE_LOOP ( 'NONE', ( #294, #50 ) ) ;
#313 = LINE ( 'NONE', #205, #107 ) ;
#314 = FILL_AREA_STYLE ('',( #213 ) ) ;
#315 = EDGE_CURVE ( 'NONE', #121, #48, #303, .T. ) ;
#316 = VECTOR ( 'NONE', #20, 39.37007874015748854 ) ;
#317 = AXIS2_PLACEMENT_3D ( 'NONE', #178, #274, #61 ) ;
#318 =( GEOMETRIC_REPRESENTATION_CONTEXT ( 3 ) GLOBAL_UNCERTAINTY_ASSIGNED_CONTEXT ( ( #54 ) ) GLOBAL_UNIT_ASSIGNED_CONTEXT ( ( #71, #79, #19 ) ) REPRESENTATION_CONTEXT ( 'NONE', 'WORKASPACE' ) );
#319 = CARTESIAN_POINT ( 'NONE',  ( 0.0000000000000000000, 0.0000000000000000000, 0.5118110000000001270 ) ) ;
#320 = ORIENTED_EDGE ( 'NONE', *, *, #66, .T. ) ;
#321 = DIMENSIONAL_EXPONENTS ( 1.000000000000000000, 0.0000000000000000000, 0.0000000000000000000, 0.0000000000000000000, 0.0000000000000000000, 0.0000000000000000000, 0.0000000000000000000 ) ;
#322 = ORIENTED_EDGE ( 'NONE', *, *, #255, .T. ) ;
#323 = ADVANCED_FACE ( 'NONE', ( #133 ), #187, .F. ) ;
#324 =( GEOMETRIC_REPRESENTATION_CONTEXT ( 3 ) GLOBAL_UNCERTAINTY_ASSIGNED_CONTEXT ( ( #78 ) ) GLOBAL_UNIT_ASSIGNED_CONTEXT ( ( #74, #117, #239 ) ) REPRESENTATION_CONTEXT ( 'NONE', 'WORKASPACE' ) );
#325 = EDGE_LOOP ( 'NONE', ( #99, #304 ) ) ;
#326 = DIMENSIONAL_EXPONENTS ( 1.000000000000000000, 0.0000000000000000000, 0.0000000000000000000, 0.0000000000000000000, 0.0000000000000000000, 0.0000000000000000000, 0.0000000000000000000 ) ;
#327 = PLANE ( 'NONE',  #127 ) ;
#328 = LINE ( 'NONE', #272, #316 ) ;
#329 = AXIS2_PLACEMENT_3D ( 'NONE', #186, #181, #285 ) ;
ENDSEC;
END-ISO-10303-21;
