ISO-10303-21;
HEADER;
FILE_DESCRIPTION (( 'STEP AP214' ),
    '1' );
FILE_NAME ('Micro_BMSM-008-2.STEP',
    '2021-09-03T15:34:52',
    ( '' ),
    ( '' ),
    'SwSTEP 2.0',
    'SolidWorks 2020',
    '' );
FILE_SCHEMA (( 'AUTOMOTIVE_DESIGN' ));
ENDSEC;

DATA;
#1 = DIRECTION ( 'NONE',  ( -1.224646799147353207E-16, -0.0000000000000000000, -1.000000000000000000 ) ) ;
#2 = PRODUCT ( 'Micro_BMSM-008-2', 'Micro_BMSM-008-2', '', ( #156 ) ) ;
#3 =( NAMED_UNIT ( * ) SI_UNIT ( $, .STERADIAN. ) SOLID_ANGLE_UNIT ( ) );
#4 = ORIENTED_EDGE ( 'NONE', *, *, #73, .F. ) ;
#5 = EDGE_CURVE ( 'NONE', #280, #245, #268, .T. ) ;
#6 = DIRECTION ( 'NONE',  ( 0.0000000000000000000, 0.0000000000000000000, 1.000000000000000000 ) ) ;
#7 = ORIENTED_EDGE ( 'NONE', *, *, #128, .F. ) ;
#8 = ORIENTED_EDGE ( 'NONE', *, *, #292, .T. ) ;
#9 = SHAPE_DEFINITION_REPRESENTATION ( #263, #172 ) ;
#10 = ORIENTED_EDGE ( 'NONE', *, *, #5, .T. ) ;
#11 = AXIS2_PLACEMENT_3D ( 'NONE', #296, #62, #42 ) ;
#12 = AXIS2_PLACEMENT_3D ( 'NONE', #56, #233, #76 ) ;
#13 = CARTESIAN_POINT ( 'NONE',  ( 1.926645205517954404E-18, 0.0000000000000000000, 0.01573225199999999865 ) ) ;
#14 = CARTESIAN_POINT ( 'NONE',  ( 0.0000000000000000000, 0.0000000000000000000, 0.0000000000000000000 ) ) ;
#15 = DIRECTION ( 'NONE',  ( -0.7071067811865482389, 0.0000000000000000000, -0.7071067811865469066 ) ) ;
#16 = ORIENTED_EDGE ( 'NONE', *, *, #141, .F. ) ;
#17 = CLOSED_SHELL ( 'NONE', ( #138, #133, #198, #218, #59, #112, #251, #71, #103, #236, #208 ) ) ;
#18 = FACE_OUTER_BOUND ( 'NONE', #127, .T. ) ;
#19 = PRODUCT_RELATED_PRODUCT_CATEGORY ( 'part', '', ( #2 ) ) ;
#20 = CARTESIAN_POINT ( 'NONE',  ( 5.785721337891755876E-18, 0.0000000000000000000, 0.04724400000000000127 ) ) ;
#21 = LINE ( 'NONE', #70, #124 ) ;
#22 = SURFACE_SIDE_STYLE ('',( #66 ) ) ;
#23 = AXIS2_PLACEMENT_3D ( 'NONE', #14, #192, #86 ) ;
#24 = DIRECTION ( 'NONE',  ( -0.1736481776669311916, 2.126576849575783316E-17, 0.9848077530122080203 ) ) ;
#25 = EDGE_CURVE ( 'NONE', #57, #50, #190, .T. ) ;
#26 = SURFACE_STYLE_USAGE ( .BOTH. , #175 ) ;
#27 = EDGE_LOOP ( 'NONE', ( #29, #177, #214, #72 ) ) ;
#28 = DIMENSIONAL_EXPONENTS ( 1.000000000000000000, 0.0000000000000000000, 0.0000000000000000000, 0.0000000000000000000, 0.0000000000000000000, 0.0000000000000000000, 0.0000000000000000000 ) ;
#29 = ORIENTED_EDGE ( 'NONE', *, *, #284, .F. ) ;
#30 =( NAMED_UNIT ( * ) SI_UNIT ( $, .STERADIAN. ) SOLID_ANGLE_UNIT ( ) );
#31 = ORIENTED_EDGE ( 'NONE', *, *, #87, .F. ) ;
#32 = CARTESIAN_POINT ( 'NONE',  ( 1.926645205517954404E-18, 0.0000000000000000000, 0.01573225199999999865 ) ) ;
#33 = VECTOR ( 'NONE', #227, 39.37007874015748143 ) ;
#34 =( NAMED_UNIT ( * ) PLANE_ANGLE_UNIT ( ) SI_UNIT ( $, .RADIAN. ) );
#35 = EDGE_CURVE ( 'NONE', #126, #104, #295, .T. ) ;
#36 = LINE ( 'NONE', #191, #78 ) ;
#37 = CARTESIAN_POINT ( 'NONE',  ( -0.01573225199999999518, 0.0000000000000000000, 0.01573225199999999865 ) ) ;
#38 = DIRECTION ( 'NONE',  ( -1.000000000000000000, 0.0000000000000000000, 0.0000000000000000000 ) ) ;
#39 =( NAMED_UNIT ( * ) SI_UNIT ( $, .STERADIAN. ) SOLID_ANGLE_UNIT ( ) );
#40 = DIRECTION ( 'NONE',  ( 0.0000000000000000000, 0.0000000000000000000, -1.000000000000000000 ) ) ;
#41 = CARTESIAN_POINT ( 'NONE',  ( 0.0000000000000000000, 0.0000000000000000000, 1.481062999999999574 ) ) ;
#42 = DIRECTION ( 'NONE',  ( -1.000000000000000000, 0.0000000000000000000, 1.224646799147353207E-16 ) ) ;
#43 = AXIS2_PLACEMENT_3D ( 'NONE', #223, #278, #142 ) ;
#44 = EDGE_CURVE ( 'NONE', #126, #57, #36, .T. ) ;
#45 = CARTESIAN_POINT ( 'NONE',  ( 0.0000000000000000000, 0.0000000000000000000, 0.0000000000000000000 ) ) ;
#46 = CARTESIAN_POINT ( 'NONE',  ( 1.926645205517954404E-18, 0.0000000000000000000, 0.01573225199999999865 ) ) ;
#47 =( LENGTH_UNIT ( ) NAMED_UNIT ( * ) SI_UNIT ( $, .METRE. ) );
#48 = ORIENTED_EDGE ( 'NONE', *, *, #87, .T. ) ;
#49 = AXIS2_PLACEMENT_3D ( 'NONE', #45, #1, #300 ) ;
#50 = VERTEX_POINT ( 'NONE', #162 ) ;
#51 = DIRECTION ( 'NONE',  ( 0.0000000000000000000, 0.0000000000000000000, -1.000000000000000000 ) ) ;
#52 = ORIENTED_EDGE ( 'NONE', *, *, #44, .F. ) ;
#53 = UNCERTAINTY_MEASURE_WITH_UNIT (LENGTH_MEASURE( 1.000000000000000082E-05 ), #201, 'distance_accuracy_value', 'NONE');
#54 = ORIENTED_EDGE ( 'NONE', *, *, #81, .F. ) ;
#55 = VECTOR ( 'NONE', #15, 39.37007874015748143 ) ;
#56 = CARTESIAN_POINT ( 'NONE',  ( 3.587474370718369352E-17, 0.0000000000000000000, 0.2929395131082781489 ) ) ;
#57 = VERTEX_POINT ( 'NONE', #37 ) ;
#58 = CYLINDRICAL_SURFACE ( 'NONE', #235, 0.05905500000000000332 ) ;
#59 = ADVANCED_FACE ( 'NONE', ( #320 ), #215, .T. ) ;
#60 = DIRECTION ( 'NONE',  ( 0.7071067811865482389, 8.659560562354941486E-17, -0.7071067811865469066 ) ) ;
#61 = AXIS2_PLACEMENT_3D ( 'NONE', #303, #123, #120 ) ;
#62 = DIRECTION ( 'NONE',  ( -1.224646799147353207E-16, -0.0000000000000000000, -1.000000000000000000 ) ) ;
#63 = FACE_OUTER_BOUND ( 'NONE', #163, .T. ) ;
#64 = DIRECTION ( 'NONE',  ( -1.224646799147353207E-16, -0.0000000000000000000, -1.000000000000000000 ) ) ;
#65 = AXIS2_PLACEMENT_3D ( 'NONE', #13, #212, #188 ) ;
#66 = SURFACE_STYLE_FILL_AREA ( #95 ) ;
#67 = FACE_OUTER_BOUND ( 'NONE', #262, .T. ) ;
#68 = FILL_AREA_STYLE_COLOUR ( '', #79 ) ;
#69 = CIRCLE ( 'NONE', #281, 0.05905500000000000332 ) ;
#70 = CARTESIAN_POINT ( 'NONE',  ( 0.05905500000000000332, 7.232151672364695422E-18, 1.496062999999999921 ) ) ;
#71 = ADVANCED_FACE ( 'NONE', ( #18 ), #174, .T. ) ;
#72 = ORIENTED_EDGE ( 'NONE', *, *, #25, .T. ) ;
#73 = EDGE_CURVE ( 'NONE', #104, #308, #135, .T. ) ;
#74 = FILL_AREA_STYLE ('',( #131 ) ) ;
#75 = ORIENTED_EDGE ( 'NONE', *, *, #213, .T. ) ;
#76 = DIRECTION ( 'NONE',  ( 1.000000000000000000, 0.0000000000000000000, 0.0000000000000000000 ) ) ;
#77 = ORIENTED_EDGE ( 'NONE', *, *, #322, .T. ) ;
#78 = VECTOR ( 'NONE', #193, 39.37007874015748143 ) ;
#79 = COLOUR_RGB ( '',0.7921568627450980005, 0.8196078431372548767, 0.9333333333333333481 ) ;
#80 = ORIENTED_EDGE ( 'NONE', *, *, #202, .F. ) ;
#81 = EDGE_CURVE ( 'NONE', #204, #106, #321, .T. ) ;
#82 = DIRECTION ( 'NONE',  ( 1.224646799147353207E-16, 0.0000000000000000000, 1.000000000000000000 ) ) ;
#83 = LINE ( 'NONE', #137, #55 ) ;
#84 = AXIS2_PLACEMENT_3D ( 'NONE', #319, #40, #219 ) ;
#85 = EDGE_LOOP ( 'NONE', ( #232, #75, #10, #288 ) ) ;
#86 = DIRECTION ( 'NONE',  ( 1.000000000000000000, 0.0000000000000000000, 0.0000000000000000000 ) ) ;
#87 = EDGE_CURVE ( 'NONE', #209, #280, #83, .T. ) ;
#88 = ORIENTED_EDGE ( 'NONE', *, *, #184, .T. ) ;
#89 = DIRECTION ( 'NONE',  ( 0.0000000000000000000, 0.0000000000000000000, -1.000000000000000000 ) ) ;
#90 = CIRCLE ( 'NONE', #324, 0.01573225199999999865 ) ;
#91 = CARTESIAN_POINT ( 'NONE',  ( -0.01573225199999998825, 1.926645205517954019E-18, 0.04724400000000000127 ) ) ;
#92 = EDGE_CURVE ( 'NONE', #50, #57, #289, .T. ) ;
#93 =( NAMED_UNIT ( * ) PLANE_ANGLE_UNIT ( ) SI_UNIT ( $, .RADIAN. ) );
#94 = CARTESIAN_POINT ( 'NONE',  ( -0.04405499999999973326, 0.0000000000000000000, 1.496062999999999921 ) ) ;
#95 = FILL_AREA_STYLE ('',( #68 ) ) ;
#96 = CIRCLE ( 'NONE', #211, 0.04405499999999973326 ) ;
#97 = LENGTH_MEASURE_WITH_UNIT ( LENGTH_MEASURE( 0.02539999999999999897 ), #314 );
#98 = DIRECTION ( 'NONE',  ( -1.224646799147353207E-16, -0.0000000000000000000, -1.000000000000000000 ) ) ;
#99 = ORIENTED_EDGE ( 'NONE', *, *, #194, .F. ) ;
#100 = CARTESIAN_POINT ( 'NONE',  ( 0.05905500000000004496, 7.232151672364700045E-18, 0.2929395131082781489 ) ) ;
#101 = CIRCLE ( 'NONE', #160, 0.04405499999999973326 ) ;
#102 = ORIENTED_EDGE ( 'NONE', *, *, #128, .T. ) ;
#103 = ADVANCED_FACE ( 'NONE', ( #63 ), #108, .T. ) ;
#104 = VERTEX_POINT ( 'NONE', #185 ) ;
#105 = SURFACE_STYLE_FILL_AREA ( #74 ) ;
#106 = VERTEX_POINT ( 'NONE', #114 ) ;
#107 = ORIENTED_EDGE ( 'NONE', *, *, #25, .F. ) ;
#108 = CONICAL_SURFACE ( 'NONE', #210, 0.01573225199999999518, 0.1745329251994338915 ) ;
#109 = DIRECTION ( 'NONE',  ( -1.000000000000000000, 0.0000000000000000000, 0.0000000000000000000 ) ) ;
#110 = CARTESIAN_POINT ( 'NONE',  ( -0.01573225199999998825, 4.579398438941324335E-18, 0.04724400000000000127 ) ) ;
#111 = ORIENTED_EDGE ( 'NONE', *, *, #213, .F. ) ;
#112 = ADVANCED_FACE ( 'NONE', ( #293 ), #58, .T. ) ;
#113 =( GEOMETRIC_REPRESENTATION_CONTEXT ( 3 ) GLOBAL_UNCERTAINTY_ASSIGNED_CONTEXT ( ( #242 ) ) GLOBAL_UNIT_ASSIGNED_CONTEXT ( ( #180, #307, #30 ) ) REPRESENTATION_CONTEXT ( 'NONE', 'WORKASPACE' ) );
#114 = CARTESIAN_POINT ( 'NONE',  ( 0.05905500000000000332, 7.232151672364695422E-18, 1.481062999999999574 ) ) ;
#115 = CARTESIAN_POINT ( 'NONE',  ( 0.0000000000000000000, 0.0000000000000000000, 1.496062999999999921 ) ) ;
#116 = FACE_OUTER_BOUND ( 'NONE', #315, .T. ) ;
#117 = CIRCLE ( 'NONE', #309, 0.05905500000000000332 ) ;
#118 = CONICAL_SURFACE ( 'NONE', #161, 0.04405499999999973326, 0.7853981633974491672 ) ;
#119 = CARTESIAN_POINT ( 'NONE',  ( 0.0000000000000000000, 0.0000000000000000000, 1.481062999999999574 ) ) ;
#120 = DIRECTION ( 'NONE',  ( 1.000000000000000000, 0.0000000000000000000, 0.0000000000000000000 ) ) ;
#121 = DIRECTION ( 'NONE',  ( 0.0000000000000000000, 1.000000000000000000, 0.0000000000000000000 ) ) ;
#122 = VECTOR ( 'NONE', #60, 39.37007874015748143 ) ;
#123 = DIRECTION ( 'NONE',  ( 1.224646799147353207E-16, 0.0000000000000000000, 1.000000000000000000 ) ) ;
#124 = VECTOR ( 'NONE', #249, 39.37007874015748143 ) ;
#125 = CARTESIAN_POINT ( 'NONE',  ( 2.889967808276931028E-18, 0.0000000000000000000, 0.0000000000000000000 ) ) ;
#126 = VERTEX_POINT ( 'NONE', #110 ) ;
#127 = EDGE_LOOP ( 'NONE', ( #54, #99, #48, #111 ) ) ;
#128 = EDGE_CURVE ( 'NONE', #318, #57, #165, .T. ) ;
#129 = FACE_OUTER_BOUND ( 'NONE', #298, .T. ) ;
#130 = ORIENTED_EDGE ( 'NONE', *, *, #73, .T. ) ;
#131 = FILL_AREA_STYLE_COLOUR ( '', #290 ) ;
#132 = ORIENTED_EDGE ( 'NONE', *, *, #284, .T. ) ;
#133 = ADVANCED_FACE ( 'NONE', ( #317 ), #187, .T. ) ;
#134 = CARTESIAN_POINT ( 'NONE',  ( 1.926645205517954404E-18, 0.0000000000000000000, 0.01573225199999999865 ) ) ;
#135 = LINE ( 'NONE', #238, #316 ) ;
#136 = CARTESIAN_POINT ( 'NONE',  ( -0.05905500000000000332, 0.0000000000000000000, 1.496062999999999921 ) ) ;
#137 = CARTESIAN_POINT ( 'NONE',  ( -0.04405499999999973326, 0.0000000000000000000, 1.496062999999999921 ) ) ;
#138 = ADVANCED_FACE ( 'NONE', ( #323 ), #250, .T. ) ;
#139 = DIRECTION ( 'NONE',  ( 1.224646799147353207E-16, 0.0000000000000000000, 1.000000000000000000 ) ) ;
#140 = CARTESIAN_POINT ( 'NONE',  ( 5.785721337891755876E-18, 0.0000000000000000000, 0.04724400000000000127 ) ) ;
#141 = EDGE_CURVE ( 'NONE', #126, #245, #325, .T. ) ;
#142 = DIRECTION ( 'NONE',  ( -1.000000000000000000, 0.0000000000000000000, 0.0000000000000000000 ) ) ;
#143 = DIRECTION ( 'NONE',  ( 0.0000000000000000000, 0.0000000000000000000, -1.000000000000000000 ) ) ;
#144 = AXIS2_PLACEMENT_3D ( 'NONE', #159, #82, #267 ) ;
#145 = CARTESIAN_POINT ( 'NONE',  ( 0.0000000000000000000, 0.0000000000000000000, 1.496062999999999921 ) ) ;
#146 = DIRECTION ( 'NONE',  ( 1.000000000000000000, 0.0000000000000000000, 0.0000000000000000000 ) ) ;
#147 = CARTESIAN_POINT ( 'NONE',  ( 0.04405499999999973326, 6.313666573004162521E-18, 1.496062999999999921 ) ) ;
#148 = DIRECTION ( 'NONE',  ( 1.000000000000000000, 0.0000000000000000000, -0.0000000000000000000 ) ) ;
#149 = MECHANICAL_DESIGN_GEOMETRIC_PRESENTATION_REPRESENTATION (  '', ( #306 ), #266 ) ;
#150 = ORIENTED_EDGE ( 'NONE', *, *, #244, .T. ) ;
#151 = ORIENTED_EDGE ( 'NONE', *, *, #141, .T. ) ;
#152 = ORIENTED_EDGE ( 'NONE', *, *, #92, .T. ) ;
#153 =( GEOMETRIC_REPRESENTATION_CONTEXT ( 3 ) GLOBAL_UNCERTAINTY_ASSIGNED_CONTEXT ( ( #313 ) ) GLOBAL_UNIT_ASSIGNED_CONTEXT ( ( #271, #93, #3 ) ) REPRESENTATION_CONTEXT ( 'NONE', 'WORKASPACE' ) );
#154 = ORIENTED_EDGE ( 'NONE', *, *, #272, .T. ) ;
#155 = CARTESIAN_POINT ( 'NONE',  ( 0.0000000000000000000, 0.0000000000000000000, 1.496062999999999921 ) ) ;
#156 = PRODUCT_CONTEXT ( 'NONE', #186, 'mechanical' ) ;
#157 = CARTESIAN_POINT ( 'NONE',  ( 0.0000000000000000000, 0.0000000000000000000, 1.496062999999999921 ) ) ;
#158 = APPLICATION_PROTOCOL_DEFINITION ( 'draft international standard', 'automotive_design', 1998, #167 ) ;
#159 = CARTESIAN_POINT ( 'NONE',  ( 1.926645205517954404E-18, 0.0000000000000000000, 0.01573225199999999865 ) ) ;
#160 = AXIS2_PLACEMENT_3D ( 'NONE', #224, #196, #304 ) ;
#161 = AXIS2_PLACEMENT_3D ( 'NONE', #145, #143, #199 ) ;
#162 = CARTESIAN_POINT ( 'NONE',  ( 0.01573225199999999865, 1.926645205517954404E-18, 0.01573225199999999518 ) ) ;
#163 = EDGE_LOOP ( 'NONE', ( #16, #80, #130, #8 ) ) ;
#164 = DIRECTION ( 'NONE',  ( -0.0000000000000000000, -0.0000000000000000000, -1.000000000000000000 ) ) ;
#165 = CIRCLE ( 'NONE', #65, 0.01573225199999999865 ) ;
#166 = SURFACE_STYLE_USAGE ( .BOTH. , #22 ) ;
#167 = APPLICATION_CONTEXT ( 'automotive_design' ) ;
#168 = DIRECTION ( 'NONE',  ( 1.000000000000000000, 0.0000000000000000000, 0.0000000000000000000 ) ) ;
#169 = DIRECTION ( 'NONE',  ( 1.000000000000000000, 0.0000000000000000000, 0.0000000000000000000 ) ) ;
#170 = MECHANICAL_DESIGN_GEOMETRIC_PRESENTATION_REPRESENTATION (  '', ( #225 ), #153 ) ;
#171 = DIRECTION ( 'NONE',  ( 0.0000000000000000000, 1.000000000000000000, 0.0000000000000000000 ) ) ;
#172 = ADVANCED_BREP_SHAPE_REPRESENTATION ( 'Micro_BMSM-008-2', ( #240, #23 ), #113 ) ;
#173 = DIRECTION ( 'NONE',  ( 0.0000000000000000000, 0.0000000000000000000, 1.000000000000000000 ) ) ;
#174 = CONICAL_SURFACE ( 'NONE', #84, 0.04405499999999973326, 0.7853981633974491672 ) ;
#175 = SURFACE_SIDE_STYLE ('',( #105 ) ) ;
#176 = CIRCLE ( 'NONE', #216, 0.05905500000000000332 ) ;
#177 = ORIENTED_EDGE ( 'NONE', *, *, #202, .T. ) ;
#178 = PLANE ( 'NONE',  #276 ) ;
#179 = EDGE_LOOP ( 'NONE', ( #291, #102, #286 ) ) ;
#180 =( CONVERSION_BASED_UNIT ( 'INCH', #255 ) LENGTH_UNIT ( ) NAMED_UNIT ( #189 ) );
#181 = ORIENTED_EDGE ( 'NONE', *, *, #194, .T. ) ;
#182 = DIMENSIONAL_EXPONENTS ( 1.000000000000000000, 0.0000000000000000000, 0.0000000000000000000, 0.0000000000000000000, 0.0000000000000000000, 0.0000000000000000000, 0.0000000000000000000 ) ;
#183 = ORIENTED_EDGE ( 'NONE', *, *, #35, .F. ) ;
#184 = EDGE_CURVE ( 'NONE', #280, #106, #117, .T. ) ;
#185 = CARTESIAN_POINT ( 'NONE',  ( 0.01573225200000000212, 0.0000000000000000000, 0.04724400000000000127 ) ) ;
#186 = APPLICATION_CONTEXT ( 'automotive_design' ) ;
#187 = CYLINDRICAL_SURFACE ( 'NONE', #11, 0.01573225199999999865 ) ;
#188 = DIRECTION ( 'NONE',  ( -1.000000000000000000, 1.224646799147353207E-16, 0.0000000000000000000 ) ) ;
#189 = DIMENSIONAL_EXPONENTS ( 1.000000000000000000, 0.0000000000000000000, 0.0000000000000000000, 0.0000000000000000000, 0.0000000000000000000, 0.0000000000000000000, 0.0000000000000000000 ) ;
#190 = CIRCLE ( 'NONE', #257, 0.01573225199999999865 ) ;
#191 = CARTESIAN_POINT ( 'NONE',  ( -0.01573225199999999865, 0.0000000000000000000, 1.926645205517954404E-18 ) ) ;
#192 = DIRECTION ( 'NONE',  ( 0.0000000000000000000, 0.0000000000000000000, 1.000000000000000000 ) ) ;
#193 = DIRECTION ( 'NONE',  ( -1.224646799147353207E-16, -0.0000000000000000000, -1.000000000000000000 ) ) ;
#194 = EDGE_CURVE ( 'NONE', #209, #204, #101, .T. ) ;
#195 = DIRECTION ( 'NONE',  ( 0.0000000000000000000, 0.0000000000000000000, -1.000000000000000000 ) ) ;
#196 = DIRECTION ( 'NONE',  ( 0.0000000000000000000, 0.0000000000000000000, 1.000000000000000000 ) ) ;
#197 = FACE_OUTER_BOUND ( 'NONE', #207, .T. ) ;
#198 = ADVANCED_FACE ( 'NONE', ( #197 ), #275, .T. ) ;
#199 = DIRECTION ( 'NONE',  ( -1.000000000000000000, 0.0000000000000000000, 0.0000000000000000000 ) ) ;
#200 =( LENGTH_UNIT ( ) NAMED_UNIT ( * ) SI_UNIT ( $, .METRE. ) );
#201 =( CONVERSION_BASED_UNIT ( 'INCH', #97 ) LENGTH_UNIT ( ) NAMED_UNIT ( #182 ) );
#202 = EDGE_CURVE ( 'NONE', #104, #126, #248, .T. ) ;
#203 = DIRECTION ( 'NONE',  ( 1.000000000000000000, 0.0000000000000000000, 0.0000000000000000000 ) ) ;
#204 = VERTEX_POINT ( 'NONE', #147 ) ;
#205 = CARTESIAN_POINT ( 'NONE',  ( 3.587474370718369352E-17, 0.0000000000000000000, 0.2929395131082781489 ) ) ;
#206 = ORIENTED_EDGE ( 'NONE', *, *, #184, .F. ) ;
#207 = EDGE_LOOP ( 'NONE', ( #183, #151, #77, #4 ) ) ;
#208 = ADVANCED_FACE ( 'NONE', ( #67 ), #246, .T. ) ;
#209 = VERTEX_POINT ( 'NONE', #94 ) ;
#210 = AXIS2_PLACEMENT_3D ( 'NONE', #140, #139, #269 ) ;
#211 = AXIS2_PLACEMENT_3D ( 'NONE', #273, #173, #258 ) ;
#212 = DIRECTION ( 'NONE',  ( 1.224646799147353207E-16, 1.000000000000000000, -0.0000000000000000000 ) ) ;
#213 = EDGE_CURVE ( 'NONE', #106, #280, #69, .T. ) ;
#214 = ORIENTED_EDGE ( 'NONE', *, *, #44, .T. ) ;
#215 = CYLINDRICAL_SURFACE ( 'NONE', #301, 0.05905500000000000332 ) ;
#216 = AXIS2_PLACEMENT_3D ( 'NONE', #205, #98, #203 ) ;
#217 = DIRECTION ( 'NONE',  ( 0.1736481776669313859, 0.0000000000000000000, 0.9848077530122077983 ) ) ;
#218 = ADVANCED_FACE ( 'NONE', ( #116 ), #118, .T. ) ;
#219 = DIRECTION ( 'NONE',  ( -1.000000000000000000, 0.0000000000000000000, 0.0000000000000000000 ) ) ;
#220 = VECTOR ( 'NONE', #24, 39.37007874015747433 ) ;
#221 = CIRCLE ( 'NONE', #12, 0.05905500000000000332 ) ;
#222 = EDGE_CURVE ( 'NONE', #106, #308, #21, .T. ) ;
#223 = CARTESIAN_POINT ( 'NONE',  ( 5.785721337891755876E-18, 0.0000000000000000000, 0.04724400000000000127 ) ) ;
#224 = CARTESIAN_POINT ( 'NONE',  ( 0.0000000000000000000, 0.0000000000000000000, 1.496062999999999921 ) ) ;
#225 = STYLED_ITEM ( 'NONE', ( #277 ), #240 ) ;
#226 = CYLINDRICAL_SURFACE ( 'NONE', #49, 0.01573225199999999865 ) ;
#227 = DIRECTION ( 'NONE',  ( -1.224646799147353207E-16, -0.0000000000000000000, -1.000000000000000000 ) ) ;
#228 = ORIENTED_EDGE ( 'NONE', *, *, #244, .F. ) ;
#229 = ORIENTED_EDGE ( 'NONE', *, *, #81, .T. ) ;
#230 = AXIS2_PLACEMENT_3D ( 'NONE', #20, #64, #38 ) ;
#231 = AXIS2_PLACEMENT_3D ( 'NONE', #46, #171, #168 ) ;
#232 = ORIENTED_EDGE ( 'NONE', *, *, #222, .F. ) ;
#233 = DIRECTION ( 'NONE',  ( -1.224646799147353207E-16, -0.0000000000000000000, -1.000000000000000000 ) ) ;
#234 = ORIENTED_EDGE ( 'NONE', *, *, #222, .T. ) ;
#235 = AXIS2_PLACEMENT_3D ( 'NONE', #157, #265, #109 ) ;
#236 = ADVANCED_FACE ( 'NONE', ( #305 ), #226, .T. ) ;
#237 = PRESENTATION_LAYER_ASSIGNMENT (  '', '', ( #306 ) ) ;
#238 = CARTESIAN_POINT ( 'NONE',  ( 0.01573225200000000212, 0.0000000000000000000, 0.04724400000000000127 ) ) ;
#239 = DIRECTION ( 'NONE',  ( 1.224646799147353207E-16, 0.0000000000000000000, 1.000000000000000000 ) ) ;
#240 = MANIFOLD_SOLID_BREP ( 'Fillet1', #17 ) ;
#241 = DIRECTION ( 'NONE',  ( -1.000000000000000000, 0.0000000000000000000, 1.356612038155888783E-16 ) ) ;
#242 = UNCERTAINTY_MEASURE_WITH_UNIT (LENGTH_MEASURE( 1.000000000000000082E-05 ), #180, 'distance_accuracy_value', 'NONE');
#243 = EDGE_LOOP ( 'NONE', ( #311, #132, #152, #52 ) ) ;
#244 = EDGE_CURVE ( 'NONE', #204, #209, #96, .T. ) ;
#245 = VERTEX_POINT ( 'NONE', #282 ) ;
#246 = SPHERICAL_SURFACE ( 'NONE', #231, 0.01573225199999999865 ) ;
#247 = DIRECTION ( 'NONE',  ( 1.000000000000000000, 0.0000000000000000000, 0.0000000000000000000 ) ) ;
#248 = CIRCLE ( 'NONE', #43, 0.01573225199999999518 ) ;
#249 = DIRECTION ( 'NONE',  ( -0.0000000000000000000, -0.0000000000000000000, -1.000000000000000000 ) ) ;
#250 = SPHERICAL_SURFACE ( 'NONE', #253, 0.01573225199999999865 ) ;
#251 = ADVANCED_FACE ( 'NONE', ( #129 ), #178, .T. ) ;
#252 = LENGTH_MEASURE_WITH_UNIT ( LENGTH_MEASURE( 0.02539999999999999897 ), #200 );
#253 = AXIS2_PLACEMENT_3D ( 'NONE', #274, #121, #146 ) ;
#254 = CARTESIAN_POINT ( 'NONE',  ( 0.01573225199999999865, 1.926645205517954404E-18, -1.926645205517954404E-18 ) ) ;
#255 = LENGTH_MEASURE_WITH_UNIT ( LENGTH_MEASURE( 0.02539999999999999897 ), #47 );
#256 = ORIENTED_EDGE ( 'NONE', *, *, #322, .F. ) ;
#257 = AXIS2_PLACEMENT_3D ( 'NONE', #32, #239, #241 ) ;
#258 = DIRECTION ( 'NONE',  ( 1.000000000000000000, 0.0000000000000000000, 0.0000000000000000000 ) ) ;
#259 = PRESENTATION_LAYER_ASSIGNMENT (  '', '', ( #225 ) ) ;
#260 = EDGE_LOOP ( 'NONE', ( #88, #234, #256, #283 ) ) ;
#261 = LINE ( 'NONE', #254, #33 ) ;
#262 = EDGE_LOOP ( 'NONE', ( #7, #154, #107 ) ) ;
#263 = PRODUCT_DEFINITION_SHAPE ( 'NONE', 'NONE',  #310 ) ;
#264 = PRODUCT_DEFINITION_CONTEXT ( 'detailed design', #167, 'design' ) ;
#265 = DIRECTION ( 'NONE',  ( -0.0000000000000000000, -0.0000000000000000000, -1.000000000000000000 ) ) ;
#266 =( GEOMETRIC_REPRESENTATION_CONTEXT ( 3 ) GLOBAL_UNCERTAINTY_ASSIGNED_CONTEXT ( ( #53 ) ) GLOBAL_UNIT_ASSIGNED_CONTEXT ( ( #201, #34, #39 ) ) REPRESENTATION_CONTEXT ( 'NONE', 'WORKASPACE' ) );
#267 = DIRECTION ( 'NONE',  ( -1.000000000000000000, 0.0000000000000000000, 1.356612038155888783E-16 ) ) ;
#268 = LINE ( 'NONE', #136, #299 ) ;
#269 = DIRECTION ( 'NONE',  ( 1.000000000000000000, 0.0000000000000000000, 0.0000000000000000000 ) ) ;
#270 = DIRECTION ( 'NONE',  ( -1.000000000000000000, 0.0000000000000000000, 0.0000000000000000000 ) ) ;
#271 =( CONVERSION_BASED_UNIT ( 'INCH', #252 ) LENGTH_UNIT ( ) NAMED_UNIT ( #28 ) );
#272 = EDGE_CURVE ( 'NONE', #318, #50, #90, .T. ) ;
#273 = CARTESIAN_POINT ( 'NONE',  ( 0.0000000000000000000, 0.0000000000000000000, 1.496062999999999921 ) ) ;
#274 = CARTESIAN_POINT ( 'NONE',  ( 1.926645205517954404E-18, 0.0000000000000000000, 0.01573225199999999865 ) ) ;
#275 = CONICAL_SURFACE ( 'NONE', #61, 0.01573225199999999518, 0.1745329251994338915 ) ;
#276 = AXIS2_PLACEMENT_3D ( 'NONE', #155, #6, #148 ) ;
#277 = PRESENTATION_STYLE_ASSIGNMENT (( #166 ) ) ;
#278 = DIRECTION ( 'NONE',  ( -1.224646799147353207E-16, -0.0000000000000000000, -1.000000000000000000 ) ) ;
#279 = APPLICATION_PROTOCOL_DEFINITION ( 'draft international standard', 'automotive_design', 1998, #186 ) ;
#280 = VERTEX_POINT ( 'NONE', #287 ) ;
#281 = AXIS2_PLACEMENT_3D ( 'NONE', #41, #195, #247 ) ;
#282 = CARTESIAN_POINT ( 'NONE',  ( -0.05905499999999996863, 0.0000000000000000000, 0.2929395131082781489 ) ) ;
#283 = ORIENTED_EDGE ( 'NONE', *, *, #5, .F. ) ;
#284 = EDGE_CURVE ( 'NONE', #104, #50, #261, .T. ) ;
#285 = DIRECTION ( 'NONE',  ( 0.0000000000000000000, -1.000000000000000000, 0.0000000000000000000 ) ) ;
#286 = ORIENTED_EDGE ( 'NONE', *, *, #92, .F. ) ;
#287 = CARTESIAN_POINT ( 'NONE',  ( -0.05905500000000000332, 0.0000000000000000000, 1.481062999999999574 ) ) ;
#288 = ORIENTED_EDGE ( 'NONE', *, *, #292, .F. ) ;
#289 = CIRCLE ( 'NONE', #144, 0.01573225199999999865 ) ;
#290 = COLOUR_RGB ( '',0.7921568627450980005, 0.8196078431372548767, 0.9333333333333333481 ) ;
#291 = ORIENTED_EDGE ( 'NONE', *, *, #272, .F. ) ;
#292 = EDGE_CURVE ( 'NONE', #308, #245, #221, .T. ) ;
#293 = FACE_OUTER_BOUND ( 'NONE', #85, .T. ) ;
#294 = DIRECTION ( 'NONE',  ( -0.0000000000000000000, -0.0000000000000000000, -1.000000000000000000 ) ) ;
#295 = CIRCLE ( 'NONE', #230, 0.01573225199999999518 ) ;
#296 = CARTESIAN_POINT ( 'NONE',  ( 0.0000000000000000000, 0.0000000000000000000, 0.0000000000000000000 ) ) ;
#297 = CARTESIAN_POINT ( 'NONE',  ( 0.04405499999999973326, 5.395181473643630390E-18, 1.496062999999999921 ) ) ;
#298 = EDGE_LOOP ( 'NONE', ( #181, #150 ) ) ;
#299 = VECTOR ( 'NONE', #294, 39.37007874015748143 ) ;
#300 = DIRECTION ( 'NONE',  ( -1.000000000000000000, 0.0000000000000000000, 1.224646799147353207E-16 ) ) ;
#301 = AXIS2_PLACEMENT_3D ( 'NONE', #115, #164, #270 ) ;
#302 = PRODUCT_DEFINITION_FORMATION_WITH_SPECIFIED_SOURCE ( 'ANY', '', #2, .NOT_KNOWN. ) ;
#303 = CARTESIAN_POINT ( 'NONE',  ( 5.785721337891755876E-18, 0.0000000000000000000, 0.04724400000000000127 ) ) ;
#304 = DIRECTION ( 'NONE',  ( 1.000000000000000000, 0.0000000000000000000, 0.0000000000000000000 ) ) ;
#305 = FACE_OUTER_BOUND ( 'NONE', #27, .T. ) ;
#306 = STYLED_ITEM ( 'NONE', ( #312 ), #172 ) ;
#307 =( NAMED_UNIT ( * ) PLANE_ANGLE_UNIT ( ) SI_UNIT ( $, .RADIAN. ) );
#308 = VERTEX_POINT ( 'NONE', #100 ) ;
#309 = AXIS2_PLACEMENT_3D ( 'NONE', #119, #89, #169 ) ;
#310 = PRODUCT_DEFINITION ( 'UNKNOWN', '', #302, #264 ) ;
#311 = ORIENTED_EDGE ( 'NONE', *, *, #35, .T. ) ;
#312 = PRESENTATION_STYLE_ASSIGNMENT (( #26 ) ) ;
#313 = UNCERTAINTY_MEASURE_WITH_UNIT (LENGTH_MEASURE( 1.000000000000000082E-05 ), #271, 'distance_accuracy_value', 'NONE');
#314 =( LENGTH_UNIT ( ) NAMED_UNIT ( * ) SI_UNIT ( $, .METRE. ) );
#315 = EDGE_LOOP ( 'NONE', ( #228, #229, #206, #31 ) ) ;
#316 = VECTOR ( 'NONE', #217, 39.37007874015748143 ) ;
#317 = FACE_OUTER_BOUND ( 'NONE', #243, .T. ) ;
#318 = VERTEX_POINT ( 'NONE', #125 ) ;
#319 = CARTESIAN_POINT ( 'NONE',  ( 0.0000000000000000000, 0.0000000000000000000, 1.496062999999999921 ) ) ;
#320 = FACE_OUTER_BOUND ( 'NONE', #260, .T. ) ;
#321 = LINE ( 'NONE', #297, #122 ) ;
#322 = EDGE_CURVE ( 'NONE', #245, #308, #176, .T. ) ;
#323 = FACE_OUTER_BOUND ( 'NONE', #179, .T. ) ;
#324 = AXIS2_PLACEMENT_3D ( 'NONE', #134, #285, #51 ) ;
#325 = LINE ( 'NONE', #91, #220 ) ;
ENDSEC;
END-ISO-10303-21;
