ISO-10303-21;
HEADER;
FILE_DESCRIPTION (( 'STEP AP214' ),
    '1' );
FILE_NAME ('83315.STEP',
    '2023-06-23T09:27:47',
    ( '' ),
    ( '' ),
    'SwSTEP 2.0',
    'SolidWorks 2023',
    '' );
FILE_SCHEMA (( 'AUTOMOTIVE_DESIGN' ));
ENDSEC;

DATA;
#1 =( NAMED_UNIT ( * ) SI_UNIT ( $, .STERADIAN. ) SOLID_ANGLE_UNIT ( ) );
#2 = STYLED_ITEM ( 'NONE', ( #203 ), #100 ) ;
#3 =( NAMED_UNIT ( * ) PLANE_ANGLE_UNIT ( ) SI_UNIT ( $, .RADIAN. ) );
#4 = EDGE_CURVE ( 'NONE', #6, #221, #229, .T. ) ;
#5 =( CONVERSION_BASED_UNIT ( 'INCH', #217 ) LENGTH_UNIT ( ) NAMED_UNIT ( #205 ) );
#6 = VERTEX_POINT ( 'NONE', #124 ) ;
#7 = ORIENTED_EDGE ( 'NONE', *, *, #4, .T. ) ;
#8 =( CONVERSION_BASED_UNIT ( 'INCH', #286 ) LENGTH_UNIT ( ) NAMED_UNIT ( #248 ) );
#9 = CARTESIAN_POINT ( 'NONE',  ( 1.516480271171051896E-32, 2.500000000000000000, 0.000000000000000000 ) ) ;
#10 = SHAPE_DEFINITION_REPRESENTATION ( #50, #276 ) ;
#11 = CARTESIAN_POINT ( 'NONE',  ( 0.000000000000000000, 2.500000000000000000, 0.000000000000000000 ) ) ;
#12 = CIRCLE ( 'NONE', #148, 0.3125000000000000000 ) ;
#13 = CARTESIAN_POINT ( 'NONE',  ( 3.827021247335478926E-17, 2.500000000000000000, 0.3125000000000000000 ) ) ;
#14 =( LENGTH_UNIT ( ) NAMED_UNIT ( * ) SI_UNIT ( $, .METRE. ) );
#15 = DIRECTION ( 'NONE',  ( 0.000000000000000000, 0.000000000000000000, -1.000000000000000000 ) ) ;
#16 =( GEOMETRIC_REPRESENTATION_CONTEXT ( 3 ) GLOBAL_UNCERTAINTY_ASSIGNED_CONTEXT ( ( #113 ) ) GLOBAL_UNIT_ASSIGNED_CONTEXT ( ( #274, #297, #160 ) ) REPRESENTATION_CONTEXT ( 'NONE', 'WORKASPACE' ) );
#17 = CIRCLE ( 'NONE', #186, 0.3125000000000001665 ) ;
#18 = COLOUR_RGB ( '',1.000000000000000000, 0.000000000000000000, 0.000000000000000000 ) ;
#19 = EDGE_CURVE ( 'NONE', #221, #6, #12, .T. ) ;
#20 = ORIENTED_EDGE ( 'NONE', *, *, #112, .T. ) ;
#21 = VERTEX_POINT ( 'NONE', #77 ) ;
#22 = FILL_AREA_STYLE ('',( #120 ) ) ;
#23 = SURFACE_STYLE_USAGE ( .BOTH. , #167 ) ;
#24 = ORIENTED_EDGE ( 'NONE', *, *, #85, .F. ) ;
#25 = ORIENTED_EDGE ( 'NONE', *, *, #69, .F. ) ;
#26 = COLOUR_RGB ( '',0.7921568627450980005, 0.8196078431372548767, 0.9333333333333333481 ) ;
#27 = CARTESIAN_POINT ( 'NONE',  ( 1.516480271171051896E-32, 2.500000000000000000, 0.000000000000000000 ) ) ;
#28 = ORIENTED_EDGE ( 'NONE', *, *, #19, .F. ) ;
#29 = FACE_OUTER_BOUND ( 'NONE', #198, .T. ) ;
#30 = CARTESIAN_POINT ( 'NONE',  ( 0.000000000000000000, 0.000000000000000000, 0.000000000000000000 ) ) ;
#31 = DIMENSIONAL_EXPONENTS ( 1.000000000000000000, 0.000000000000000000, 0.000000000000000000, 0.000000000000000000, 0.000000000000000000, 0.000000000000000000, 0.000000000000000000 ) ;
#32 = PRODUCT_RELATED_PRODUCT_CATEGORY ( 'part', '', ( #67 ) ) ;
#33 =( GEOMETRIC_REPRESENTATION_CONTEXT ( 3 ) GLOBAL_UNCERTAINTY_ASSIGNED_CONTEXT ( ( #179 ) ) GLOBAL_UNIT_ASSIGNED_CONTEXT ( ( #164, #66, #1 ) ) REPRESENTATION_CONTEXT ( 'NONE', 'WORKASPACE' ) );
#34 = DIRECTION ( 'NONE',  ( 1.000000000000000000, 0.000000000000000000, 0.000000000000000000 ) ) ;
#35 = DIMENSIONAL_EXPONENTS ( 1.000000000000000000, 0.000000000000000000, 0.000000000000000000, 0.000000000000000000, 0.000000000000000000, 0.000000000000000000, 0.000000000000000000 ) ;
#36 = DIRECTION ( 'NONE',  ( -0.000000000000000000, -1.000000000000000000, -0.000000000000000000 ) ) ;
#37 = AXIS2_PLACEMENT_3D ( 'NONE', #261, #190, #309 ) ;
#38 = STYLED_ITEM ( 'NONE', ( #262 ), #194 ) ;
#39 = PRESENTATION_STYLE_ASSIGNMENT (( #62 ) ) ;
#40 = UNCERTAINTY_MEASURE_WITH_UNIT (LENGTH_MEASURE( 1.000000000000000082E-05 ), #8, 'distance_accuracy_value', 'NONE');
#41 = FILL_AREA_STYLE ('',( #183 ) ) ;
#42 = COLOUR_RGB ( '',1.000000000000000000, 0.000000000000000000, 0.000000000000000000 ) ;
#43 = APPLICATION_CONTEXT ( 'automotive_design' ) ;
#44 = EDGE_CURVE ( 'NONE', #6, #21, #96, .T. ) ;
#45 = DIRECTION ( 'NONE',  ( -1.000000000000000000, 0.000000000000000000, 0.000000000000000000 ) ) ;
#46 = FACE_OUTER_BOUND ( 'NONE', #161, .T. ) ;
#47 = PRESENTATION_LAYER_ASSIGNMENT (  '', '', ( #38 ) ) ;
#48 = ORIENTED_EDGE ( 'NONE', *, *, #19, .T. ) ;
#49 =( LENGTH_UNIT ( ) NAMED_UNIT ( * ) SI_UNIT ( $, .METRE. ) );
#50 = PRODUCT_DEFINITION_SHAPE ( 'NONE', 'NONE',  #134 ) ;
#51 = DIRECTION ( 'NONE',  ( -4.898587196589413075E-17, 1.000000000000000000, -0.000000000000000000 ) ) ;
#52 = PRESENTATION_LAYER_ASSIGNMENT (  '', '', ( #2 ) ) ;
#53 = ORIENTED_EDGE ( 'NONE', *, *, #152, .F. ) ;
#54 = ORIENTED_EDGE ( 'NONE', *, *, #85, .T. ) ;
#55 = CARTESIAN_POINT ( 'NONE',  ( 0.3124999999999999445, 5.000000000000000000, 3.827021247335479543E-17 ) ) ;
#56 = CARTESIAN_POINT ( 'NONE',  ( -1.224646799147353207E-16, 5.000000000000000000, 0.000000000000000000 ) ) ;
#57 = STYLED_ITEM ( 'NONE', ( #39 ), #143 ) ;
#58 = PRESENTATION_STYLE_ASSIGNMENT (( #267 ) ) ;
#59 = AXIS2_PLACEMENT_3D ( 'NONE', #30, #247, #34 ) ;
#60 = EDGE_CURVE ( 'NONE', #142, #79, #216, .T. ) ;
#61 = DIRECTION ( 'NONE',  ( 0.000000000000000000, 0.000000000000000000, -1.000000000000000000 ) ) ;
#62 = SURFACE_STYLE_USAGE ( .BOTH. , #305 ) ;
#63 = STYLED_ITEM ( 'NONE', ( #291 ), #76 ) ;
#64 = SURFACE_SIDE_STYLE ('',( #301 ) ) ;
#65 = MECHANICAL_DESIGN_GEOMETRIC_PRESENTATION_REPRESENTATION (  '', ( #38 ), #33 ) ;
#66 =( NAMED_UNIT ( * ) PLANE_ANGLE_UNIT ( ) SI_UNIT ( $, .RADIAN. ) );
#67 = PRODUCT ( '83315', '83315', '', ( #129 ) ) ;
#68 =( CONVERSION_BASED_UNIT ( 'INCH', #117 ) LENGTH_UNIT ( ) NAMED_UNIT ( #35 ) );
#69 = EDGE_CURVE ( 'NONE', #21, #103, #17, .T. ) ;
#70 = COLOUR_RGB ( '',0.7921568627450980005, 0.8196078431372548767, 0.9333333333333333481 ) ;
#71 = CARTESIAN_POINT ( 'NONE',  ( 0.000000000000000000, 2.500000000000000000, -0.3125000000000000000 ) ) ;
#72 = SURFACE_SIDE_STYLE ('',( #233 ) ) ;
#73 = EDGE_LOOP ( 'NONE', ( #169, #20 ) ) ;
#74 = SURFACE_STYLE_FILL_AREA ( #285 ) ;
#75 = DIMENSIONAL_EXPONENTS ( 1.000000000000000000, 0.000000000000000000, 0.000000000000000000, 0.000000000000000000, 0.000000000000000000, 0.000000000000000000, 0.000000000000000000 ) ;
#76 = ADVANCED_FACE ( 'NONE', ( #29 ), #241, .T. ) ;
#77 = CARTESIAN_POINT ( 'NONE',  ( 0.3125000000000000000, 5.000000000000000000, 3.827021247335479543E-17 ) ) ;
#78 = PLANE ( 'NONE',  #284 ) ;
#79 = VERTEX_POINT ( 'NONE', #158 ) ;
#80 = COLOUR_RGB ( '',1.000000000000000000, 0.000000000000000000, 0.000000000000000000 ) ;
#81 = DIRECTION ( 'NONE',  ( -1.000000000000000000, 0.000000000000000000, 0.000000000000000000 ) ) ;
#82 = CLOSED_SHELL ( 'NONE', ( #218, #256, #199, #90 ) ) ;
#83 = COLOUR_RGB ( '',1.000000000000000000, 0.000000000000000000, 0.000000000000000000 ) ;
#84 = CARTESIAN_POINT ( 'NONE',  ( -0.3125000000000002220, 5.000000000000000000, 0.000000000000000000 ) ) ;
#85 = EDGE_CURVE ( 'NONE', #221, #103, #206, .T. ) ;
#86 = DIRECTION ( 'NONE',  ( 4.898587196589412459E-17, -1.000000000000000000, 0.000000000000000000 ) ) ;
#87 = AXIS2_PLACEMENT_3D ( 'NONE', #102, #290, #178 ) ;
#88 = AXIS2_PLACEMENT_3D ( 'NONE', #239, #212, #189 ) ;
#89 = DIRECTION ( 'NONE',  ( -0.000000000000000000, -1.000000000000000000, -0.000000000000000000 ) ) ;
#90 = ADVANCED_FACE ( 'NONE', ( #228 ), #252, .F. ) ;
#91 = VECTOR ( 'NONE', #220, 39.37007874015748143 ) ;
#92 =( GEOMETRIC_REPRESENTATION_CONTEXT ( 3 ) GLOBAL_UNCERTAINTY_ASSIGNED_CONTEXT ( ( #236 ) ) GLOBAL_UNIT_ASSIGNED_CONTEXT ( ( #68, #3, #265 ) ) REPRESENTATION_CONTEXT ( 'NONE', 'WORKASPACE' ) );
#93 = CARTESIAN_POINT ( 'NONE',  ( 0.000000000000000000, 2.500000000000000000, 0.000000000000000000 ) ) ;
#94 = CARTESIAN_POINT ( 'NONE',  ( -0.3125000000000000000, 2.500000000000000000, 0.000000000000000000 ) ) ;
#95 = VECTOR ( 'NONE', #156, 39.37007874015748143 ) ;
#96 = LINE ( 'NONE', #55, #185 ) ;
#97 = CYLINDRICAL_SURFACE ( 'NONE', #37, 0.3125000000000000555 ) ;
#98 = DIMENSIONAL_EXPONENTS ( 1.000000000000000000, 0.000000000000000000, 0.000000000000000000, 0.000000000000000000, 0.000000000000000000, 0.000000000000000000, 0.000000000000000000 ) ;
#99 =( NAMED_UNIT ( * ) PLANE_ANGLE_UNIT ( ) SI_UNIT ( $, .RADIAN. ) );
#100 = MANIFOLD_SOLID_BREP ( 'Revolve - Tool Body (Straight Shanked)', #82 ) ;
#101 = SURFACE_STYLE_USAGE ( .BOTH. , #153 ) ;
#102 = CARTESIAN_POINT ( 'NONE',  ( 0.000000000000000000, 0.000000000000000000, 0.000000000000000000 ) ) ;
#103 = VERTEX_POINT ( 'NONE', #135 ) ;
#104 = CARTESIAN_POINT ( 'NONE',  ( 3.749399456654644447E-34, 2.500000000000000000, 0.000000000000000000 ) ) ;
#105 = CARTESIAN_POINT ( 'NONE',  ( 0.000000000000000000, 0.000000000000000000, -0.3125000000000000000 ) ) ;
#106 =( NAMED_UNIT ( * ) PLANE_ANGLE_UNIT ( ) SI_UNIT ( $, .RADIAN. ) );
#107 = DIRECTION ( 'NONE',  ( 1.000000000000000000, 4.898587196589412459E-17, 0.000000000000000000 ) ) ;
#108 = EDGE_CURVE ( 'NONE', #151, #173, #253, .T. ) ;
#109 = DIRECTION ( 'NONE',  ( 0.000000000000000000, 1.000000000000000000, 0.000000000000000000 ) ) ;
#110 = DIRECTION ( 'NONE',  ( 0.000000000000000000, -0.000000000000000000, 1.000000000000000000 ) ) ;
#111 = SURFACE_STYLE_FILL_AREA ( #184 ) ;
#112 = EDGE_CURVE ( 'NONE', #79, #173, #155, .T. ) ;
#113 = UNCERTAINTY_MEASURE_WITH_UNIT (LENGTH_MEASURE( 1.000000000000000082E-05 ), #274, 'distance_accuracy_value', 'NONE');
#114 = PRESENTATION_LAYER_ASSIGNMENT (  '', '', ( #162 ) ) ;
#115 =( GEOMETRIC_REPRESENTATION_CONTEXT ( 3 ) GLOBAL_UNCERTAINTY_ASSIGNED_CONTEXT ( ( #302 ) ) GLOBAL_UNIT_ASSIGNED_CONTEXT ( ( #5, #99, #295 ) ) REPRESENTATION_CONTEXT ( 'NONE', 'WORKASPACE' ) );
#116 = PRESENTATION_STYLE_ASSIGNMENT (( #23 ) ) ;
#117 = LENGTH_MEASURE_WITH_UNIT ( LENGTH_MEASURE( 0.02539999999999999897 ), #49 );
#118 = CIRCLE ( 'NONE', #269, 0.3125000000000000000 ) ;
#119 = DIRECTION ( 'NONE',  ( 0.000000000000000000, 0.000000000000000000, -1.000000000000000000 ) ) ;
#120 = FILL_AREA_STYLE_COLOUR ( '', #42 ) ;
#121 = LENGTH_MEASURE_WITH_UNIT ( LENGTH_MEASURE( 0.02539999999999999897 ), #192 );
#122 = ORIENTED_EDGE ( 'NONE', *, *, #44, .T. ) ;
#123 = CARTESIAN_POINT ( 'NONE',  ( 0.000000000000000000, 0.000000000000000000, 0.000000000000000000 ) ) ;
#124 = CARTESIAN_POINT ( 'NONE',  ( 0.3125000000000000000, 2.500000000000000000, 3.827021247335479543E-17 ) ) ;
#125 =( NAMED_UNIT ( * ) SI_UNIT ( $, .STERADIAN. ) SOLID_ANGLE_UNIT ( ) );
#126 = DIRECTION ( 'NONE',  ( -4.898587196589413075E-17, 1.000000000000000000, -0.000000000000000000 ) ) ;
#127 = DIRECTION ( 'NONE',  ( -4.898587196589412459E-17, 1.000000000000000000, 0.000000000000000000 ) ) ;
#128 = DIRECTION ( 'NONE',  ( -4.898587196589412459E-17, 1.000000000000000000, -0.000000000000000000 ) ) ;
#129 = PRODUCT_CONTEXT ( 'NONE', #43, 'mechanical' ) ;
#130 = UNCERTAINTY_MEASURE_WITH_UNIT (LENGTH_MEASURE( 1.000000000000000082E-05 ), #226, 'distance_accuracy_value', 'NONE');
#131 = CARTESIAN_POINT ( 'NONE',  ( 0.000000000000000000, 0.000000000000000000, 0.000000000000000000 ) ) ;
#132 = FACE_OUTER_BOUND ( 'NONE', #293, .T. ) ;
#133 = CIRCLE ( 'NONE', #88, 0.3125000000000000000 ) ;
#134 = PRODUCT_DEFINITION ( 'UNKNOWN', '', #182, #227 ) ;
#135 = CARTESIAN_POINT ( 'NONE',  ( -0.3125000000000002776, 5.000000000000000000, 0.000000000000000000 ) ) ;
#136 = CARTESIAN_POINT ( 'NONE',  ( 0.000000000000000000, 0.000000000000000000, -0.3125000000000000000 ) ) ;
#137 = PRESENTATION_LAYER_ASSIGNMENT (  '', '', ( #57 ) ) ;
#138 = EDGE_CURVE ( 'NONE', #173, #79, #149, .T. ) ;
#139 = FILL_AREA_STYLE_COLOUR ( '', #70 ) ;
#140 = AXIS2_PLACEMENT_3D ( 'NONE', #11, #109, #110 ) ;
#141 = FILL_AREA_STYLE_COLOUR ( '', #80 ) ;
#142 = VERTEX_POINT ( 'NONE', #13 ) ;
#143 = ADVANCED_FACE ( 'NONE', ( #132 ), #277, .T. ) ;
#144 = DIRECTION ( 'NONE',  ( -0.000000000000000000, -1.000000000000000000, -0.000000000000000000 ) ) ;
#145 = ORIENTED_EDGE ( 'NONE', *, *, #238, .F. ) ;
#146 = ORIENTED_EDGE ( 'NONE', *, *, #4, .F. ) ;
#147 = DIRECTION ( 'NONE',  ( 0.000000000000000000, 0.000000000000000000, -1.000000000000000000 ) ) ;
#148 = AXIS2_PLACEMENT_3D ( 'NONE', #9, #175, #289 ) ;
#149 = CIRCLE ( 'NONE', #278, 0.3125000000000000000 ) ;
#150 =( LENGTH_UNIT ( ) NAMED_UNIT ( * ) SI_UNIT ( $, .METRE. ) );
#151 = VERTEX_POINT ( 'NONE', #71 ) ;
#152 = EDGE_CURVE ( 'NONE', #103, #21, #249, .T. ) ;
#153 = SURFACE_SIDE_STYLE ('',( #224 ) ) ;
#154 = DIRECTION ( 'NONE',  ( -1.000000000000000000, -4.898587196589412459E-17, 0.000000000000000000 ) ) ;
#155 = CIRCLE ( 'NONE', #170, 0.3125000000000000000 ) ;
#156 = DIRECTION ( 'NONE',  ( -0.000000000000000000, -1.000000000000000000, -0.000000000000000000 ) ) ;
#157 = FACE_OUTER_BOUND ( 'NONE', #246, .T. ) ;
#158 = CARTESIAN_POINT ( 'NONE',  ( 3.827021247335478926E-17, 0.000000000000000000, 0.3125000000000000000 ) ) ;
#159 = CLOSED_SHELL ( 'NONE', ( #143, #76, #194, #255 ) ) ;
#160 =( NAMED_UNIT ( * ) SI_UNIT ( $, .STERADIAN. ) SOLID_ANGLE_UNIT ( ) );
#161 = EDGE_LOOP ( 'NONE', ( #268, #7, #54, #25 ) ) ;
#162 = STYLED_ITEM ( 'NONE', ( #116 ), #204 ) ;
#163 = ORIENTED_EDGE ( 'NONE', *, *, #209, .T. ) ;
#164 =( CONVERSION_BASED_UNIT ( 'INCH', #121 ) LENGTH_UNIT ( ) NAMED_UNIT ( #31 ) );
#165 = FACE_OUTER_BOUND ( 'NONE', #73, .T. ) ;
#166 = AXIS2_PLACEMENT_3D ( 'NONE', #181, #86, #107 ) ;
#167 = SURFACE_SIDE_STYLE ('',( #74 ) ) ;
#168 = ORIENTED_EDGE ( 'NONE', *, *, #60, .T. ) ;
#169 = ORIENTED_EDGE ( 'NONE', *, *, #138, .T. ) ;
#170 = AXIS2_PLACEMENT_3D ( 'NONE', #251, #36, #61 ) ;
#171 = DIRECTION ( 'NONE',  ( 0.000000000000000000, 0.000000000000000000, -1.000000000000000000 ) ) ;
#172 = DIRECTION ( 'NONE',  ( -4.898587196589413075E-17, 1.000000000000000000, -0.000000000000000000 ) ) ;
#173 = VERTEX_POINT ( 'NONE', #136 ) ;
#174 = CARTESIAN_POINT ( 'NONE',  ( 3.827021247335478926E-17, 0.000000000000000000, 0.3125000000000000000 ) ) ;
#175 = DIRECTION ( 'NONE',  ( -4.898587196589413075E-17, 1.000000000000000000, -0.000000000000000000 ) ) ;
#176 =( CONVERSION_BASED_UNIT ( 'INCH', #197 ) LENGTH_UNIT ( ) NAMED_UNIT ( #222 ) );
#177 = VECTOR ( 'NONE', #250, 39.37007874015748143 ) ;
#178 = DIRECTION ( 'NONE',  ( 0.000000000000000000, 0.000000000000000000, -1.000000000000000000 ) ) ;
#179 = UNCERTAINTY_MEASURE_WITH_UNIT (LENGTH_MEASURE( 1.000000000000000082E-05 ), #164, 'distance_accuracy_value', 'NONE');
#180 =( NAMED_UNIT ( * ) SI_UNIT ( $, .STERADIAN. ) SOLID_ANGLE_UNIT ( ) );
#181 = CARTESIAN_POINT ( 'NONE',  ( 0.3125000000000000000, 5.000000000000000000, 0.000000000000000000 ) ) ;
#182 = PRODUCT_DEFINITION_FORMATION_WITH_SPECIFIED_SOURCE ( 'ANY', '', #67, .NOT_KNOWN. ) ;
#183 = FILL_AREA_STYLE_COLOUR ( '', #18 ) ;
#184 = FILL_AREA_STYLE ('',( #231 ) ) ;
#185 = VECTOR ( 'NONE', #128, 39.37007874015748143 ) ;
#186 = AXIS2_PLACEMENT_3D ( 'NONE', #56, #172, #271 ) ;
#187 = DIRECTION ( 'NONE',  ( -0.000000000000000000, -1.000000000000000000, -0.000000000000000000 ) ) ;
#188 = FACE_OUTER_BOUND ( 'NONE', #193, .T. ) ;
#189 = DIRECTION ( 'NONE',  ( 0.000000000000000000, 0.000000000000000000, -1.000000000000000000 ) ) ;
#190 = DIRECTION ( 'NONE',  ( -4.898587196589413075E-17, 1.000000000000000000, -0.000000000000000000 ) ) ;
#191 = AXIS2_PLACEMENT_3D ( 'NONE', #123, #219, #171 ) ;
#192 =( LENGTH_UNIT ( ) NAMED_UNIT ( * ) SI_UNIT ( $, .METRE. ) );
#193 = EDGE_LOOP ( 'NONE', ( #48, #122, #53, #24 ) ) ;
#194 = ADVANCED_FACE ( 'NONE', ( #296 ), #299, .T. ) ;
#195 = ORIENTED_EDGE ( 'NONE', *, *, #60, .F. ) ;
#196 = APPLICATION_CONTEXT ( 'automotive_design' ) ;
#197 = LENGTH_MEASURE_WITH_UNIT ( LENGTH_MEASURE( 0.02539999999999999897 ), #150 );
#198 = EDGE_LOOP ( 'NONE', ( #145, #240 ) ) ;
#199 = ADVANCED_FACE ( 'NONE', ( #46 ), #97, .T. ) ;
#200 = SURFACE_STYLE_FILL_AREA ( #298 ) ;
#201 =( NAMED_UNIT ( * ) PLANE_ANGLE_UNIT ( ) SI_UNIT ( $, .RADIAN. ) );
#202 = DIRECTION ( 'NONE',  ( -1.000000000000000000, 0.000000000000000000, 0.000000000000000000 ) ) ;
#203 = PRESENTATION_STYLE_ASSIGNMENT (( #232 ) ) ;
#204 = MANIFOLD_SOLID_BREP ( 'Revolve - Cutting Edge', #159 ) ;
#205 = DIMENSIONAL_EXPONENTS ( 1.000000000000000000, 0.000000000000000000, 0.000000000000000000, 0.000000000000000000, 0.000000000000000000, 0.000000000000000000, 0.000000000000000000 ) ;
#206 = LINE ( 'NONE', #84, #177 ) ;
#207 = AXIS2_PLACEMENT_3D ( 'NONE', #287, #144, #147 ) ;
#208 =( NAMED_UNIT ( * ) PLANE_ANGLE_UNIT ( ) SI_UNIT ( $, .RADIAN. ) );
#209 = EDGE_CURVE ( 'NONE', #142, #151, #118, .T. ) ;
#210 = AXIS2_PLACEMENT_3D ( 'NONE', #242, #258, #45 ) ;
#211 = MECHANICAL_DESIGN_GEOMETRIC_PRESENTATION_REPRESENTATION (  '', ( #260 ), #304 ) ;
#212 = DIRECTION ( 'NONE',  ( -0.000000000000000000, -1.000000000000000000, -0.000000000000000000 ) ) ;
#213 = ORIENTED_EDGE ( 'NONE', *, *, #238, .T. ) ;
#214 = SURFACE_STYLE_USAGE ( .BOTH. , #72 ) ;
#215 = ORIENTED_EDGE ( 'NONE', *, *, #152, .T. ) ;
#216 = LINE ( 'NONE', #174, #91 ) ;
#217 = LENGTH_MEASURE_WITH_UNIT ( LENGTH_MEASURE( 0.02539999999999999897 ), #294 );
#218 = ADVANCED_FACE ( 'NONE', ( #188 ), #282, .T. ) ;
#219 = DIRECTION ( 'NONE',  ( -0.000000000000000000, -1.000000000000000000, -0.000000000000000000 ) ) ;
#220 = DIRECTION ( 'NONE',  ( -0.000000000000000000, -1.000000000000000000, -0.000000000000000000 ) ) ;
#221 = VERTEX_POINT ( 'NONE', #94 ) ;
#222 = DIMENSIONAL_EXPONENTS ( 1.000000000000000000, 0.000000000000000000, 0.000000000000000000, 0.000000000000000000, 0.000000000000000000, 0.000000000000000000, 0.000000000000000000 ) ;
#223 = SURFACE_SIDE_STYLE ('',( #200 ) ) ;
#224 = SURFACE_STYLE_FILL_AREA ( #22 ) ;
#225 = APPLICATION_PROTOCOL_DEFINITION ( 'draft international standard', 'automotive_design', 1998, #196 ) ;
#226 =( CONVERSION_BASED_UNIT ( 'INCH', #303 ) LENGTH_UNIT ( ) NAMED_UNIT ( #98 ) );
#227 = PRODUCT_DEFINITION_CONTEXT ( 'detailed design', #196, 'design' ) ;
#228 = FACE_OUTER_BOUND ( 'NONE', #288, .T. ) ;
#229 = CIRCLE ( 'NONE', #280, 0.3125000000000000000 ) ;
#230 =( GEOMETRIC_REPRESENTATION_CONTEXT ( 3 ) GLOBAL_UNCERTAINTY_ASSIGNED_CONTEXT ( ( #130 ) ) GLOBAL_UNIT_ASSIGNED_CONTEXT ( ( #226, #208, #307 ) ) REPRESENTATION_CONTEXT ( 'NONE', 'WORKASPACE' ) );
#231 = FILL_AREA_STYLE_COLOUR ( '', #83 ) ;
#232 = SURFACE_STYLE_USAGE ( .BOTH. , #64 ) ;
#233 = SURFACE_STYLE_FILL_AREA ( #41 ) ;
#234 = PRESENTATION_LAYER_ASSIGNMENT (  '', '', ( #260 ) ) ;
#235 = AXIS2_PLACEMENT_3D ( 'NONE', #266, #51, #202 ) ;
#236 = UNCERTAINTY_MEASURE_WITH_UNIT (LENGTH_MEASURE( 1.000000000000000082E-05 ), #68, 'distance_accuracy_value', 'NONE');
#237 = MECHANICAL_DESIGN_GEOMETRIC_PRESENTATION_REPRESENTATION (  '', ( #57 ), #230 ) ;
#238 = EDGE_CURVE ( 'NONE', #151, #142, #133, .T. ) ;
#239 = CARTESIAN_POINT ( 'NONE',  ( 0.000000000000000000, 2.500000000000000000, 0.000000000000000000 ) ) ;
#240 = ORIENTED_EDGE ( 'NONE', *, *, #209, .F. ) ;
#241 = PLANE ( 'NONE',  #140 ) ;
#242 = CARTESIAN_POINT ( 'NONE',  ( -1.224646799147353207E-16, 5.000000000000000000, 0.000000000000000000 ) ) ;
#243 = ORIENTED_EDGE ( 'NONE', *, *, #108, .F. ) ;
#244 =( LENGTH_UNIT ( ) NAMED_UNIT ( * ) SI_UNIT ( $, .METRE. ) );
#245 = ORIENTED_EDGE ( 'NONE', *, *, #112, .F. ) ;
#246 = EDGE_LOOP ( 'NONE', ( #28, #146 ) ) ;
#247 = DIRECTION ( 'NONE',  ( 0.000000000000000000, 0.000000000000000000, 1.000000000000000000 ) ) ;
#248 = DIMENSIONAL_EXPONENTS ( 1.000000000000000000, 0.000000000000000000, 0.000000000000000000, 0.000000000000000000, 0.000000000000000000, 0.000000000000000000, 0.000000000000000000 ) ;
#249 = CIRCLE ( 'NONE', #235, 0.3125000000000001665 ) ;
#250 = DIRECTION ( 'NONE',  ( -4.898587196589412459E-17, 1.000000000000000000, -0.000000000000000000 ) ) ;
#251 = CARTESIAN_POINT ( 'NONE',  ( 0.000000000000000000, 0.000000000000000000, 0.000000000000000000 ) ) ;
#252 = PLANE ( 'NONE',  #166 ) ;
#253 = LINE ( 'NONE', #105, #95 ) ;
#254 =( LENGTH_UNIT ( ) NAMED_UNIT ( * ) SI_UNIT ( $, .METRE. ) );
#255 = ADVANCED_FACE ( 'NONE', ( #165 ), #283, .T. ) ;
#256 = ADVANCED_FACE ( 'NONE', ( #157 ), #78, .F. ) ;
#257 = MECHANICAL_DESIGN_GEOMETRIC_PRESENTATION_REPRESENTATION (  '', ( #63 ), #308 ) ;
#258 = DIRECTION ( 'NONE',  ( -4.898587196589413075E-17, 1.000000000000000000, -0.000000000000000000 ) ) ;
#259 = PRESENTATION_LAYER_ASSIGNMENT (  '', '', ( #63 ) ) ;
#260 = STYLED_ITEM ( 'NONE', ( #58 ), #255 ) ;
#261 = CARTESIAN_POINT ( 'NONE',  ( -1.224646799147353207E-16, 5.000000000000000000, 0.000000000000000000 ) ) ;
#262 = PRESENTATION_STYLE_ASSIGNMENT (( #214 ) ) ;
#263 = EDGE_LOOP ( 'NONE', ( #195, #163, #292, #245 ) ) ;
#264 = ORIENTED_EDGE ( 'NONE', *, *, #138, .F. ) ;
#265 =( NAMED_UNIT ( * ) SI_UNIT ( $, .STERADIAN. ) SOLID_ANGLE_UNIT ( ) );
#266 = CARTESIAN_POINT ( 'NONE',  ( -1.224646799147353207E-16, 5.000000000000000000, 0.000000000000000000 ) ) ;
#267 = SURFACE_STYLE_USAGE ( .BOTH. , #223 ) ;
#268 = ORIENTED_EDGE ( 'NONE', *, *, #44, .F. ) ;
#269 = AXIS2_PLACEMENT_3D ( 'NONE', #93, #187, #119 ) ;
#270 = ORIENTED_EDGE ( 'NONE', *, *, #69, .T. ) ;
#271 = DIRECTION ( 'NONE',  ( -1.000000000000000000, 0.000000000000000000, 0.000000000000000000 ) ) ;
#272 = APPLICATION_PROTOCOL_DEFINITION ( 'draft international standard', 'automotive_design', 1998, #43 ) ;
#273 = MECHANICAL_DESIGN_GEOMETRIC_PRESENTATION_REPRESENTATION (  '', ( #2 ), #16 ) ;
#274 =( CONVERSION_BASED_UNIT ( 'INCH', #300 ) LENGTH_UNIT ( ) NAMED_UNIT ( #75 ) );
#275 = FILL_AREA_STYLE_COLOUR ( '', #26 ) ;
#276 = ADVANCED_BREP_SHAPE_REPRESENTATION ( '83315', ( #204, #100, #59 ), #115 ) ;
#277 = CYLINDRICAL_SURFACE ( 'NONE', #191, 0.3125000000000000000 ) ;
#278 = AXIS2_PLACEMENT_3D ( 'NONE', #131, #89, #15 ) ;
#279 = FILL_AREA_STYLE ('',( #275 ) ) ;
#280 = AXIS2_PLACEMENT_3D ( 'NONE', #27, #126, #81 ) ;
#281 = MECHANICAL_DESIGN_GEOMETRIC_PRESENTATION_REPRESENTATION (  '', ( #162 ), #92 ) ;
#282 = CYLINDRICAL_SURFACE ( 'NONE', #210, 0.3125000000000000555 ) ;
#283 = PLANE ( 'NONE',  #87 ) ;
#284 = AXIS2_PLACEMENT_3D ( 'NONE', #104, #127, #154 ) ;
#285 = FILL_AREA_STYLE ('',( #139 ) ) ;
#286 = LENGTH_MEASURE_WITH_UNIT ( LENGTH_MEASURE( 0.02539999999999999897 ), #244 );
#287 = CARTESIAN_POINT ( 'NONE',  ( 0.000000000000000000, 0.000000000000000000, 0.000000000000000000 ) ) ;
#288 = EDGE_LOOP ( 'NONE', ( #215, #270 ) ) ;
#289 = DIRECTION ( 'NONE',  ( -1.000000000000000000, 0.000000000000000000, 0.000000000000000000 ) ) ;
#290 = DIRECTION ( 'NONE',  ( 0.000000000000000000, -1.000000000000000000, -0.000000000000000000 ) ) ;
#291 = PRESENTATION_STYLE_ASSIGNMENT (( #101 ) ) ;
#292 = ORIENTED_EDGE ( 'NONE', *, *, #108, .T. ) ;
#293 = EDGE_LOOP ( 'NONE', ( #213, #168, #264, #243 ) ) ;
#294 =( LENGTH_UNIT ( ) NAMED_UNIT ( * ) SI_UNIT ( $, .METRE. ) );
#295 =( NAMED_UNIT ( * ) SI_UNIT ( $, .STERADIAN. ) SOLID_ANGLE_UNIT ( ) );
#296 = FACE_OUTER_BOUND ( 'NONE', #263, .T. ) ;
#297 =( NAMED_UNIT ( * ) PLANE_ANGLE_UNIT ( ) SI_UNIT ( $, .RADIAN. ) );
#298 = FILL_AREA_STYLE ('',( #141 ) ) ;
#299 = CYLINDRICAL_SURFACE ( 'NONE', #207, 0.3125000000000000000 ) ;
#300 = LENGTH_MEASURE_WITH_UNIT ( LENGTH_MEASURE( 0.02539999999999999897 ), #254 );
#301 = SURFACE_STYLE_FILL_AREA ( #279 ) ;
#302 = UNCERTAINTY_MEASURE_WITH_UNIT (LENGTH_MEASURE( 1.000000000000000082E-05 ), #5, 'distance_accuracy_value', 'NONE');
#303 = LENGTH_MEASURE_WITH_UNIT ( LENGTH_MEASURE( 0.02539999999999999897 ), #14 );
#304 =( GEOMETRIC_REPRESENTATION_CONTEXT ( 3 ) GLOBAL_UNCERTAINTY_ASSIGNED_CONTEXT ( ( #306 ) ) GLOBAL_UNIT_ASSIGNED_CONTEXT ( ( #176, #106, #125 ) ) REPRESENTATION_CONTEXT ( 'NONE', 'WORKASPACE' ) );
#305 = SURFACE_SIDE_STYLE ('',( #111 ) ) ;
#306 = UNCERTAINTY_MEASURE_WITH_UNIT (LENGTH_MEASURE( 1.000000000000000082E-05 ), #176, 'distance_accuracy_value', 'NONE');
#307 =( NAMED_UNIT ( * ) SI_UNIT ( $, .STERADIAN. ) SOLID_ANGLE_UNIT ( ) );
#308 =( GEOMETRIC_REPRESENTATION_CONTEXT ( 3 ) GLOBAL_UNCERTAINTY_ASSIGNED_CONTEXT ( ( #40 ) ) GLOBAL_UNIT_ASSIGNED_CONTEXT ( ( #8, #201, #180 ) ) REPRESENTATION_CONTEXT ( 'NONE', 'WORKASPACE' ) );
#309 = DIRECTION ( 'NONE',  ( -1.000000000000000000, 0.000000000000000000, 0.000000000000000000 ) ) ;
ENDSEC;
END-ISO-10303-21;
