ISO-10303-21;
HEADER;
FILE_DESCRIPTION (( 'STEP AP214' ),
    '1' );
FILE_NAME ('Micro_CREM-100-400.STEP',
    '2021-09-02T15:23:52',
    ( '' ),
    ( '' ),
    'SwSTEP 2.0',
    'SolidWorks 2020',
    '' );
FILE_SCHEMA (( 'AUTOMOTIVE_DESIGN' ));
ENDSEC;

DATA;
#1 = PRODUCT ( 'Micro_CREM-100-400', 'Micro_CREM-100-400', '', ( #166 ) ) ;
#2 = ORIENTED_EDGE ( 'NONE', *, *, #115, .F. ) ;
#3 = ADVANCED_FACE ( 'NONE', ( #317 ), #112, .T. ) ;
#4 =( LENGTH_UNIT ( ) NAMED_UNIT ( * ) SI_UNIT ( $, .METRE. ) );
#5 = ORIENTED_EDGE ( 'NONE', *, *, #83, .F. ) ;
#6 = CARTESIAN_POINT ( 'NONE',  ( 0.0000000000000000000, 0.0000000000000000000, 0.0000000000000000000 ) ) ;
#7 = VERTEX_POINT ( 'NONE', #168 ) ;
#8 = EDGE_CURVE ( 'NONE', #134, #7, #13, .T. ) ;
#9 = FACE_OUTER_BOUND ( 'NONE', #274, .T. ) ;
#10 = ORIENTED_EDGE ( 'NONE', *, *, #139, .F. ) ;
#11 = EDGE_CURVE ( 'NONE', #208, #281, #95, .T. ) ;
#12 = AXIS2_PLACEMENT_3D ( 'NONE', #296, #67, #171 ) ;
#13 = LINE ( 'NONE', #109, #78 ) ;
#14 = DIRECTION ( 'NONE',  ( 0.0000000000000000000, 0.0000000000000000000, -1.000000000000000000 ) ) ;
#15 = ADVANCED_FACE ( 'NONE', ( #9 ), #190, .T. ) ;
#16 = FACE_OUTER_BOUND ( 'NONE', #180, .T. ) ;
#17 = AXIS2_PLACEMENT_3D ( 'NONE', #56, #138, #235 ) ;
#18 = PRODUCT_DEFINITION_FORMATION_WITH_SPECIFIED_SOURCE ( 'ANY', '', #1, .NOT_KNOWN. ) ;
#19 = DIRECTION ( 'NONE',  ( 0.0000000000000000000, 0.0000000000000000000, 1.000000000000000000 ) ) ;
#20 = DIRECTION ( 'NONE',  ( -1.144493998877115178E-16, -0.0000000000000000000, -1.000000000000000000 ) ) ;
#21 = CARTESIAN_POINT ( 'NONE',  ( 0.0000000000000000000, 0.0000000000000000000, 2.859016000000000446 ) ) ;
#22 = LENGTH_MEASURE_WITH_UNIT ( LENGTH_MEASURE( 0.02539999999999999897 ), #4 );
#23 = CIRCLE ( 'NONE', #298, 0.1870039832375812172 ) ;
#24 = ORIENTED_EDGE ( 'NONE', *, *, #315, .T. ) ;
#25 = EDGE_LOOP ( 'NONE', ( #129, #5, #167, #2 ) ) ;
#26 = DIRECTION ( 'NONE',  ( 0.7071067811865483499, 8.659560562354942719E-17, -0.7071067811865467956 ) ) ;
#27 = ORIENTED_EDGE ( 'NONE', *, *, #11, .F. ) ;
#28 = MANIFOLD_SOLID_BREP ( 'Cut-Revolve1', #191 ) ;
#29 = CARTESIAN_POINT ( 'NONE',  ( 0.0000000000000000000, 0.0000000000000000000, 0.005117998791752685454 ) ) ;
#30 = VERTEX_POINT ( 'NONE', #267 ) ;
#31 = CIRCLE ( 'NONE', #304, 0.1968504999999999838 ) ;
#32 =( CONVERSION_BASED_UNIT ( 'INCH', #133 ) LENGTH_UNIT ( ) NAMED_UNIT ( #179 ) );
#33 = FACE_OUTER_BOUND ( 'NONE', #156, .T. ) ;
#34 = EDGE_LOOP ( 'NONE', ( #77, #106, #47, #143 ) ) ;
#35 = CARTESIAN_POINT ( 'NONE',  ( 0.1870039832375812450, 2.290138294997091703E-17, 0.1625979987917526015 ) ) ;
#36 = UNCERTAINTY_MEASURE_WITH_UNIT (LENGTH_MEASURE( 1.000000000000000082E-05 ), #32, 'distance_accuracy_value', 'NONE');
#37 = DIRECTION ( 'NONE',  ( -0.0000000000000000000, -0.0000000000000000000, -1.000000000000000000 ) ) ;
#38 = DIRECTION ( 'NONE',  ( 0.0000000000000000000, 0.0000000000000000000, 1.000000000000000000 ) ) ;
#39 = AXIS2_PLACEMENT_3D ( 'NONE', #84, #164, #141 ) ;
#40 = TOROIDAL_SURFACE ( 'NONE', #12, 0.1870039832375812450, 0.1574799999999999811 ) ;
#41 = CARTESIAN_POINT ( 'NONE',  ( -0.1870039832375811617, 0.0000000000000000000, 0.1625979987917526570 ) ) ;
#42 = DIRECTION ( 'NONE',  ( 0.0000000000000000000, -1.000000000000000000, 0.0000000000000000000 ) ) ;
#43 = EDGE_CURVE ( 'NONE', #301, #208, #116, .T. ) ;
#44 = CYLINDRICAL_SURFACE ( 'NONE', #230, 0.1968504999999999838 ) ;
#45 = CARTESIAN_POINT ( 'NONE',  ( 9.122776870542952858E-18, 0.0000000000000000000, 0.005117998791752713210 ) ) ;
#46 = AXIS2_PLACEMENT_3D ( 'NONE', #91, #194, #70 ) ;
#47 = ORIENTED_EDGE ( 'NONE', *, *, #270, .T. ) ;
#48 = CARTESIAN_POINT ( 'NONE',  ( 0.0000000000000000000, 0.0000000000000000000, 0.1625979987917529346 ) ) ;
#49 = EDGE_LOOP ( 'NONE', ( #263, #207 ) ) ;
#50 = EDGE_LOOP ( 'NONE', ( #170, #131, #283, #205 ) ) ;
#51 = DIRECTION ( 'NONE',  ( -1.000000000000000000, 0.0000000000000000000, 1.826062703563884531E-16 ) ) ;
#52 = ORIENTED_EDGE ( 'NONE', *, *, #115, .T. ) ;
#53 = ADVANCED_BREP_SHAPE_REPRESENTATION ( 'Micro_CREM-100-400', ( #28, #260 ), #144 ) ;
#54 = AXIS2_PLACEMENT_3D ( 'NONE', #209, #86, #237 ) ;
#55 = STYLED_ITEM ( 'NONE', ( #306 ), #53 ) ;
#56 = CARTESIAN_POINT ( 'NONE',  ( 0.1870039832375812450, 2.290138294997091703E-17, 0.005117998791752664638 ) ) ;
#57 = EDGE_LOOP ( 'NONE', ( #232, #229 ) ) ;
#58 = VERTEX_POINT ( 'NONE', #290 ) ;
#59 = VECTOR ( 'NONE', #37, 39.37007874015748143 ) ;
#60 =( NAMED_UNIT ( * ) PLANE_ANGLE_UNIT ( ) SI_UNIT ( $, .RADIAN. ) );
#61 = DIRECTION ( 'NONE',  ( -1.144493998877115178E-16, -0.0000000000000000000, -1.000000000000000000 ) ) ;
#62 = ADVANCED_FACE ( 'NONE', ( #33 ), #140, .F. ) ;
#63 = VECTOR ( 'NONE', #61, 39.37007874015748143 ) ;
#64 = CARTESIAN_POINT ( 'NONE',  ( 0.1818505000000002481, 2.318874837419510591E-17, 2.874016000000000126 ) ) ;
#65 = LINE ( 'NONE', #220, #59 ) ;
#66 = PRODUCT_DEFINITION ( 'UNKNOWN', '', #18, #292 ) ;
#67 = DIRECTION ( 'NONE',  ( -1.144493998877115178E-16, -0.0000000000000000000, -1.000000000000000000 ) ) ;
#68 = CIRCLE ( 'NONE', #259, 0.1574799999999999811 ) ;
#69 = CONICAL_SURFACE ( 'NONE', #198, 0.1818505000000002481, 0.7853981633974492782 ) ;
#70 = DIRECTION ( 'NONE',  ( -1.000000000000000000, 0.0000000000000000000, 1.144493998877115178E-16 ) ) ;
#71 = EDGE_CURVE ( 'NONE', #74, #101, #108, .T. ) ;
#72 = ORIENTED_EDGE ( 'NONE', *, *, #309, .T. ) ;
#73 = SURFACE_STYLE_FILL_AREA ( #302 ) ;
#74 = VERTEX_POINT ( 'NONE', #189 ) ;
#75 = ORIENTED_EDGE ( 'NONE', *, *, #165, .T. ) ;
#76 = SURFACE_STYLE_USAGE ( .BOTH. , #183 ) ;
#77 = ORIENTED_EDGE ( 'NONE', *, *, #135, .F. ) ;
#78 = VECTOR ( 'NONE', #262, 39.37007874015748143 ) ;
#79 = VERTEX_POINT ( 'NONE', #41 ) ;
#80 = CIRCLE ( 'NONE', #236, 0.1870039832375812172 ) ;
#81 = APPLICATION_PROTOCOL_DEFINITION ( 'draft international standard', 'automotive_design', 1998, #261 ) ;
#82 = DIRECTION ( 'NONE',  ( -1.144493998877115178E-16, -0.0000000000000000000, -1.000000000000000000 ) ) ;
#83 = EDGE_CURVE ( 'NONE', #30, #233, #323, .T. ) ;
#84 = CARTESIAN_POINT ( 'NONE',  ( 0.0000000000000000000, 0.0000000000000000000, 2.874016000000000126 ) ) ;
#85 =( NAMED_UNIT ( * ) SI_UNIT ( $, .STERADIAN. ) SOLID_ANGLE_UNIT ( ) );
#86 = DIRECTION ( 'NONE',  ( 0.0000000000000000000, 0.0000000000000000000, 1.000000000000000000 ) ) ;
#87 = DIRECTION ( 'NONE',  ( -0.0000000000000000000, -0.0000000000000000000, -1.000000000000000000 ) ) ;
#88 = UNCERTAINTY_MEASURE_WITH_UNIT (LENGTH_MEASURE( 1.000000000000000082E-05 ), #204, 'distance_accuracy_value', 'NONE');
#89 = DIRECTION ( 'NONE',  ( -1.000000000000000000, 0.0000000000000000000, 0.0000000000000000000 ) ) ;
#90 = PRESENTATION_LAYER_ASSIGNMENT (  '', '', ( #55 ) ) ;
#91 = CARTESIAN_POINT ( 'NONE',  ( 8.537024980200822558E-18, 0.0000000000000000000, -5.510910596163092637E-18 ) ) ;
#92 = EDGE_CURVE ( 'NONE', #100, #58, #65, .T. ) ;
#93 = LINE ( 'NONE', #291, #63 ) ;
#94 = DIRECTION ( 'NONE',  ( -1.000000000000000000, 0.0000000000000000000, 0.0000000000000000000 ) ) ;
#95 = CIRCLE ( 'NONE', #54, 0.02952398323758127080 ) ;
#96 = AXIS2_PLACEMENT_3D ( 'NONE', #297, #217, #94 ) ;
#97 = FACE_BOUND ( 'NONE', #49, .T. ) ;
#98 = PLANE ( 'NONE',  #110 ) ;
#99 = EDGE_CURVE ( 'NONE', #301, #79, #68, .T. ) ;
#100 = VERTEX_POINT ( 'NONE', #273 ) ;
#101 = VERTEX_POINT ( 'NONE', #35 ) ;
#102 = DIRECTION ( 'NONE',  ( -1.000000000000000000, 0.0000000000000000000, 1.084333486377354492E-16 ) ) ;
#103 = AXIS2_PLACEMENT_3D ( 'NONE', #146, #177, #293 ) ;
#104 = DIRECTION ( 'NONE',  ( -0.0000000000000000000, -0.0000000000000000000, -1.000000000000000000 ) ) ;
#105 = ORIENTED_EDGE ( 'NONE', *, *, #99, .T. ) ;
#106 = ORIENTED_EDGE ( 'NONE', *, *, #71, .T. ) ;
#107 = EDGE_CURVE ( 'NONE', #233, #30, #277, .T. ) ;
#108 = CIRCLE ( 'NONE', #17, 0.1574799999999999811 ) ;
#109 = CARTESIAN_POINT ( 'NONE',  ( 0.1968504999999999838, 2.410723347355560646E-17, 2.874016000000000126 ) ) ;
#110 = AXIS2_PLACEMENT_3D ( 'NONE', #231, #327, #200 ) ;
#111 = DIRECTION ( 'NONE',  ( -1.000000000000000000, 0.0000000000000000000, 1.144493998877115178E-16 ) ) ;
#112 = PLANE ( 'NONE',  #39 ) ;
#113 = DIRECTION ( 'NONE',  ( -1.000000000000000000, 0.0000000000000000000, 1.144493998877115178E-16 ) ) ;
#114 = AXIS2_PLACEMENT_3D ( 'NONE', #193, #249, #272 ) ;
#115 = EDGE_CURVE ( 'NONE', #134, #100, #31, .T. ) ;
#116 = LINE ( 'NONE', #213, #264 ) ;
#117 = CARTESIAN_POINT ( 'NONE',  ( -0.02952398323758126386, 0.0000000000000000000, 0.0000000000000000000 ) ) ;
#118 = DIRECTION ( 'NONE',  ( 1.000000000000000000, 0.0000000000000000000, -0.0000000000000000000 ) ) ;
#119 = ADVANCED_FACE ( 'NONE', ( #121 ), #271, .T. ) ;
#120 = CIRCLE ( 'NONE', #114, 0.02952398323758128121 ) ;
#121 = FACE_OUTER_BOUND ( 'NONE', #310, .T. ) ;
#122 = FACE_OUTER_BOUND ( 'NONE', #34, .T. ) ;
#123 = DIRECTION ( 'NONE',  ( 0.0000000000000000000, 0.0000000000000000000, -1.000000000000000000 ) ) ;
#124 = AXIS2_PLACEMENT_3D ( 'NONE', #192, #82, #111 ) ;
#125 = AXIS2_PLACEMENT_3D ( 'NONE', #325, #197, #118 ) ;
#126 = DIMENSIONAL_EXPONENTS ( 1.000000000000000000, 0.0000000000000000000, 0.0000000000000000000, 0.0000000000000000000, 0.0000000000000000000, 0.0000000000000000000, 0.0000000000000000000 ) ;
#127 = EDGE_LOOP ( 'NONE', ( #27, #228 ) ) ;
#128 =( NAMED_UNIT ( * ) PLANE_ANGLE_UNIT ( ) SI_UNIT ( $, .RADIAN. ) );
#129 = ORIENTED_EDGE ( 'NONE', *, *, #309, .F. ) ;
#130 = DIRECTION ( 'NONE',  ( -1.000000000000000000, 0.0000000000000000000, 1.734722539226636070E-16 ) ) ;
#131 = ORIENTED_EDGE ( 'NONE', *, *, #8, .T. ) ;
#132 = ADVANCED_FACE ( 'NONE', ( #149 ), #196, .F. ) ;
#133 = LENGTH_MEASURE_WITH_UNIT ( LENGTH_MEASURE( 0.02539999999999999897 ), #159 );
#134 = VERTEX_POINT ( 'NONE', #222 ) ;
#135 = EDGE_CURVE ( 'NONE', #74, #301, #120, .T. ) ;
#136 = APPLICATION_PROTOCOL_DEFINITION ( 'draft international standard', 'automotive_design', 1998, #223 ) ;
#137 = ORIENTED_EDGE ( 'NONE', *, *, #221, .F. ) ;
#138 = DIRECTION ( 'NONE',  ( -1.224646799147353207E-16, 1.000000000000000000, 1.401600912368213631E-32 ) ) ;
#139 = EDGE_CURVE ( 'NONE', #74, #281, #93, .T. ) ;
#140 = TOROIDAL_SURFACE ( 'NONE', #211, 0.1870039832375812450, 0.1574799999999999811 ) ;
#141 = DIRECTION ( 'NONE',  ( 1.000000000000000000, 0.0000000000000000000, -0.0000000000000000000 ) ) ;
#142 = CIRCLE ( 'NONE', #103, 0.1968504999999999838 ) ;
#143 = ORIENTED_EDGE ( 'NONE', *, *, #99, .F. ) ;
#144 =( GEOMETRIC_REPRESENTATION_CONTEXT ( 3 ) GLOBAL_UNCERTAINTY_ASSIGNED_CONTEXT ( ( #88 ) ) GLOBAL_UNIT_ASSIGNED_CONTEXT ( ( #204, #128, #330 ) ) REPRESENTATION_CONTEXT ( 'NONE', 'WORKASPACE' ) );
#145 = DIRECTION ( 'NONE',  ( -1.000000000000000000, 0.0000000000000000000, 0.0000000000000000000 ) ) ;
#146 = CARTESIAN_POINT ( 'NONE',  ( 0.0000000000000000000, 0.0000000000000000000, 2.859016000000000446 ) ) ;
#147 = CARTESIAN_POINT ( 'NONE',  ( 0.0000000000000000000, 0.0000000000000000000, 2.874016000000000126 ) ) ;
#148 = CIRCLE ( 'NONE', #329, 0.1968504999999999838 ) ;
#149 = FACE_OUTER_BOUND ( 'NONE', #127, .T. ) ;
#150 = DIRECTION ( 'NONE',  ( 0.0000000000000000000, 0.0000000000000000000, -1.000000000000000000 ) ) ;
#151 = ADVANCED_FACE ( 'NONE', ( #122 ), #40, .F. ) ;
#152 = DIRECTION ( 'NONE',  ( -1.144493998877115178E-16, -0.0000000000000000000, -1.000000000000000000 ) ) ;
#153 = ORIENTED_EDGE ( 'NONE', *, *, #254, .F. ) ;
#154 = VECTOR ( 'NONE', #26, 39.37007874015748143 ) ;
#155 = DIRECTION ( 'NONE',  ( -1.144493998877115178E-16, -0.0000000000000000000, -1.000000000000000000 ) ) ;
#156 = EDGE_LOOP ( 'NONE', ( #311, #303, #105, #256 ) ) ;
#157 = LINE ( 'NONE', #255, #284 ) ;
#158 = ORIENTED_EDGE ( 'NONE', *, *, #92, .T. ) ;
#159 =( LENGTH_UNIT ( ) NAMED_UNIT ( * ) SI_UNIT ( $, .METRE. ) );
#160 = ORIENTED_EDGE ( 'NONE', *, *, #135, .T. ) ;
#161 = FACE_OUTER_BOUND ( 'NONE', #57, .T. ) ;
#162 = AXIS2_PLACEMENT_3D ( 'NONE', #216, #248, #172 ) ;
#163 = EDGE_LOOP ( 'NONE', ( #24, #227, #75, #184 ) ) ;
#164 = DIRECTION ( 'NONE',  ( 0.0000000000000000000, 0.0000000000000000000, 1.000000000000000000 ) ) ;
#165 = EDGE_CURVE ( 'NONE', #281, #208, #313, .T. ) ;
#166 = PRODUCT_CONTEXT ( 'NONE', #223, 'mechanical' ) ;
#167 = ORIENTED_EDGE ( 'NONE', *, *, #241, .T. ) ;
#168 = CARTESIAN_POINT ( 'NONE',  ( 0.1968504999999999838, 2.410723347355560646E-17, 0.1625979987917529068 ) ) ;
#169 =( GEOMETRIC_REPRESENTATION_CONTEXT ( 3 ) GLOBAL_UNCERTAINTY_ASSIGNED_CONTEXT ( ( #36 ) ) GLOBAL_UNIT_ASSIGNED_CONTEXT ( ( #32, #319, #238 ) ) REPRESENTATION_CONTEXT ( 'NONE', 'WORKASPACE' ) );
#170 = ORIENTED_EDGE ( 'NONE', *, *, #221, .T. ) ;
#171 = DIRECTION ( 'NONE',  ( -1.000000000000000000, 0.0000000000000000000, 1.144493998877115178E-16 ) ) ;
#172 = DIRECTION ( 'NONE',  ( 1.000000000000000000, 0.0000000000000000000, 0.0000000000000000000 ) ) ;
#173 = EDGE_CURVE ( 'NONE', #79, #101, #23, .T. ) ;
#174 = CARTESIAN_POINT ( 'NONE',  ( 0.0000000000000000000, 0.0000000000000000000, 2.874016000000000126 ) ) ;
#175 = CARTESIAN_POINT ( 'NONE',  ( -0.1870039832375812450, 0.0000000000000000000, 0.005117998791752707138 ) ) ;
#176 = COLOUR_RGB ( '',0.7921568627450980005, 0.8196078431372548767, 0.9333333333333333481 ) ;
#177 = DIRECTION ( 'NONE',  ( 0.0000000000000000000, 0.0000000000000000000, -1.000000000000000000 ) ) ;
#178 = CARTESIAN_POINT ( 'NONE',  ( 2.714626836485975388E-17, 0.0000000000000000000, 0.1625979987917526293 ) ) ;
#179 = DIMENSIONAL_EXPONENTS ( 1.000000000000000000, 0.0000000000000000000, 0.0000000000000000000, 0.0000000000000000000, 0.0000000000000000000, 0.0000000000000000000, 0.0000000000000000000 ) ;
#180 = EDGE_LOOP ( 'NONE', ( #258, #72, #137, #251 ) ) ;
#181 = ADVANCED_FACE ( 'NONE', ( #16 ), #240, .T. ) ;
#182 = MECHANICAL_DESIGN_GEOMETRIC_PRESENTATION_REPRESENTATION (  '', ( #55 ), #169 ) ;
#183 = SURFACE_SIDE_STYLE ('',( #73 ) ) ;
#184 = ORIENTED_EDGE ( 'NONE', *, *, #43, .F. ) ;
#185 = FILL_AREA_STYLE_COLOUR ( '', #218 ) ;
#186 = AXIS2_PLACEMENT_3D ( 'NONE', #219, #87, #145 ) ;
#187 = SURFACE_SIDE_STYLE ('',( #320 ) ) ;
#188 = DIRECTION ( 'NONE',  ( 0.0000000000000000000, 0.0000000000000000000, 1.000000000000000000 ) ) ;
#189 = CARTESIAN_POINT ( 'NONE',  ( 0.02952398323758128815, 3.615645156998402320E-18, 0.005117998791752709740 ) ) ;
#190 = CYLINDRICAL_SURFACE ( 'NONE', #124, 0.02952398323758127080 ) ;
#191 = CLOSED_SHELL ( 'NONE', ( #151, #214, #181, #295, #119, #3, #195, #246, #15, #62, #132 ) ) ;
#192 = CARTESIAN_POINT ( 'NONE',  ( 8.537024980200822558E-18, 0.0000000000000000000, -5.510910596163092637E-18 ) ) ;
#193 = CARTESIAN_POINT ( 'NONE',  ( 9.122776870542952858E-18, 0.0000000000000000000, 0.005117998791752713210 ) ) ;
#194 = DIRECTION ( 'NONE',  ( -1.144493998877115178E-16, -0.0000000000000000000, -1.000000000000000000 ) ) ;
#195 = ADVANCED_FACE ( 'NONE', ( #322 ), #69, .T. ) ;
#196 = PLANE ( 'NONE',  #125 ) ;
#197 = DIRECTION ( 'NONE',  ( 0.0000000000000000000, 0.0000000000000000000, 1.000000000000000000 ) ) ;
#198 = AXIS2_PLACEMENT_3D ( 'NONE', #324, #14, #89 ) ;
#199 = CARTESIAN_POINT ( 'NONE',  ( 0.02952398323758128121, 3.615645156998401549E-18, 0.0000000000000000000 ) ) ;
#200 = DIRECTION ( 'NONE',  ( -1.000000000000000000, 0.0000000000000000000, 1.144493998877115178E-16 ) ) ;
#201 = ORIENTED_EDGE ( 'NONE', *, *, #107, .T. ) ;
#202 = ORIENTED_EDGE ( 'NONE', *, *, #8, .F. ) ;
#203 = AXIS2_PLACEMENT_3D ( 'NONE', #147, #19, #294 ) ;
#204 =( CONVERSION_BASED_UNIT ( 'INCH', #22 ) LENGTH_UNIT ( ) NAMED_UNIT ( #305 ) );
#205 = ORIENTED_EDGE ( 'NONE', *, *, #92, .F. ) ;
#206 = DIRECTION ( 'NONE',  ( -0.7071067811865483499, 0.0000000000000000000, -0.7071067811865467956 ) ) ;
#207 = ORIENTED_EDGE ( 'NONE', *, *, #270, .F. ) ;
#208 = VERTEX_POINT ( 'NONE', #117 ) ;
#209 = CARTESIAN_POINT ( 'NONE',  ( 8.537024980200822558E-18, 0.0000000000000000000, 0.0000000000000000000 ) ) ;
#210 = SURFACE_STYLE_USAGE ( .BOTH. , #187 ) ;
#211 = AXIS2_PLACEMENT_3D ( 'NONE', #29, #286, #113 ) ;
#212 = LENGTH_MEASURE_WITH_UNIT ( LENGTH_MEASURE( 0.02539999999999999897 ), #318 );
#213 = CARTESIAN_POINT ( 'NONE',  ( -0.02952398323758126386, 0.0000000000000000000, -2.131908432327061772E-18 ) ) ;
#214 = ADVANCED_FACE ( 'NONE', ( #269 ), #326, .T. ) ;
#215 = UNCERTAINTY_MEASURE_WITH_UNIT (LENGTH_MEASURE( 1.000000000000000082E-05 ), #266, 'distance_accuracy_value', 'NONE');
#216 = CARTESIAN_POINT ( 'NONE',  ( 8.537024980200822558E-18, 0.0000000000000000000, 0.0000000000000000000 ) ) ;
#217 = DIRECTION ( 'NONE',  ( 0.0000000000000000000, 0.0000000000000000000, -1.000000000000000000 ) ) ;
#218 = COLOUR_RGB ( '',0.7921568627450980005, 0.8196078431372548767, 0.9333333333333333481 ) ;
#219 = CARTESIAN_POINT ( 'NONE',  ( 0.0000000000000000000, 0.0000000000000000000, 2.874016000000000126 ) ) ;
#220 = CARTESIAN_POINT ( 'NONE',  ( -0.1968504999999999838, 0.0000000000000000000, 2.874016000000000126 ) ) ;
#221 = EDGE_CURVE ( 'NONE', #100, #134, #142, .T. ) ;
#222 = CARTESIAN_POINT ( 'NONE',  ( 0.1968504999999999838, 2.410723347355560646E-17, 2.859016000000000446 ) ) ;
#223 = APPLICATION_CONTEXT ( 'automotive_design' ) ;
#224 = AXIS2_PLACEMENT_3D ( 'NONE', #45, #226, #102 ) ;
#225 = AXIS2_PLACEMENT_3D ( 'NONE', #174, #38, #245 ) ;
#226 = DIRECTION ( 'NONE',  ( -1.144493998877115178E-16, -0.0000000000000000000, -1.000000000000000000 ) ) ;
#227 = ORIENTED_EDGE ( 'NONE', *, *, #139, .T. ) ;
#228 = ORIENTED_EDGE ( 'NONE', *, *, #165, .F. ) ;
#229 = ORIENTED_EDGE ( 'NONE', *, *, #254, .T. ) ;
#230 = AXIS2_PLACEMENT_3D ( 'NONE', #257, #104, #308 ) ;
#231 = CARTESIAN_POINT ( 'NONE',  ( -0.1870039832375811617, 0.0000000000000000000, 0.1625979987917526570 ) ) ;
#232 = ORIENTED_EDGE ( 'NONE', *, *, #275, .T. ) ;
#233 = VERTEX_POINT ( 'NONE', #64 ) ;
#234 = SHAPE_DEFINITION_REPRESENTATION ( #243, #53 ) ;
#235 = DIRECTION ( 'NONE',  ( -1.000000000000000000, -1.224646799147352961E-16, 0.0000000000000000000 ) ) ;
#236 = AXIS2_PLACEMENT_3D ( 'NONE', #178, #282, #51 ) ;
#237 = DIRECTION ( 'NONE',  ( 1.000000000000000000, 0.0000000000000000000, 0.0000000000000000000 ) ) ;
#238 =( NAMED_UNIT ( * ) SI_UNIT ( $, .STERADIAN. ) SOLID_ANGLE_UNIT ( ) );
#239 = ORIENTED_EDGE ( 'NONE', *, *, #83, .T. ) ;
#240 = CONICAL_SURFACE ( 'NONE', #96, 0.1818505000000002481, 0.7853981633974492782 ) ;
#241 = EDGE_CURVE ( 'NONE', #30, #100, #157, .T. ) ;
#242 = CARTESIAN_POINT ( 'NONE',  ( 2.714626836485975388E-17, 0.0000000000000000000, 0.1625979987917526293 ) ) ;
#243 = PRODUCT_DEFINITION_SHAPE ( 'NONE', 'NONE',  #66 ) ;
#244 = DIRECTION ( 'NONE',  ( -1.000000000000000000, 0.0000000000000000000, 1.826062703563884531E-16 ) ) ;
#245 = DIRECTION ( 'NONE',  ( 1.000000000000000000, 0.0000000000000000000, 0.0000000000000000000 ) ) ;
#246 = ADVANCED_FACE ( 'NONE', ( #97, #161 ), #98, .T. ) ;
#247 = CIRCLE ( 'NONE', #289, 0.1968504999999999838 ) ;
#248 = DIRECTION ( 'NONE',  ( 0.0000000000000000000, 0.0000000000000000000, 1.000000000000000000 ) ) ;
#249 = DIRECTION ( 'NONE',  ( -1.144493998877115178E-16, -0.0000000000000000000, -1.000000000000000000 ) ) ;
#250 = DIRECTION ( 'NONE',  ( -1.000000000000000000, 0.0000000000000000000, 1.734722539226636070E-16 ) ) ;
#251 = ORIENTED_EDGE ( 'NONE', *, *, #241, .F. ) ;
#252 =( GEOMETRIC_REPRESENTATION_CONTEXT ( 3 ) GLOBAL_UNCERTAINTY_ASSIGNED_CONTEXT ( ( #215 ) ) GLOBAL_UNIT_ASSIGNED_CONTEXT ( ( #266, #60, #85 ) ) REPRESENTATION_CONTEXT ( 'NONE', 'WORKASPACE' ) );
#253 = CIRCLE ( 'NONE', #224, 0.02952398323758128121 ) ;
#254 = EDGE_CURVE ( 'NONE', #7, #58, #148, .T. ) ;
#255 = CARTESIAN_POINT ( 'NONE',  ( -0.1818505000000002481, 0.0000000000000000000, 2.874016000000000126 ) ) ;
#256 = ORIENTED_EDGE ( 'NONE', *, *, #173, .T. ) ;
#257 = CARTESIAN_POINT ( 'NONE',  ( 0.0000000000000000000, 0.0000000000000000000, 2.874016000000000126 ) ) ;
#258 = ORIENTED_EDGE ( 'NONE', *, *, #107, .F. ) ;
#259 = AXIS2_PLACEMENT_3D ( 'NONE', #175, #42, #150 ) ;
#260 = AXIS2_PLACEMENT_3D ( 'NONE', #6, #188, #316 ) ;
#261 = APPLICATION_CONTEXT ( 'automotive_design' ) ;
#262 = DIRECTION ( 'NONE',  ( -0.0000000000000000000, -0.0000000000000000000, -1.000000000000000000 ) ) ;
#263 = ORIENTED_EDGE ( 'NONE', *, *, #173, .F. ) ;
#264 = VECTOR ( 'NONE', #321, 39.37007874015748143 ) ;
#265 = FILL_AREA_STYLE ('',( #285 ) ) ;
#266 =( CONVERSION_BASED_UNIT ( 'INCH', #212 ) LENGTH_UNIT ( ) NAMED_UNIT ( #126 ) );
#267 = CARTESIAN_POINT ( 'NONE',  ( -0.1818505000000002481, 0.0000000000000000000, 2.874016000000000126 ) ) ;
#268 = DIRECTION ( 'NONE',  ( 1.000000000000000000, 0.0000000000000000000, 0.0000000000000000000 ) ) ;
#269 = FACE_OUTER_BOUND ( 'NONE', #163, .T. ) ;
#270 = EDGE_CURVE ( 'NONE', #101, #79, #80, .T. ) ;
#271 = CYLINDRICAL_SURFACE ( 'NONE', #186, 0.1968504999999999838 ) ;
#272 = DIRECTION ( 'NONE',  ( -1.000000000000000000, 0.0000000000000000000, 1.084333486377354492E-16 ) ) ;
#273 = CARTESIAN_POINT ( 'NONE',  ( -0.1968504999999999838, 0.0000000000000000000, 2.859016000000000446 ) ) ;
#274 = EDGE_LOOP ( 'NONE', ( #10, #160, #314, #331 ) ) ;
#275 = EDGE_CURVE ( 'NONE', #58, #7, #247, .T. ) ;
#276 = CARTESIAN_POINT ( 'NONE',  ( 0.1818505000000002481, 2.227026327483460536E-17, 2.874016000000000126 ) ) ;
#277 = CIRCLE ( 'NONE', #225, 0.1818505000000002481 ) ;
#278 = CARTESIAN_POINT ( 'NONE',  ( 0.0000000000000000000, 0.0000000000000000000, 0.1625979987917529346 ) ) ;
#279 = PRODUCT_RELATED_PRODUCT_CATEGORY ( 'part', '', ( #1 ) ) ;
#280 = CARTESIAN_POINT ( 'NONE',  ( -0.02952398323758127080, 0.0000000000000000000, 0.005117998791752716679 ) ) ;
#281 = VERTEX_POINT ( 'NONE', #199 ) ;
#282 = DIRECTION ( 'NONE',  ( -1.144493998877115178E-16, -0.0000000000000000000, -1.000000000000000000 ) ) ;
#283 = ORIENTED_EDGE ( 'NONE', *, *, #275, .F. ) ;
#284 = VECTOR ( 'NONE', #206, 39.37007874015748143 ) ;
#285 = FILL_AREA_STYLE_COLOUR ( '', #176 ) ;
#286 = DIRECTION ( 'NONE',  ( -1.144493998877115178E-16, -0.0000000000000000000, -1.000000000000000000 ) ) ;
#287 = PRESENTATION_STYLE_ASSIGNMENT (( #210 ) ) ;
#288 = MECHANICAL_DESIGN_GEOMETRIC_PRESENTATION_REPRESENTATION (  '', ( #328 ), #252 ) ;
#289 = AXIS2_PLACEMENT_3D ( 'NONE', #48, #155, #250 ) ;
#290 = CARTESIAN_POINT ( 'NONE',  ( -0.1968504999999999838, 0.0000000000000000000, 0.1625979987917529623 ) ) ;
#291 = CARTESIAN_POINT ( 'NONE',  ( 0.02952398323758128121, 3.615645156998401549E-18, -8.889912759999123502E-18 ) ) ;
#292 = PRODUCT_DEFINITION_CONTEXT ( 'detailed design', #261, 'design' ) ;
#293 = DIRECTION ( 'NONE',  ( 1.000000000000000000, 0.0000000000000000000, 0.0000000000000000000 ) ) ;
#294 = DIRECTION ( 'NONE',  ( 1.000000000000000000, 0.0000000000000000000, 0.0000000000000000000 ) ) ;
#295 = ADVANCED_FACE ( 'NONE', ( #300 ), #44, .T. ) ;
#296 = CARTESIAN_POINT ( 'NONE',  ( 0.0000000000000000000, 0.0000000000000000000, 0.005117998791752685454 ) ) ;
#297 = CARTESIAN_POINT ( 'NONE',  ( 0.0000000000000000000, 0.0000000000000000000, 2.874016000000000126 ) ) ;
#298 = AXIS2_PLACEMENT_3D ( 'NONE', #242, #20, #244 ) ;
#299 = LINE ( 'NONE', #276, #154 ) ;
#300 = FACE_OUTER_BOUND ( 'NONE', #50, .T. ) ;
#301 = VERTEX_POINT ( 'NONE', #280 ) ;
#302 = FILL_AREA_STYLE ('',( #185 ) ) ;
#303 = ORIENTED_EDGE ( 'NONE', *, *, #315, .F. ) ;
#304 = AXIS2_PLACEMENT_3D ( 'NONE', #21, #123, #268 ) ;
#305 = DIMENSIONAL_EXPONENTS ( 1.000000000000000000, 0.0000000000000000000, 0.0000000000000000000, 0.0000000000000000000, 0.0000000000000000000, 0.0000000000000000000, 0.0000000000000000000 ) ;
#306 = PRESENTATION_STYLE_ASSIGNMENT (( #76 ) ) ;
#307 = EDGE_LOOP ( 'NONE', ( #239, #201 ) ) ;
#308 = DIRECTION ( 'NONE',  ( -1.000000000000000000, 0.0000000000000000000, 0.0000000000000000000 ) ) ;
#309 = EDGE_CURVE ( 'NONE', #233, #134, #299, .T. ) ;
#310 = EDGE_LOOP ( 'NONE', ( #202, #52, #158, #153 ) ) ;
#311 = ORIENTED_EDGE ( 'NONE', *, *, #71, .F. ) ;
#312 = PRESENTATION_LAYER_ASSIGNMENT (  '', '', ( #328 ) ) ;
#313 = CIRCLE ( 'NONE', #162, 0.02952398323758127080 ) ;
#314 = ORIENTED_EDGE ( 'NONE', *, *, #43, .T. ) ;
#315 = EDGE_CURVE ( 'NONE', #301, #74, #253, .T. ) ;
#316 = DIRECTION ( 'NONE',  ( 1.000000000000000000, 0.0000000000000000000, 0.0000000000000000000 ) ) ;
#317 = FACE_OUTER_BOUND ( 'NONE', #307, .T. ) ;
#318 =( LENGTH_UNIT ( ) NAMED_UNIT ( * ) SI_UNIT ( $, .METRE. ) );
#319 =( NAMED_UNIT ( * ) PLANE_ANGLE_UNIT ( ) SI_UNIT ( $, .RADIAN. ) );
#320 = SURFACE_STYLE_FILL_AREA ( #265 ) ;
#321 = DIRECTION ( 'NONE',  ( -1.144493998877115178E-16, -0.0000000000000000000, -1.000000000000000000 ) ) ;
#322 = FACE_OUTER_BOUND ( 'NONE', #25, .T. ) ;
#323 = CIRCLE ( 'NONE', #203, 0.1818505000000002481 ) ;
#324 = CARTESIAN_POINT ( 'NONE',  ( 0.0000000000000000000, 0.0000000000000000000, 2.874016000000000126 ) ) ;
#325 = CARTESIAN_POINT ( 'NONE',  ( 0.0000000000000000000, 0.0000000000000000000, 0.0000000000000000000 ) ) ;
#326 = CYLINDRICAL_SURFACE ( 'NONE', #46, 0.02952398323758127080 ) ;
#327 = DIRECTION ( 'NONE',  ( -1.144493998877115178E-16, 0.0000000000000000000, -1.000000000000000000 ) ) ;
#328 = STYLED_ITEM ( 'NONE', ( #287 ), #28 ) ;
#329 = AXIS2_PLACEMENT_3D ( 'NONE', #278, #152, #130 ) ;
#330 =( NAMED_UNIT ( * ) SI_UNIT ( $, .STERADIAN. ) SOLID_ANGLE_UNIT ( ) );
#331 = ORIENTED_EDGE ( 'NONE', *, *, #11, .T. ) ;
ENDSEC;
END-ISO-10303-21;
