ISO-10303-21;
HEADER;
FILE_DESCRIPTION (( 'STEP AP214' ),
    '1' );
FILE_NAME ('59716.STEP',
    '2023-07-24T15:27:56',
    ( '' ),
    ( '' ),
    'SwSTEP 2.0',
    'SolidWorks 2023',
    '' );
FILE_SCHEMA (( 'AUTOMOTIVE_DESIGN' ));
ENDSEC;

DATA;
#1 = UNCERTAINTY_MEASURE_WITH_UNIT (LENGTH_MEASURE( 1.000000000000000082E-05 ), #123, 'distance_accuracy_value', 'NONE');
#2 = VERTEX_POINT ( 'NONE', #223 ) ;
#3 = DIRECTION ( 'NONE',  ( 0.000000000000000000, 0.000000000000000000, -1.000000000000000000 ) ) ;
#4 = DIRECTION ( 'NONE',  ( 0.000000000000000000, -1.000000000000000000, -0.000000000000000000 ) ) ;
#5 = SURFACE_STYLE_FILL_AREA ( #117 ) ;
#6 = AXIS2_PLACEMENT_3D ( 'NONE', #362, #156, #304 ) ;
#7 = CARTESIAN_POINT ( 'NONE',  ( 9.491012693391985815E-16, 0.000000000000000000, 7.500000000000000000 ) ) ;
#8 = CYLINDRICAL_SURFACE ( 'NONE', #301, 8.000000000000000000 ) ;
#9 = CARTESIAN_POINT ( 'NONE',  ( 0.000000000000000000, 0.5000000000000000000, -8.000000000000000000 ) ) ;
#10 = COLOUR_RGB ( '',1.000000000000000000, 0.000000000000000000, 0.000000000000000000 ) ;
#11 =( LENGTH_UNIT ( ) NAMED_UNIT ( * ) SI_UNIT ( .MILLI., .METRE. ) );
#12 = STYLED_ITEM ( 'NONE', ( #207 ), #76 ) ;
#13 = UNCERTAINTY_MEASURE_WITH_UNIT (LENGTH_MEASURE( 1.000000000000000082E-05 ), #172, 'distance_accuracy_value', 'NONE');
#14 = SURFACE_SIDE_STYLE ('',( #80 ) ) ;
#15 = ADVANCED_FACE ( 'NONE', ( #280 ), #152, .T. ) ;
#16 = ADVANCED_FACE ( 'NONE', ( #115 ), #36, .T. ) ;
#17 = LINE ( 'NONE', #250, #99 ) ;
#18 = VERTEX_POINT ( 'NONE', #7 ) ;
#19 =( GEOMETRIC_REPRESENTATION_CONTEXT ( 3 ) GLOBAL_UNCERTAINTY_ASSIGNED_CONTEXT ( ( #227 ) ) GLOBAL_UNIT_ASSIGNED_CONTEXT ( ( #365, #342, #85 ) ) REPRESENTATION_CONTEXT ( 'NONE', 'WORKASPACE' ) );
#20 = CARTESIAN_POINT ( 'NONE',  ( -7.999999999999986677, 23.99999999999999289, 0.000000000000000000 ) ) ;
#21 = PRESENTATION_STYLE_ASSIGNMENT (( #114 ) ) ;
#22 = FILL_AREA_STYLE ('',( #366 ) ) ;
#23 = AXIS2_PLACEMENT_3D ( 'NONE', #98, #4, #351 ) ;
#24 = APPLICATION_CONTEXT ( 'automotive_design' ) ;
#25 =( GEOMETRIC_REPRESENTATION_CONTEXT ( 3 ) GLOBAL_UNCERTAINTY_ASSIGNED_CONTEXT ( ( #240 ) ) GLOBAL_UNIT_ASSIGNED_CONTEXT ( ( #314, #27, #312 ) ) REPRESENTATION_CONTEXT ( 'NONE', 'WORKASPACE' ) );
#26 = FILL_AREA_STYLE ('',( #261 ) ) ;
#27 =( NAMED_UNIT ( * ) PLANE_ANGLE_UNIT ( ) SI_UNIT ( $, .RADIAN. ) );
#28 = UNCERTAINTY_MEASURE_WITH_UNIT (LENGTH_MEASURE( 1.000000000000000082E-05 ), #246, 'distance_accuracy_value', 'NONE');
#29 = DIRECTION ( 'NONE',  ( -0.000000000000000000, -1.000000000000000000, -0.000000000000000000 ) ) ;
#30 = PRESENTATION_LAYER_ASSIGNMENT (  '', '', ( #12 ) ) ;
#31 = COLOUR_RGB ( '',1.000000000000000000, 0.000000000000000000, 0.000000000000000000 ) ;
#32 = CARTESIAN_POINT ( 'NONE',  ( 0.000000000000000000, 0.000000000000000000, 0.000000000000000000 ) ) ;
#33 = PRESENTATION_STYLE_ASSIGNMENT (( #64 ) ) ;
#34 = FACE_OUTER_BOUND ( 'NONE', #181, .T. ) ;
#35 = AXIS2_PLACEMENT_3D ( 'NONE', #149, #290, #354 ) ;
#36 = CYLINDRICAL_SURFACE ( 'NONE', #308, 7.999999999999996447 ) ;
#37 = EDGE_LOOP ( 'NONE', ( #86, #337 ) ) ;
#38 = FACE_OUTER_BOUND ( 'NONE', #344, .T. ) ;
#39 = FACE_OUTER_BOUND ( 'NONE', #37, .T. ) ;
#40 = STYLED_ITEM ( 'NONE', ( #148 ), #360 ) ;
#41 = DIRECTION ( 'NONE',  ( -1.224646799147353454E-16, 0.000000000000000000, -1.000000000000000000 ) ) ;
#42 = CIRCLE ( 'NONE', #6, 8.000000000000000000 ) ;
#43 = PLANE ( 'NONE',  #90 ) ;
#44 = ADVANCED_FACE ( 'NONE', ( #39 ), #72, .T. ) ;
#45 = DIRECTION ( 'NONE',  ( -1.231212018341879827E-16, 1.000000000000000000, -0.000000000000000000 ) ) ;
#46 = VERTEX_POINT ( 'NONE', #150 ) ;
#47 = PLANE ( 'NONE',  #208 ) ;
#48 = CLOSED_SHELL ( 'NONE', ( #360, #260, #44, #15, #109, #230 ) ) ;
#49 = COLOUR_RGB ( '',0.7921568627450980005, 0.8196078431372548767, 0.9333333333333333481 ) ;
#50 = VERTEX_POINT ( 'NONE', #119 ) ;
#51 = CIRCLE ( 'NONE', #203, 8.000000000000001776 ) ;
#52 = EDGE_LOOP ( 'NONE', ( #122, #258, #165, #263 ) ) ;
#53 = CARTESIAN_POINT ( 'NONE',  ( 8.000000000000000000, 23.99999999999999289, 9.797174393178825657E-16 ) ) ;
#54 = ORIENTED_EDGE ( 'NONE', *, *, #293, .F. ) ;
#55 = FILL_AREA_STYLE ('',( #277 ) ) ;
#56 = PRESENTATION_STYLE_ASSIGNMENT (( #159 ) ) ;
#57 = COLOUR_RGB ( '',1.000000000000000000, 0.000000000000000000, 0.000000000000000000 ) ;
#58 = AXIS2_PLACEMENT_3D ( 'NONE', #333, #182, #41 ) ;
#59 = EDGE_CURVE ( 'NONE', #225, #339, #82, .T. ) ;
#60 = DIRECTION ( 'NONE',  ( -1.231212018341879827E-16, 1.000000000000000000, -0.000000000000000000 ) ) ;
#61 = LINE ( 'NONE', #254, #118 ) ;
#62 = CIRCLE ( 'NONE', #94, 7.999999999999992895 ) ;
#63 =( NAMED_UNIT ( * ) PLANE_ANGLE_UNIT ( ) SI_UNIT ( $, .RADIAN. ) );
#64 = SURFACE_STYLE_USAGE ( .BOTH. , #267 ) ;
#65 = CARTESIAN_POINT ( 'NONE',  ( 9.797174393178825657E-16, 0.000000000000000000, 8.000000000000000000 ) ) ;
#66 = DIRECTION ( 'NONE',  ( -0.000000000000000000, -1.000000000000000000, -0.000000000000000000 ) ) ;
#67 = DIRECTION ( 'NONE',  ( -1.231212018341879827E-16, 1.000000000000000000, -0.000000000000000000 ) ) ;
#68 = PRODUCT_CONTEXT ( 'NONE', #183, 'mechanical' ) ;
#69 =( GEOMETRIC_REPRESENTATION_CONTEXT ( 3 ) GLOBAL_UNCERTAINTY_ASSIGNED_CONTEXT ( ( #92 ) ) GLOBAL_UNIT_ASSIGNED_CONTEXT ( ( #11, #326, #329 ) ) REPRESENTATION_CONTEXT ( 'NONE', 'WORKASPACE' ) );
#70 = EDGE_CURVE ( 'NONE', #190, #83, #210, .T. ) ;
#71 = DIRECTION ( 'NONE',  ( 1.000000000000000000, 0.000000000000000000, 0.000000000000000000 ) ) ;
#72 = PLANE ( 'NONE',  #23 ) ;
#73 = PRESENTATION_STYLE_ASSIGNMENT (( #336 ) ) ;
#74 = ORIENTED_EDGE ( 'NONE', *, *, #130, .T. ) ;
#75 = DIRECTION ( 'NONE',  ( -1.000000000000000000, 0.000000000000000000, 0.000000000000000000 ) ) ;
#76 = MANIFOLD_SOLID_BREP ( 'Revolve - Tool Body (Straight Shanked)', #185 ) ;
#77 = DIRECTION ( 'NONE',  ( 0.000000000000000000, 0.000000000000000000, -1.000000000000000000 ) ) ;
#78 = ORIENTED_EDGE ( 'NONE', *, *, #59, .T. ) ;
#79 = ORIENTED_EDGE ( 'NONE', *, *, #291, .F. ) ;
#80 = SURFACE_STYLE_FILL_AREA ( #310 ) ;
#81 = PRODUCT_DEFINITION_FORMATION_WITH_SPECIFIED_SOURCE ( 'ANY', '', #129, .NOT_KNOWN. ) ;
#82 = CIRCLE ( 'NONE', #170, 7.999999999999992895 ) ;
#83 = VERTEX_POINT ( 'NONE', #9 ) ;
#84 = PRESENTATION_LAYER_ASSIGNMENT (  '', '', ( #209 ) ) ;
#85 =( NAMED_UNIT ( * ) SI_UNIT ( $, .STERADIAN. ) SOLID_ANGLE_UNIT ( ) );
#86 = ORIENTED_EDGE ( 'NONE', *, *, #361, .T. ) ;
#87 = EDGE_CURVE ( 'NONE', #2, #46, #276, .T. ) ;
#88 = ADVANCED_BREP_SHAPE_REPRESENTATION ( '59716', ( #323, #76, #349 ), #113 ) ;
#89 = UNCERTAINTY_MEASURE_WITH_UNIT (LENGTH_MEASURE( 1.000000000000000082E-05 ), #235, 'distance_accuracy_value', 'NONE');
#90 = AXIS2_PLACEMENT_3D ( 'NONE', #279, #335, #125 ) ;
#91 = SURFACE_SIDE_STYLE ('',( #166 ) ) ;
#92 = UNCERTAINTY_MEASURE_WITH_UNIT (LENGTH_MEASURE( 1.000000000000000082E-05 ), #11, 'distance_accuracy_value', 'NONE');
#93 = MECHANICAL_DESIGN_GEOMETRIC_PRESENTATION_REPRESENTATION (  '', ( #209 ), #25 ) ;
#94 = AXIS2_PLACEMENT_3D ( 'NONE', #338, #154, #274 ) ;
#95 =( NAMED_UNIT ( * ) SI_UNIT ( $, .STERADIAN. ) SOLID_ANGLE_UNIT ( ) );
#96 =( NAMED_UNIT ( * ) PLANE_ANGLE_UNIT ( ) SI_UNIT ( $, .RADIAN. ) );
#97 = SURFACE_STYLE_FILL_AREA ( #180 ) ;
#98 = CARTESIAN_POINT ( 'NONE',  ( 0.000000000000000000, 0.000000000000000000, 0.000000000000000000 ) ) ;
#99 = VECTOR ( 'NONE', #45, 1000.000000000000000 ) ;
#100 = PRESENTATION_LAYER_ASSIGNMENT (  '', '', ( #40 ) ) ;
#101 = DIRECTION ( 'NONE',  ( -0.000000000000000000, -1.000000000000000000, -0.000000000000000000 ) ) ;
#102 = DIRECTION ( 'NONE',  ( 1.231212018341879827E-16, -1.000000000000000000, 0.000000000000000000 ) ) ;
#103 = CARTESIAN_POINT ( 'NONE',  ( 0.000000000000000000, 0.5000000000000000000, 0.000000000000000000 ) ) ;
#104 = STYLED_ITEM ( 'NONE', ( #56 ), #15 ) ;
#105 = MECHANICAL_DESIGN_GEOMETRIC_PRESENTATION_REPRESENTATION (  '', ( #139 ), #249 ) ;
#106 = ORIENTED_EDGE ( 'NONE', *, *, #327, .T. ) ;
#107 = DIRECTION ( 'NONE',  ( -1.000000000000000000, 0.000000000000000000, 0.000000000000000000 ) ) ;
#108 = CARTESIAN_POINT ( 'NONE',  ( 8.000000000000000000, 89.00000000000000000, 0.000000000000000000 ) ) ;
#109 = ADVANCED_FACE ( 'NONE', ( #38 ), #173, .T. ) ;
#110 = EDGE_LOOP ( 'NONE', ( #313, #357, #294, #278 ) ) ;
#111 = SURFACE_STYLE_FILL_AREA ( #55 ) ;
#112 = AXIS2_PLACEMENT_3D ( 'NONE', #247, #153, #75 ) ;
#113 =( GEOMETRIC_REPRESENTATION_CONTEXT ( 3 ) GLOBAL_UNCERTAINTY_ASSIGNED_CONTEXT ( ( #89 ) ) GLOBAL_UNIT_ASSIGNED_CONTEXT ( ( #235, #63, #95 ) ) REPRESENTATION_CONTEXT ( 'NONE', 'WORKASPACE' ) );
#114 = SURFACE_STYLE_USAGE ( .BOTH. , #138 ) ;
#115 = FACE_OUTER_BOUND ( 'NONE', #52, .T. ) ;
#116 = PRODUCT_DEFINITION_CONTEXT ( 'detailed design', #24, 'design' ) ;
#117 = FILL_AREA_STYLE ('',( #233 ) ) ;
#118 = VECTOR ( 'NONE', #60, 1000.000000000000000 ) ;
#119 = CARTESIAN_POINT ( 'NONE',  ( 9.797174393178825657E-16, 0.5000000000000000000, 8.000000000000000000 ) ) ;
#120 = ADVANCED_FACE ( 'NONE', ( #303 ), #248, .T. ) ;
#121 = ADVANCED_FACE ( 'NONE', ( #216 ), #43, .F. ) ;
#122 = ORIENTED_EDGE ( 'NONE', *, *, #188, .F. ) ;
#123 =( LENGTH_UNIT ( ) NAMED_UNIT ( * ) SI_UNIT ( .MILLI., .METRE. ) );
#124 = STYLED_ITEM ( 'NONE', ( #73 ), #109 ) ;
#125 = DIRECTION ( 'NONE',  ( -1.000000000000000000, -1.231212018341879827E-16, 0.000000000000000000 ) ) ;
#126 = FACE_OUTER_BOUND ( 'NONE', #198, .T. ) ;
#127 = VECTOR ( 'NONE', #66, 1000.000000000000000 ) ;
#128 = VERTEX_POINT ( 'NONE', #359 ) ;
#129 = PRODUCT ( '59716', '59716', '', ( #68 ) ) ;
#130 = EDGE_CURVE ( 'NONE', #50, #83, #195, .T. ) ;
#131 = ORIENTED_EDGE ( 'NONE', *, *, #214, .T. ) ;
#132 = PRESENTATION_STYLE_ASSIGNMENT (( #137 ) ) ;
#133 = ORIENTED_EDGE ( 'NONE', *, *, #141, .F. ) ;
#134 = SURFACE_SIDE_STYLE ('',( #111 ) ) ;
#135 = AXIS2_PLACEMENT_3D ( 'NONE', #232, #200, #224 ) ;
#136 = CIRCLE ( 'NONE', #58, 0.5000000000000004441 ) ;
#137 = SURFACE_STYLE_USAGE ( .BOTH. , #134 ) ;
#138 = SURFACE_SIDE_STYLE ('',( #281 ) ) ;
#139 = STYLED_ITEM ( 'NONE', ( #33 ), #44 ) ;
#140 = VERTEX_POINT ( 'NONE', #211 ) ;
#141 = EDGE_CURVE ( 'NONE', #190, #128, #42, .T. ) ;
#142 = ADVANCED_FACE ( 'NONE', ( #215 ), #300, .F. ) ;
#143 = MECHANICAL_DESIGN_GEOMETRIC_PRESENTATION_REPRESENTATION (  '', ( #104 ), #19 ) ;
#144 = PRESENTATION_LAYER_ASSIGNMENT (  '', '', ( #124 ) ) ;
#145 = LINE ( 'NONE', #65, #184 ) ;
#146 = FILL_AREA_STYLE_COLOUR ( '', #368 ) ;
#147 = ORIENTED_EDGE ( 'NONE', *, *, #369, .T. ) ;
#148 = PRESENTATION_STYLE_ASSIGNMENT (( #238 ) ) ;
#149 = CARTESIAN_POINT ( 'NONE',  ( 0.000000000000000000, 0.5000000000000000000, 0.000000000000000000 ) ) ;
#150 = CARTESIAN_POINT ( 'NONE',  ( -8.000000000000003553, 89.00000000000000000, 0.000000000000000000 ) ) ;
#151 = AXIS2_PLACEMENT_3D ( 'NONE', #343, #345, #201 ) ;
#152 = TOROIDAL_SURFACE ( 'NONE', #35, 7.500000000000000000, 0.5000000000000002220 ) ;
#153 = DIRECTION ( 'NONE',  ( -1.231212018341879827E-16, 1.000000000000000000, -0.000000000000000000 ) ) ;
#154 = DIRECTION ( 'NONE',  ( -1.231212018341879827E-16, 1.000000000000000000, -0.000000000000000000 ) ) ;
#155 = ORIENTED_EDGE ( 'NONE', *, *, #70, .F. ) ;
#156 = DIRECTION ( 'NONE',  ( -0.000000000000000000, -1.000000000000000000, -0.000000000000000000 ) ) ;
#157 = PRESENTATION_LAYER_ASSIGNMENT (  '', '', ( #284 ) ) ;
#158 = AXIS2_PLACEMENT_3D ( 'NONE', #318, #29, #317 ) ;
#159 = SURFACE_STYLE_USAGE ( .BOTH. , #255 ) ;
#160 = CARTESIAN_POINT ( 'NONE',  ( 0.000000000000000000, 0.000000000000000000, 0.000000000000000000 ) ) ;
#161 = ORIENTED_EDGE ( 'NONE', *, *, #369, .F. ) ;
#162 = FACE_OUTER_BOUND ( 'NONE', #110, .T. ) ;
#163 = SURFACE_STYLE_FILL_AREA ( #22 ) ;
#164 = MECHANICAL_DESIGN_GEOMETRIC_PRESENTATION_REPRESENTATION (  '', ( #12 ), #69 ) ;
#165 = ORIENTED_EDGE ( 'NONE', *, *, #306, .T. ) ;
#166 = SURFACE_STYLE_FILL_AREA ( #26 ) ;
#167 = FILL_AREA_STYLE_COLOUR ( '', #204 ) ;
#168 = EDGE_CURVE ( 'NONE', #83, #50, #340, .T. ) ;
#169 = FILL_AREA_STYLE ('',( #167 ) ) ;
#170 = AXIS2_PLACEMENT_3D ( 'NONE', #236, #322, #269 ) ;
#171 = AXIS2_PLACEMENT_3D ( 'NONE', #32, #321, #3 ) ;
#172 =( LENGTH_UNIT ( ) NAMED_UNIT ( * ) SI_UNIT ( .MILLI., .METRE. ) );
#173 = CYLINDRICAL_SURFACE ( 'NONE', #199, 8.000000000000000000 ) ;
#174 = DIRECTION ( 'NONE',  ( -0.000000000000000000, -1.000000000000000000, -0.000000000000000000 ) ) ;
#175 = DIRECTION ( 'NONE',  ( -1.231212018341879827E-16, 1.000000000000000000, -0.000000000000000000 ) ) ;
#176 = UNCERTAINTY_MEASURE_WITH_UNIT (LENGTH_MEASURE( 1.000000000000000082E-05 ), #221, 'distance_accuracy_value', 'NONE');
#177 = AXIS2_PLACEMENT_3D ( 'NONE', #334, #107, #272 ) ;
#178 = APPLICATION_PROTOCOL_DEFINITION ( 'draft international standard', 'automotive_design', 1998, #24 ) ;
#179 = SURFACE_STYLE_USAGE ( .BOTH. , #270 ) ;
#180 = FILL_AREA_STYLE ('',( #146 ) ) ;
#181 = EDGE_LOOP ( 'NONE', ( #275, #106, #219, #155 ) ) ;
#182 = DIRECTION ( 'NONE',  ( 1.000000000000000000, 0.000000000000000000, -1.224646799147353207E-16 ) ) ;
#183 = APPLICATION_CONTEXT ( 'automotive_design' ) ;
#184 = VECTOR ( 'NONE', #174, 1000.000000000000000 ) ;
#185 = CLOSED_SHELL ( 'NONE', ( #120, #121, #16, #142 ) ) ;
#186 = AXIS2_PLACEMENT_3D ( 'NONE', #234, #289, #296 ) ;
#187 = CARTESIAN_POINT ( 'NONE',  ( 0.000000000000000000, 0.5000000000000000000, 0.000000000000000000 ) ) ;
#188 = EDGE_CURVE ( 'NONE', #339, #2, #17, .T. ) ;
#189 = EDGE_CURVE ( 'NONE', #50, #18, #136, .T. ) ;
#190 = VERTEX_POINT ( 'NONE', #305 ) ;
#191 = DIRECTION ( 'NONE',  ( -0.000000000000000000, -1.000000000000000000, -0.000000000000000000 ) ) ;
#192 = ORIENTED_EDGE ( 'NONE', *, *, #189, .F. ) ;
#193 = PRESENTATION_LAYER_ASSIGNMENT (  '', '', ( #104 ) ) ;
#194 = DIRECTION ( 'NONE',  ( 0.000000000000000000, 0.000000000000000000, -1.000000000000000000 ) ) ;
#195 = CIRCLE ( 'NONE', #245, 8.000000000000000000 ) ;
#196 = EDGE_LOOP ( 'NONE', ( #78, #315, #161, #363 ) ) ;
#197 =( LENGTH_UNIT ( ) NAMED_UNIT ( * ) SI_UNIT ( .MILLI., .METRE. ) );
#198 = EDGE_LOOP ( 'NONE', ( #133, #79 ) ) ;
#199 = AXIS2_PLACEMENT_3D ( 'NONE', #160, #101, #194 ) ;
#200 = DIRECTION ( 'NONE',  ( -0.000000000000000000, -1.000000000000000000, -0.000000000000000000 ) ) ;
#201 = DIRECTION ( 'NONE',  ( 0.000000000000000000, 0.000000000000000000, -1.000000000000000000 ) ) ;
#202 = CARTESIAN_POINT ( 'NONE',  ( 0.000000000000000000, 0.000000000000000000, -8.000000000000000000 ) ) ;
#203 = AXIS2_PLACEMENT_3D ( 'NONE', #353, #67, #288 ) ;
#204 = COLOUR_RGB ( '',0.7921568627450980005, 0.8196078431372548767, 0.9333333333333333481 ) ;
#205 = SURFACE_SIDE_STYLE ('',( #5 ) ) ;
#206 = DIRECTION ( 'NONE',  ( 0.000000000000000000, 0.000000000000000000, 1.000000000000000000 ) ) ;
#207 = PRESENTATION_STYLE_ASSIGNMENT (( #179 ) ) ;
#208 = AXIS2_PLACEMENT_3D ( 'NONE', #229, #257, #283 ) ;
#209 = STYLED_ITEM ( 'NONE', ( #286 ), #260 ) ;
#210 = LINE ( 'NONE', #202, #127 ) ;
#211 = CARTESIAN_POINT ( 'NONE',  ( 0.000000000000000000, 0.000000000000000000, -7.500000000000000000 ) ) ;
#212 = DIRECTION ( 'NONE',  ( -0.000000000000000000, -1.000000000000000000, -0.000000000000000000 ) ) ;
#213 =( GEOMETRIC_REPRESENTATION_CONTEXT ( 3 ) GLOBAL_UNCERTAINTY_ASSIGNED_CONTEXT ( ( #28 ) ) GLOBAL_UNIT_ASSIGNED_CONTEXT ( ( #246, #252, #356 ) ) REPRESENTATION_CONTEXT ( 'NONE', 'WORKASPACE' ) );
#214 = EDGE_CURVE ( 'NONE', #83, #140, #346, .T. ) ;
#215 = FACE_OUTER_BOUND ( 'NONE', #251, .T. ) ;
#216 = FACE_OUTER_BOUND ( 'NONE', #298, .T. ) ;
#217 = ORIENTED_EDGE ( 'NONE', *, *, #70, .T. ) ;
#218 = DIRECTION ( 'NONE',  ( 1.000000000000000000, 1.231212018341879827E-16, 0.000000000000000000 ) ) ;
#219 = ORIENTED_EDGE ( 'NONE', *, *, #168, .F. ) ;
#220 = TOROIDAL_SURFACE ( 'NONE', #135, 7.500000000000000000, 0.5000000000000002220 ) ;
#221 =( LENGTH_UNIT ( ) NAMED_UNIT ( * ) SI_UNIT ( .MILLI., .METRE. ) );
#222 = MECHANICAL_DESIGN_GEOMETRIC_PRESENTATION_REPRESENTATION (  '', ( #124 ), #213 ) ;
#223 = CARTESIAN_POINT ( 'NONE',  ( 8.000000000000000000, 89.00000000000000000, 9.797174393178825657E-16 ) ) ;
#224 = DIRECTION ( 'NONE',  ( 0.000000000000000000, 0.000000000000000000, -1.000000000000000000 ) ) ;
#225 = VERTEX_POINT ( 'NONE', #20 ) ;
#226 = SURFACE_STYLE_USAGE ( .BOTH. , #91 ) ;
#227 = UNCERTAINTY_MEASURE_WITH_UNIT (LENGTH_MEASURE( 1.000000000000000082E-05 ), #365, 'distance_accuracy_value', 'NONE');
#228 = EDGE_CURVE ( 'NONE', #339, #225, #62, .T. ) ;
#229 = CARTESIAN_POINT ( 'NONE',  ( 0.000000000000000000, 24.00000000000000000, 0.000000000000000000 ) ) ;
#230 = ADVANCED_FACE ( 'NONE', ( #126 ), #47, .T. ) ;
#231 = MECHANICAL_DESIGN_GEOMETRIC_PRESENTATION_REPRESENTATION (  '', ( #284 ), #330 ) ;
#232 = CARTESIAN_POINT ( 'NONE',  ( 0.000000000000000000, 0.5000000000000000000, 0.000000000000000000 ) ) ;
#233 = FILL_AREA_STYLE_COLOUR ( '', #10 ) ;
#234 = CARTESIAN_POINT ( 'NONE',  ( -1.714505518806293652E-15, 89.00000000000000000, 0.000000000000000000 ) ) ;
#235 =( LENGTH_UNIT ( ) NAMED_UNIT ( * ) SI_UNIT ( .MILLI., .METRE. ) );
#236 = CARTESIAN_POINT ( 'NONE',  ( 6.288372600415925717E-15, 23.99999999999999289, 0.000000000000000000 ) ) ;
#237 = COLOUR_RGB ( '',1.000000000000000000, 0.000000000000000000, 0.000000000000000000 ) ;
#238 = SURFACE_STYLE_USAGE ( .BOTH. , #205 ) ;
#239 = FILL_AREA_STYLE_COLOUR ( '', #49 ) ;
#240 = UNCERTAINTY_MEASURE_WITH_UNIT (LENGTH_MEASURE( 1.000000000000000082E-05 ), #314, 'distance_accuracy_value', 'NONE');
#241 = ORIENTED_EDGE ( 'NONE', *, *, #87, .T. ) ;
#242 = DIRECTION ( 'NONE',  ( 0.000000000000000000, 0.000000000000000000, -1.000000000000000000 ) ) ;
#243 =( NAMED_UNIT ( * ) PLANE_ANGLE_UNIT ( ) SI_UNIT ( $, .RADIAN. ) );
#244 = CIRCLE ( 'NONE', #171, 7.500000000000000000 ) ;
#245 = AXIS2_PLACEMENT_3D ( 'NONE', #103, #191, #358 ) ;
#246 =( LENGTH_UNIT ( ) NAMED_UNIT ( * ) SI_UNIT ( .MILLI., .METRE. ) );
#247 = CARTESIAN_POINT ( 'NONE',  ( -1.714505518806293849E-15, 89.00000000000000000, 0.000000000000000000 ) ) ;
#248 = CYLINDRICAL_SURFACE ( 'NONE', #112, 7.999999999999996447 ) ;
#249 =( GEOMETRIC_REPRESENTATION_CONTEXT ( 3 ) GLOBAL_UNCERTAINTY_ASSIGNED_CONTEXT ( ( #1 ) ) GLOBAL_UNIT_ASSIGNED_CONTEXT ( ( #123, #243, #297 ) ) REPRESENTATION_CONTEXT ( 'NONE', 'WORKASPACE' ) );
#250 = CARTESIAN_POINT ( 'NONE',  ( 7.999999999999994671, 89.00000000000000000, 9.797174393178821713E-16 ) ) ;
#251 = EDGE_LOOP ( 'NONE', ( #147, #241 ) ) ;
#252 =( NAMED_UNIT ( * ) PLANE_ANGLE_UNIT ( ) SI_UNIT ( $, .RADIAN. ) );
#253 = ORIENTED_EDGE ( 'NONE', *, *, #291, .T. ) ;
#254 = CARTESIAN_POINT ( 'NONE',  ( -7.999999999999998224, 89.00000000000000000, 0.000000000000000000 ) ) ;
#255 = SURFACE_SIDE_STYLE ('',( #163 ) ) ;
#256 = CIRCLE ( 'NONE', #158, 7.500000000000000000 ) ;
#257 = DIRECTION ( 'NONE',  ( 0.000000000000000000, 1.000000000000000000, 0.000000000000000000 ) ) ;
#258 = ORIENTED_EDGE ( 'NONE', *, *, #228, .T. ) ;
#259 = PRODUCT_RELATED_PRODUCT_CATEGORY ( 'part', '', ( #129 ) ) ;
#260 = ADVANCED_FACE ( 'NONE', ( #162 ), #220, .T. ) ;
#261 = FILL_AREA_STYLE_COLOUR ( '', #31 ) ;
#262 =( NAMED_UNIT ( * ) PLANE_ANGLE_UNIT ( ) SI_UNIT ( $, .RADIAN. ) );
#263 = ORIENTED_EDGE ( 'NONE', *, *, #87, .F. ) ;
#264 =( NAMED_UNIT ( * ) SI_UNIT ( $, .STERADIAN. ) SOLID_ANGLE_UNIT ( ) );
#265 = CARTESIAN_POINT ( 'NONE',  ( -1.714505518806293849E-15, 89.00000000000000000, 0.000000000000000000 ) ) ;
#266 = PRESENTATION_LAYER_ASSIGNMENT (  '', '', ( #139 ) ) ;
#267 = SURFACE_SIDE_STYLE ('',( #97 ) ) ;
#268 = ORIENTED_EDGE ( 'NONE', *, *, #327, .F. ) ;
#269 = DIRECTION ( 'NONE',  ( -1.000000000000000000, 0.000000000000000000, 0.000000000000000000 ) ) ;
#270 = SURFACE_SIDE_STYLE ('',( #348 ) ) ;
#271 = CIRCLE ( 'NONE', #151, 8.000000000000000000 ) ;
#272 = DIRECTION ( 'NONE',  ( 0.000000000000000000, 0.000000000000000000, 1.000000000000000000 ) ) ;
#273 = FILL_AREA_STYLE_COLOUR ( '', #316 ) ;
#274 = DIRECTION ( 'NONE',  ( -1.000000000000000000, 0.000000000000000000, 0.000000000000000000 ) ) ;
#275 = ORIENTED_EDGE ( 'NONE', *, *, #141, .T. ) ;
#276 = CIRCLE ( 'NONE', #186, 8.000000000000001776 ) ;
#277 = FILL_AREA_STYLE_COLOUR ( '', #237 ) ;
#278 = ORIENTED_EDGE ( 'NONE', *, *, #214, .F. ) ;
#279 = CARTESIAN_POINT ( 'NONE',  ( 6.288372600415925717E-15, 24.00000000000000000, 0.000000000000000000 ) ) ;
#280 = FACE_OUTER_BOUND ( 'NONE', #285, .T. ) ;
#281 = SURFACE_STYLE_FILL_AREA ( #169 ) ;
#282 = ORIENTED_EDGE ( 'NONE', *, *, #228, .F. ) ;
#283 = DIRECTION ( 'NONE',  ( 0.000000000000000000, -0.000000000000000000, 1.000000000000000000 ) ) ;
#284 = STYLED_ITEM ( 'NONE', ( #132 ), #230 ) ;
#285 = EDGE_LOOP ( 'NONE', ( #192, #74, #131, #54 ) ) ;
#286 = PRESENTATION_STYLE_ASSIGNMENT (( #226 ) ) ;
#287 = MECHANICAL_DESIGN_GEOMETRIC_PRESENTATION_REPRESENTATION (  '', ( #370 ), #319 ) ;
#288 = DIRECTION ( 'NONE',  ( -1.000000000000000000, 0.000000000000000000, 0.000000000000000000 ) ) ;
#289 = DIRECTION ( 'NONE',  ( -1.231212018341879827E-16, 1.000000000000000000, -0.000000000000000000 ) ) ;
#290 = DIRECTION ( 'NONE',  ( -0.000000000000000000, -1.000000000000000000, -0.000000000000000000 ) ) ;
#291 = EDGE_CURVE ( 'NONE', #128, #190, #271, .T. ) ;
#292 = AXIS2_PLACEMENT_3D ( 'NONE', #187, #212, #77 ) ;
#293 = EDGE_CURVE ( 'NONE', #18, #140, #256, .T. ) ;
#294 = ORIENTED_EDGE ( 'NONE', *, *, #361, .F. ) ;
#295 = SHAPE_DEFINITION_REPRESENTATION ( #299, #88 ) ;
#296 = DIRECTION ( 'NONE',  ( -1.000000000000000000, 0.000000000000000000, 0.000000000000000000 ) ) ;
#297 =( NAMED_UNIT ( * ) SI_UNIT ( $, .STERADIAN. ) SOLID_ANGLE_UNIT ( ) );
#298 = EDGE_LOOP ( 'NONE', ( #311, #282 ) ) ;
#299 = PRODUCT_DEFINITION_SHAPE ( 'NONE', 'NONE',  #325 ) ;
#300 = PLANE ( 'NONE',  #355 ) ;
#301 = AXIS2_PLACEMENT_3D ( 'NONE', #320, #347, #242 ) ;
#302 = PRESENTATION_LAYER_ASSIGNMENT (  '', '', ( #370 ) ) ;
#303 = FACE_OUTER_BOUND ( 'NONE', #196, .T. ) ;
#304 = DIRECTION ( 'NONE',  ( 0.000000000000000000, 0.000000000000000000, -1.000000000000000000 ) ) ;
#305 = CARTESIAN_POINT ( 'NONE',  ( 0.000000000000000000, 24.00000000000000000, -8.000000000000000000 ) ) ;
#306 = EDGE_CURVE ( 'NONE', #225, #46, #61, .T. ) ;
#307 = ORIENTED_EDGE ( 'NONE', *, *, #130, .F. ) ;
#308 = AXIS2_PLACEMENT_3D ( 'NONE', #265, #175, #350 ) ;
#309 = MECHANICAL_DESIGN_GEOMETRIC_PRESENTATION_REPRESENTATION (  '', ( #40 ), #364 ) ;
#310 = FILL_AREA_STYLE ('',( #273 ) ) ;
#311 = ORIENTED_EDGE ( 'NONE', *, *, #59, .F. ) ;
#312 =( NAMED_UNIT ( * ) SI_UNIT ( $, .STERADIAN. ) SOLID_ANGLE_UNIT ( ) );
#313 = ORIENTED_EDGE ( 'NONE', *, *, #168, .T. ) ;
#314 =( LENGTH_UNIT ( ) NAMED_UNIT ( * ) SI_UNIT ( .MILLI., .METRE. ) );
#315 = ORIENTED_EDGE ( 'NONE', *, *, #188, .T. ) ;
#316 = COLOUR_RGB ( '',1.000000000000000000, 0.000000000000000000, 0.000000000000000000 ) ;
#317 = DIRECTION ( 'NONE',  ( 0.000000000000000000, 0.000000000000000000, -1.000000000000000000 ) ) ;
#318 = CARTESIAN_POINT ( 'NONE',  ( 0.000000000000000000, 0.000000000000000000, 0.000000000000000000 ) ) ;
#319 =( GEOMETRIC_REPRESENTATION_CONTEXT ( 3 ) GLOBAL_UNCERTAINTY_ASSIGNED_CONTEXT ( ( #331 ) ) GLOBAL_UNIT_ASSIGNED_CONTEXT ( ( #197, #96, #264 ) ) REPRESENTATION_CONTEXT ( 'NONE', 'WORKASPACE' ) );
#320 = CARTESIAN_POINT ( 'NONE',  ( 0.000000000000000000, 0.000000000000000000, 0.000000000000000000 ) ) ;
#321 = DIRECTION ( 'NONE',  ( -0.000000000000000000, -1.000000000000000000, -0.000000000000000000 ) ) ;
#322 = DIRECTION ( 'NONE',  ( -1.231212018341879827E-16, 1.000000000000000000, -0.000000000000000000 ) ) ;
#323 = MANIFOLD_SOLID_BREP ( 'Revolve - Cutting Edge', #48 ) ;
#324 =( NAMED_UNIT ( * ) SI_UNIT ( $, .STERADIAN. ) SOLID_ANGLE_UNIT ( ) );
#325 = PRODUCT_DEFINITION ( 'UNKNOWN', '', #81, #116 ) ;
#326 =( NAMED_UNIT ( * ) PLANE_ANGLE_UNIT ( ) SI_UNIT ( $, .RADIAN. ) );
#327 = EDGE_CURVE ( 'NONE', #128, #50, #145, .T. ) ;
#328 = APPLICATION_PROTOCOL_DEFINITION ( 'draft international standard', 'automotive_design', 1998, #183 ) ;
#329 =( NAMED_UNIT ( * ) SI_UNIT ( $, .STERADIAN. ) SOLID_ANGLE_UNIT ( ) );
#330 =( GEOMETRIC_REPRESENTATION_CONTEXT ( 3 ) GLOBAL_UNCERTAINTY_ASSIGNED_CONTEXT ( ( #176 ) ) GLOBAL_UNIT_ASSIGNED_CONTEXT ( ( #221, #367, #341 ) ) REPRESENTATION_CONTEXT ( 'NONE', 'WORKASPACE' ) );
#331 = UNCERTAINTY_MEASURE_WITH_UNIT (LENGTH_MEASURE( 1.000000000000000082E-05 ), #197, 'distance_accuracy_value', 'NONE');
#332 = FILL_AREA_STYLE ('',( #239 ) ) ;
#333 = CARTESIAN_POINT ( 'NONE',  ( 9.184850993605147944E-16, 0.5000000000000000000, 7.500000000000000000 ) ) ;
#334 = CARTESIAN_POINT ( 'NONE',  ( 0.000000000000000000, 0.5000000000000000000, -7.500000000000000000 ) ) ;
#335 = DIRECTION ( 'NONE',  ( -1.231212018341879827E-16, 1.000000000000000000, 0.000000000000000000 ) ) ;
#336 = SURFACE_STYLE_USAGE ( .BOTH. , #14 ) ;
#337 = ORIENTED_EDGE ( 'NONE', *, *, #293, .T. ) ;
#338 = CARTESIAN_POINT ( 'NONE',  ( 6.288372600415925717E-15, 23.99999999999999289, 0.000000000000000000 ) ) ;
#339 = VERTEX_POINT ( 'NONE', #53 ) ;
#340 = CIRCLE ( 'NONE', #292, 8.000000000000000000 ) ;
#341 =( NAMED_UNIT ( * ) SI_UNIT ( $, .STERADIAN. ) SOLID_ANGLE_UNIT ( ) );
#342 =( NAMED_UNIT ( * ) PLANE_ANGLE_UNIT ( ) SI_UNIT ( $, .RADIAN. ) );
#343 = CARTESIAN_POINT ( 'NONE',  ( 0.000000000000000000, 24.00000000000000000, 0.000000000000000000 ) ) ;
#344 = EDGE_LOOP ( 'NONE', ( #268, #253, #217, #307 ) ) ;
#345 = DIRECTION ( 'NONE',  ( -0.000000000000000000, -1.000000000000000000, -0.000000000000000000 ) ) ;
#346 = CIRCLE ( 'NONE', #177, 0.5000000000000004441 ) ;
#347 = DIRECTION ( 'NONE',  ( -0.000000000000000000, -1.000000000000000000, -0.000000000000000000 ) ) ;
#348 = SURFACE_STYLE_FILL_AREA ( #332 ) ;
#349 = AXIS2_PLACEMENT_3D ( 'NONE', #352, #206, #71 ) ;
#350 = DIRECTION ( 'NONE',  ( -1.000000000000000000, 0.000000000000000000, 0.000000000000000000 ) ) ;
#351 = DIRECTION ( 'NONE',  ( 0.000000000000000000, 0.000000000000000000, -1.000000000000000000 ) ) ;
#352 = CARTESIAN_POINT ( 'NONE',  ( 0.000000000000000000, 0.000000000000000000, 0.000000000000000000 ) ) ;
#353 = CARTESIAN_POINT ( 'NONE',  ( -1.714505518806293652E-15, 89.00000000000000000, 0.000000000000000000 ) ) ;
#354 = DIRECTION ( 'NONE',  ( 0.000000000000000000, 0.000000000000000000, -1.000000000000000000 ) ) ;
#355 = AXIS2_PLACEMENT_3D ( 'NONE', #108, #102, #218 ) ;
#356 =( NAMED_UNIT ( * ) SI_UNIT ( $, .STERADIAN. ) SOLID_ANGLE_UNIT ( ) );
#357 = ORIENTED_EDGE ( 'NONE', *, *, #189, .T. ) ;
#358 = DIRECTION ( 'NONE',  ( 0.000000000000000000, 0.000000000000000000, -1.000000000000000000 ) ) ;
#359 = CARTESIAN_POINT ( 'NONE',  ( 9.797174393178825657E-16, 24.00000000000000000, 8.000000000000000000 ) ) ;
#360 = ADVANCED_FACE ( 'NONE', ( #34 ), #8, .T. ) ;
#361 = EDGE_CURVE ( 'NONE', #140, #18, #244, .T. ) ;
#362 = CARTESIAN_POINT ( 'NONE',  ( 0.000000000000000000, 24.00000000000000000, 0.000000000000000000 ) ) ;
#363 = ORIENTED_EDGE ( 'NONE', *, *, #306, .F. ) ;
#364 =( GEOMETRIC_REPRESENTATION_CONTEXT ( 3 ) GLOBAL_UNCERTAINTY_ASSIGNED_CONTEXT ( ( #13 ) ) GLOBAL_UNIT_ASSIGNED_CONTEXT ( ( #172, #262, #324 ) ) REPRESENTATION_CONTEXT ( 'NONE', 'WORKASPACE' ) );
#365 =( LENGTH_UNIT ( ) NAMED_UNIT ( * ) SI_UNIT ( .MILLI., .METRE. ) );
#366 = FILL_AREA_STYLE_COLOUR ( '', #57 ) ;
#367 =( NAMED_UNIT ( * ) PLANE_ANGLE_UNIT ( ) SI_UNIT ( $, .RADIAN. ) );
#368 = COLOUR_RGB ( '',1.000000000000000000, 0.000000000000000000, 0.000000000000000000 ) ;
#369 = EDGE_CURVE ( 'NONE', #46, #2, #51, .T. ) ;
#370 = STYLED_ITEM ( 'NONE', ( #21 ), #323 ) ;
ENDSEC;
END-ISO-10303-21;
