ISO-10303-21;
HEADER;
FILE_DESCRIPTION (( 'STEP AP214' ),
    '1' );
FILE_NAME ('05712.STEP',
    '2023-06-22T16:19:37',
    ( '' ),
    ( '' ),
    'SwSTEP 2.0',
    'SolidWorks 2023',
    '' );
FILE_SCHEMA (( 'AUTOMOTIVE_DESIGN' ));
ENDSEC;

DATA;
#1 = DIMENSIONAL_EXPONENTS ( 1.000000000000000000, 0.000000000000000000, 0.000000000000000000, 0.000000000000000000, 0.000000000000000000, 0.000000000000000000, 0.000000000000000000 ) ;
#2 = ADVANCED_FACE ( 'NONE', ( #193 ), #73, .T. ) ;
#3 = DIRECTION ( 'NONE',  ( 0.000000000000000000, -1.000000000000000000, -0.000000000000000000 ) ) ;
#4 = LENGTH_MEASURE_WITH_UNIT ( LENGTH_MEASURE( 0.02539999999999999897 ), #181 );
#5 = PRESENTATION_LAYER_ASSIGNMENT (  '', '', ( #232 ) ) ;
#6 = DIRECTION ( 'NONE',  ( -1.000000000000000000, 0.000000000000000000, 0.000000000000000000 ) ) ;
#7 =( NAMED_UNIT ( * ) PLANE_ANGLE_UNIT ( ) SI_UNIT ( $, .RADIAN. ) );
#8 = FILL_AREA_STYLE ('',( #224 ) ) ;
#9 = CARTESIAN_POINT ( 'NONE',  ( 0.000000000000000000, 1.625000000000000000, 0.000000000000000000 ) ) ;
#10 = CARTESIAN_POINT ( 'NONE',  ( 0.000000000000000000, 1.625000000000000000, -0.3750000000000000555 ) ) ;
#11 = CARTESIAN_POINT ( 'NONE',  ( 0.000000000000000000, 0.000000000000000000, -0.3750000000000000555 ) ) ;
#12 = AXIS2_PLACEMENT_3D ( 'NONE', #14, #159, #69 ) ;
#13 = ORIENTED_EDGE ( 'NONE', *, *, #167, .T. ) ;
#14 = CARTESIAN_POINT ( 'NONE',  ( -1.224646799147352714E-16, 4.000000000000000000, 0.000000000000000000 ) ) ;
#15 =( NAMED_UNIT ( * ) SI_UNIT ( $, .STERADIAN. ) SOLID_ANGLE_UNIT ( ) );
#16 = PRODUCT_DEFINITION_SHAPE ( 'NONE', 'NONE',  #62 ) ;
#17 = CIRCLE ( 'NONE', #79, 0.3750000000000000555 ) ;
#18 = ORIENTED_EDGE ( 'NONE', *, *, #57, .F. ) ;
#19 = FACE_OUTER_BOUND ( 'NONE', #91, .T. ) ;
#20 = DIMENSIONAL_EXPONENTS ( 1.000000000000000000, 0.000000000000000000, 0.000000000000000000, 0.000000000000000000, 0.000000000000000000, 0.000000000000000000, 0.000000000000000000 ) ;
#21 = LINE ( 'NONE', #290, #280 ) ;
#22 = EDGE_CURVE ( 'NONE', #189, #234, #21, .T. ) ;
#23 = CIRCLE ( 'NONE', #12, 0.3750000000000001665 ) ;
#24 = UNCERTAINTY_MEASURE_WITH_UNIT (LENGTH_MEASURE( 1.000000000000000082E-05 ), #152, 'distance_accuracy_value', 'NONE');
#25 = DIRECTION ( 'NONE',  ( 1.000000000000000000, 5.156407575357275916E-17, 0.000000000000000000 ) ) ;
#26 = EDGE_CURVE ( 'NONE', #234, #40, #17, .T. ) ;
#27 = AXIS2_PLACEMENT_3D ( 'NONE', #59, #29, #255 ) ;
#28 = DIMENSIONAL_EXPONENTS ( 1.000000000000000000, 0.000000000000000000, 0.000000000000000000, 0.000000000000000000, 0.000000000000000000, 0.000000000000000000, 0.000000000000000000 ) ;
#29 = DIRECTION ( 'NONE',  ( -0.000000000000000000, -1.000000000000000000, -0.000000000000000000 ) ) ;
#30 = CYLINDRICAL_SURFACE ( 'NONE', #188, 0.3750000000000000555 ) ;
#31 = UNCERTAINTY_MEASURE_WITH_UNIT (LENGTH_MEASURE( 1.000000000000000082E-05 ), #260, 'distance_accuracy_value', 'NONE');
#32 = PRESENTATION_STYLE_ASSIGNMENT (( #154 ) ) ;
#33 = AXIS2_PLACEMENT_3D ( 'NONE', #266, #76, #191 ) ;
#34 = LINE ( 'NONE', #85, #141 ) ;
#35 = PLANE ( 'NONE',  #222 ) ;
#36 = ORIENTED_EDGE ( 'NONE', *, *, #114, .F. ) ;
#37 =( NAMED_UNIT ( * ) PLANE_ANGLE_UNIT ( ) SI_UNIT ( $, .RADIAN. ) );
#38 = PRESENTATION_STYLE_ASSIGNMENT (( #256 ) ) ;
#39 = ADVANCED_FACE ( 'NONE', ( #293 ), #30, .T. ) ;
#40 = VERTEX_POINT ( 'NONE', #41 ) ;
#41 = CARTESIAN_POINT ( 'NONE',  ( 4.592425496802575451E-17, 0.000000000000000000, 0.3750000000000000555 ) ) ;
#42 = MECHANICAL_DESIGN_GEOMETRIC_PRESENTATION_REPRESENTATION (  '', ( #170 ), #217 ) ;
#43 = EDGE_LOOP ( 'NONE', ( #36, #220, #50, #283 ) ) ;
#44 = PRESENTATION_STYLE_ASSIGNMENT (( #215 ) ) ;
#45 = ADVANCED_FACE ( 'NONE', ( #213 ), #285, .T. ) ;
#46 = UNCERTAINTY_MEASURE_WITH_UNIT (LENGTH_MEASURE( 1.000000000000000082E-05 ), #235, 'distance_accuracy_value', 'NONE');
#47 = PRODUCT ( '05712', '05712', '', ( #219 ) ) ;
#48 = AXIS2_PLACEMENT_3D ( 'NONE', #200, #163, #92 ) ;
#49 = EDGE_LOOP ( 'NONE', ( #115, #107, #299, #65 ) ) ;
#50 = ORIENTED_EDGE ( 'NONE', *, *, #284, .T. ) ;
#51 = AXIS2_PLACEMENT_3D ( 'NONE', #197, #125, #25 ) ;
#52 = LINE ( 'NONE', #131, #98 ) ;
#53 = ORIENTED_EDGE ( 'NONE', *, *, #134, .F. ) ;
#54 = SURFACE_STYLE_FILL_AREA ( #229 ) ;
#55 = COLOUR_RGB ( '',0.7921568627450980005, 0.8196078431372548767, 0.9333333333333333481 ) ;
#56 = PRESENTATION_LAYER_ASSIGNMENT (  '', '', ( #147 ) ) ;
#57 = EDGE_CURVE ( 'NONE', #97, #247, #23, .T. ) ;
#58 = CIRCLE ( 'NONE', #201, 0.3750000000000000555 ) ;
#59 = CARTESIAN_POINT ( 'NONE',  ( 0.000000000000000000, 1.625000000000000000, 0.000000000000000000 ) ) ;
#60 = AXIS2_PLACEMENT_3D ( 'NONE', #309, #102, #100 ) ;
#61 = FILL_AREA_STYLE_COLOUR ( '', #302 ) ;
#62 = PRODUCT_DEFINITION ( 'UNKNOWN', '', #104, #168 ) ;
#63 = FILL_AREA_STYLE ('',( #261 ) ) ;
#64 = COLOUR_RGB ( '',1.000000000000000000, 0.000000000000000000, 0.000000000000000000 ) ;
#65 = ORIENTED_EDGE ( 'NONE', *, *, #22, .F. ) ;
#66 = FILL_AREA_STYLE_COLOUR ( '', #55 ) ;
#67 = SURFACE_STYLE_FILL_AREA ( #63 ) ;
#68 = COLOUR_RGB ( '',1.000000000000000000, 0.000000000000000000, 0.000000000000000000 ) ;
#69 = DIRECTION ( 'NONE',  ( -1.000000000000000000, 0.000000000000000000, 0.000000000000000000 ) ) ;
#70 = LENGTH_MEASURE_WITH_UNIT ( LENGTH_MEASURE( 0.02539999999999999897 ), #286 );
#71 = ORIENTED_EDGE ( 'NONE', *, *, #257, .T. ) ;
#72 = SHAPE_DEFINITION_REPRESENTATION ( #16, #128 ) ;
#73 = CYLINDRICAL_SURFACE ( 'NONE', #146, 0.3750000000000001110 ) ;
#74 = FACE_OUTER_BOUND ( 'NONE', #43, .T. ) ;
#75 = APPLICATION_CONTEXT ( 'automotive_design' ) ;
#76 = DIRECTION ( 'NONE',  ( -5.156407575357275299E-17, 1.000000000000000000, -0.000000000000000000 ) ) ;
#77 = CARTESIAN_POINT ( 'NONE',  ( -1.224646799147352714E-16, 4.000000000000000000, 0.000000000000000000 ) ) ;
#78 = VERTEX_POINT ( 'NONE', #287 ) ;
#79 = AXIS2_PLACEMENT_3D ( 'NONE', #267, #145, #83 ) ;
#80 = DIRECTION ( 'NONE',  ( -1.000000000000000000, 0.000000000000000000, 0.000000000000000000 ) ) ;
#81 = AXIS2_PLACEMENT_3D ( 'NONE', #265, #246, #306 ) ;
#82 = SURFACE_SIDE_STYLE ('',( #153 ) ) ;
#83 = DIRECTION ( 'NONE',  ( 0.000000000000000000, 0.000000000000000000, -1.000000000000000000 ) ) ;
#84 = CARTESIAN_POINT ( 'NONE',  ( -1.224646799147352714E-16, 4.000000000000000000, 0.000000000000000000 ) ) ;
#85 = CARTESIAN_POINT ( 'NONE',  ( 0.3749999999999999445, 4.000000000000000000, 4.592425496802576068E-17 ) ) ;
#86 = SURFACE_STYLE_FILL_AREA ( #109 ) ;
#87 = PRESENTATION_STYLE_ASSIGNMENT (( #203 ) ) ;
#88 = FILL_AREA_STYLE_COLOUR ( '', #68 ) ;
#89 = STYLED_ITEM ( 'NONE', ( #38 ), #45 ) ;
#90 = EDGE_LOOP ( 'NONE', ( #238, #113, #183, #53 ) ) ;
#91 = EDGE_LOOP ( 'NONE', ( #166, #71 ) ) ;
#92 = DIRECTION ( 'NONE',  ( -1.000000000000000000, 0.000000000000000000, 0.000000000000000000 ) ) ;
#93 = CLOSED_SHELL ( 'NONE', ( #39, #157, #45, #142 ) ) ;
#94 = CIRCLE ( 'NONE', #60, 0.3750000000000000555 ) ;
#95 = UNCERTAINTY_MEASURE_WITH_UNIT (LENGTH_MEASURE( 1.000000000000000082E-05 ), #105, 'distance_accuracy_value', 'NONE');
#96 =( CONVERSION_BASED_UNIT ( 'INCH', #214 ) LENGTH_UNIT ( ) NAMED_UNIT ( #20 ) );
#97 = VERTEX_POINT ( 'NONE', #262 ) ;
#98 = VECTOR ( 'NONE', #294, 39.37007874015748143 ) ;
#99 = ADVANCED_FACE ( 'NONE', ( #19 ), #124, .F. ) ;
#100 = DIRECTION ( 'NONE',  ( 0.000000000000000000, 0.000000000000000000, -1.000000000000000000 ) ) ;
#101 = MANIFOLD_SOLID_BREP ( 'Revolve - Cutting Edge', #93 ) ;
#102 = DIRECTION ( 'NONE',  ( -0.000000000000000000, -1.000000000000000000, -0.000000000000000000 ) ) ;
#103 = DIMENSIONAL_EXPONENTS ( 1.000000000000000000, 0.000000000000000000, 0.000000000000000000, 0.000000000000000000, 0.000000000000000000, 0.000000000000000000, 0.000000000000000000 ) ;
#104 = PRODUCT_DEFINITION_FORMATION_WITH_SPECIFIED_SOURCE ( 'ANY', '', #47, .NOT_KNOWN. ) ;
#105 =( CONVERSION_BASED_UNIT ( 'INCH', #205 ) LENGTH_UNIT ( ) NAMED_UNIT ( #1 ) );
#106 = DIRECTION ( 'NONE',  ( -5.156407575357275916E-17, 1.000000000000000000, -0.000000000000000000 ) ) ;
#107 = ORIENTED_EDGE ( 'NONE', *, *, #122, .T. ) ;
#108 =( LENGTH_UNIT ( ) NAMED_UNIT ( * ) SI_UNIT ( $, .METRE. ) );
#109 = FILL_AREA_STYLE ('',( #251 ) ) ;
#110 =( LENGTH_UNIT ( ) NAMED_UNIT ( * ) SI_UNIT ( $, .METRE. ) );
#111 = EDGE_LOOP ( 'NONE', ( #13, #165, #18, #305 ) ) ;
#112 = COLOUR_RGB ( '',1.000000000000000000, 0.000000000000000000, 0.000000000000000000 ) ;
#113 = ORIENTED_EDGE ( 'NONE', *, *, #195, .T. ) ;
#114 = EDGE_CURVE ( 'NONE', #140, #247, #34, .T. ) ;
#115 = ORIENTED_EDGE ( 'NONE', *, *, #150, .T. ) ;
#116 =( GEOMETRIC_REPRESENTATION_CONTEXT ( 3 ) GLOBAL_UNCERTAINTY_ASSIGNED_CONTEXT ( ( #242 ) ) GLOBAL_UNIT_ASSIGNED_CONTEXT ( ( #187, #194, #216 ) ) REPRESENTATION_CONTEXT ( 'NONE', 'WORKASPACE' ) );
#117 = EDGE_LOOP ( 'NONE', ( #236, #211 ) ) ;
#118 =( NAMED_UNIT ( * ) PLANE_ANGLE_UNIT ( ) SI_UNIT ( $, .RADIAN. ) );
#119 = CARTESIAN_POINT ( 'NONE',  ( 0.000000000000000000, 0.000000000000000000, 0.000000000000000000 ) ) ;
#120 = SURFACE_SIDE_STYLE ('',( #156 ) ) ;
#121 = MECHANICAL_DESIGN_GEOMETRIC_PRESENTATION_REPRESENTATION (  '', ( #160 ), #116 ) ;
#122 = EDGE_CURVE ( 'NONE', #78, #40, #52, .T. ) ;
#123 = DIMENSIONAL_EXPONENTS ( 1.000000000000000000, 0.000000000000000000, 0.000000000000000000, 0.000000000000000000, 0.000000000000000000, 0.000000000000000000, 0.000000000000000000 ) ;
#124 = PLANE ( 'NONE',  #51 ) ;
#125 = DIRECTION ( 'NONE',  ( 5.156407575357275916E-17, -1.000000000000000000, 0.000000000000000000 ) ) ;
#126 = MECHANICAL_DESIGN_GEOMETRIC_PRESENTATION_REPRESENTATION (  '', ( #231 ), #237 ) ;
#127 = PRODUCT_RELATED_PRODUCT_CATEGORY ( 'part', '', ( #47 ) ) ;
#128 = ADVANCED_BREP_SHAPE_REPRESENTATION ( '05712', ( #101, #308, #81 ), #300 ) ;
#129 =( GEOMETRIC_REPRESENTATION_CONTEXT ( 3 ) GLOBAL_UNCERTAINTY_ASSIGNED_CONTEXT ( ( #31 ) ) GLOBAL_UNIT_ASSIGNED_CONTEXT ( ( #260, #37, #303 ) ) REPRESENTATION_CONTEXT ( 'NONE', 'WORKASPACE' ) );
#130 = ORIENTED_EDGE ( 'NONE', *, *, #134, .T. ) ;
#131 = CARTESIAN_POINT ( 'NONE',  ( 4.592425496802575451E-17, 0.000000000000000000, 0.3750000000000000555 ) ) ;
#132 = LENGTH_MEASURE_WITH_UNIT ( LENGTH_MEASURE( 0.02539999999999999897 ), #139 );
#133 = SURFACE_STYLE_USAGE ( .BOTH. , #204 ) ;
#134 = EDGE_CURVE ( 'NONE', #40, #234, #94, .T. ) ;
#135 = DIRECTION ( 'NONE',  ( 0.000000000000000000, 0.000000000000000000, -1.000000000000000000 ) ) ;
#136 = FACE_OUTER_BOUND ( 'NONE', #253, .T. ) ;
#137 = PLANE ( 'NONE',  #254 ) ;
#138 = FILL_AREA_STYLE ('',( #61 ) ) ;
#139 =( LENGTH_UNIT ( ) NAMED_UNIT ( * ) SI_UNIT ( $, .METRE. ) );
#140 = VERTEX_POINT ( 'NONE', #199 ) ;
#141 = VECTOR ( 'NONE', #279, 39.37007874015748143 ) ;
#142 = ADVANCED_FACE ( 'NONE', ( #136 ), #137, .T. ) ;
#143 =( NAMED_UNIT ( * ) SI_UNIT ( $, .STERADIAN. ) SOLID_ANGLE_UNIT ( ) );
#144 =( NAMED_UNIT ( * ) SI_UNIT ( $, .STERADIAN. ) SOLID_ANGLE_UNIT ( ) );
#145 = DIRECTION ( 'NONE',  ( -0.000000000000000000, -1.000000000000000000, -0.000000000000000000 ) ) ;
#146 = AXIS2_PLACEMENT_3D ( 'NONE', #77, #221, #80 ) ;
#147 = STYLED_ITEM ( 'NONE', ( #198 ), #157 ) ;
#148 = AXIS2_PLACEMENT_3D ( 'NONE', #9, #278, #297 ) ;
#149 = CARTESIAN_POINT ( 'NONE',  ( 0.3750000000000000555, 4.000000000000000000, 4.592425496802576684E-17 ) ) ;
#150 = EDGE_CURVE ( 'NONE', #189, #78, #264, .T. ) ;
#151 = CIRCLE ( 'NONE', #48, 0.3750000000000000555 ) ;
#152 =( CONVERSION_BASED_UNIT ( 'INCH', #132 ) LENGTH_UNIT ( ) NAMED_UNIT ( #289 ) );
#153 = SURFACE_STYLE_FILL_AREA ( #8 ) ;
#154 = SURFACE_STYLE_USAGE ( .BOTH. , #252 ) ;
#155 = ORIENTED_EDGE ( 'NONE', *, *, #26, .T. ) ;
#156 = SURFACE_STYLE_FILL_AREA ( #240 ) ;
#157 = ADVANCED_FACE ( 'NONE', ( #227 ), #272, .T. ) ;
#158 =( NAMED_UNIT ( * ) PLANE_ANGLE_UNIT ( ) SI_UNIT ( $, .RADIAN. ) );
#159 = DIRECTION ( 'NONE',  ( -5.156407575357275299E-17, 1.000000000000000000, -0.000000000000000000 ) ) ;
#160 = STYLED_ITEM ( 'NONE', ( #32 ), #39 ) ;
#161 = CARTESIAN_POINT ( 'NONE',  ( 0.000000000000000000, 0.000000000000000000, 0.000000000000000000 ) ) ;
#162 = DIRECTION ( 'NONE',  ( -1.000000000000000000, 0.000000000000000000, 0.000000000000000000 ) ) ;
#163 = DIRECTION ( 'NONE',  ( -5.156407575357275299E-17, 1.000000000000000000, -0.000000000000000000 ) ) ;
#164 = UNCERTAINTY_MEASURE_WITH_UNIT (LENGTH_MEASURE( 1.000000000000000082E-05 ), #96, 'distance_accuracy_value', 'NONE');
#165 = ORIENTED_EDGE ( 'NONE', *, *, #114, .T. ) ;
#166 = ORIENTED_EDGE ( 'NONE', *, *, #57, .T. ) ;
#167 = EDGE_CURVE ( 'NONE', #185, #140, #58, .T. ) ;
#168 = PRODUCT_DEFINITION_CONTEXT ( 'detailed design', #75, 'design' ) ;
#169 = CLOSED_SHELL ( 'NONE', ( #2, #184, #178, #99 ) ) ;
#170 = STYLED_ITEM ( 'NONE', ( #87 ), #142 ) ;
#171 = MECHANICAL_DESIGN_GEOMETRIC_PRESENTATION_REPRESENTATION (  '', ( #232 ), #129 ) ;
#172 = LINE ( 'NONE', #270, #277 ) ;
#173 = SURFACE_SIDE_STYLE ('',( #202 ) ) ;
#174 =( CONVERSION_BASED_UNIT ( 'INCH', #4 ) LENGTH_UNIT ( ) NAMED_UNIT ( #28 ) );
#175 = DIRECTION ( 'NONE',  ( -5.156407575357275299E-17, 1.000000000000000000, -0.000000000000000000 ) ) ;
#176 = AXIS2_PLACEMENT_3D ( 'NONE', #84, #225, #6 ) ;
#177 = AXIS2_PLACEMENT_3D ( 'NONE', #161, #244, #259 ) ;
#178 = ADVANCED_FACE ( 'NONE', ( #74 ), #218, .T. ) ;
#179 = EDGE_LOOP ( 'NONE', ( #209, #245 ) ) ;
#180 =( NAMED_UNIT ( * ) SI_UNIT ( $, .STERADIAN. ) SOLID_ANGLE_UNIT ( ) );
#181 =( LENGTH_UNIT ( ) NAMED_UNIT ( * ) SI_UNIT ( $, .METRE. ) );
#182 = DIRECTION ( 'NONE',  ( -5.156407575357275916E-17, 1.000000000000000000, 0.000000000000000000 ) ) ;
#183 = ORIENTED_EDGE ( 'NONE', *, *, #22, .T. ) ;
#184 = ADVANCED_FACE ( 'NONE', ( #263 ), #35, .F. ) ;
#185 = VERTEX_POINT ( 'NONE', #274 ) ;
#186 = AXIS2_PLACEMENT_3D ( 'NONE', #230, #250, #296 ) ;
#187 =( CONVERSION_BASED_UNIT ( 'INCH', #233 ) LENGTH_UNIT ( ) NAMED_UNIT ( #241 ) );
#188 = AXIS2_PLACEMENT_3D ( 'NONE', #119, #210, #190 ) ;
#189 = VERTEX_POINT ( 'NONE', #10 ) ;
#190 = DIRECTION ( 'NONE',  ( 0.000000000000000000, 0.000000000000000000, -1.000000000000000000 ) ) ;
#191 = DIRECTION ( 'NONE',  ( -1.000000000000000000, 0.000000000000000000, 0.000000000000000000 ) ) ;
#192 = APPLICATION_PROTOCOL_DEFINITION ( 'draft international standard', 'automotive_design', 1998, #75 ) ;
#193 = FACE_OUTER_BOUND ( 'NONE', #111, .T. ) ;
#194 =( NAMED_UNIT ( * ) PLANE_ANGLE_UNIT ( ) SI_UNIT ( $, .RADIAN. ) );
#195 = EDGE_CURVE ( 'NONE', #78, #189, #275, .T. ) ;
#196 = PRESENTATION_LAYER_ASSIGNMENT (  '', '', ( #231 ) ) ;
#197 = CARTESIAN_POINT ( 'NONE',  ( 0.3750000000000000555, 4.000000000000000000, 0.000000000000000000 ) ) ;
#198 = PRESENTATION_STYLE_ASSIGNMENT (( #133 ) ) ;
#199 = CARTESIAN_POINT ( 'NONE',  ( 0.3750000000000000555, 1.625000000000000000, 4.592425496802576684E-17 ) ) ;
#200 = CARTESIAN_POINT ( 'NONE',  ( 3.032960542342103792E-32, 1.625000000000000000, 0.000000000000000000 ) ) ;
#201 = AXIS2_PLACEMENT_3D ( 'NONE', #223, #175, #162 ) ;
#202 = SURFACE_STYLE_FILL_AREA ( #138 ) ;
#203 = SURFACE_STYLE_USAGE ( .BOTH. , #82 ) ;
#204 = SURFACE_SIDE_STYLE ('',( #86 ) ) ;
#205 = LENGTH_MEASURE_WITH_UNIT ( LENGTH_MEASURE( 0.02539999999999999897 ), #110 );
#206 =( GEOMETRIC_REPRESENTATION_CONTEXT ( 3 ) GLOBAL_UNCERTAINTY_ASSIGNED_CONTEXT ( ( #164 ) ) GLOBAL_UNIT_ASSIGNED_CONTEXT ( ( #96, #118, #144 ) ) REPRESENTATION_CONTEXT ( 'NONE', 'WORKASPACE' ) );
#207 = CARTESIAN_POINT ( 'NONE',  ( 4.985351078100356093E-34, 1.625000000000000000, 0.000000000000000000 ) ) ;
#208 = SURFACE_STYLE_USAGE ( .BOTH. , #173 ) ;
#209 = ORIENTED_EDGE ( 'NONE', *, *, #167, .F. ) ;
#210 = DIRECTION ( 'NONE',  ( -0.000000000000000000, -1.000000000000000000, -0.000000000000000000 ) ) ;
#211 = ORIENTED_EDGE ( 'NONE', *, *, #195, .F. ) ;
#212 =( NAMED_UNIT ( * ) PLANE_ANGLE_UNIT ( ) SI_UNIT ( $, .RADIAN. ) );
#213 = FACE_OUTER_BOUND ( 'NONE', #90, .T. ) ;
#214 = LENGTH_MEASURE_WITH_UNIT ( LENGTH_MEASURE( 0.02539999999999999897 ), #108 );
#215 = SURFACE_STYLE_USAGE ( .BOTH. , #120 ) ;
#216 =( NAMED_UNIT ( * ) SI_UNIT ( $, .STERADIAN. ) SOLID_ANGLE_UNIT ( ) );
#217 =( GEOMETRIC_REPRESENTATION_CONTEXT ( 3 ) GLOBAL_UNCERTAINTY_ASSIGNED_CONTEXT ( ( #95 ) ) GLOBAL_UNIT_ASSIGNED_CONTEXT ( ( #105, #158, #239 ) ) REPRESENTATION_CONTEXT ( 'NONE', 'WORKASPACE' ) );
#218 = CYLINDRICAL_SURFACE ( 'NONE', #33, 0.3750000000000001110 ) ;
#219 = PRODUCT_CONTEXT ( 'NONE', #249, 'mechanical' ) ;
#220 = ORIENTED_EDGE ( 'NONE', *, *, #292, .T. ) ;
#221 = DIRECTION ( 'NONE',  ( -5.156407575357275299E-17, 1.000000000000000000, -0.000000000000000000 ) ) ;
#222 = AXIS2_PLACEMENT_3D ( 'NONE', #207, #182, #276 ) ;
#223 = CARTESIAN_POINT ( 'NONE',  ( 3.032960542342103792E-32, 1.625000000000000000, 0.000000000000000000 ) ) ;
#224 = FILL_AREA_STYLE_COLOUR ( '', #307 ) ;
#225 = DIRECTION ( 'NONE',  ( -5.156407575357275299E-17, 1.000000000000000000, -0.000000000000000000 ) ) ;
#226 =( NAMED_UNIT ( * ) PLANE_ANGLE_UNIT ( ) SI_UNIT ( $, .RADIAN. ) );
#227 = FACE_OUTER_BOUND ( 'NONE', #117, .T. ) ;
#228 = CIRCLE ( 'NONE', #176, 0.3750000000000001665 ) ;
#229 = FILL_AREA_STYLE ('',( #88 ) ) ;
#230 = CARTESIAN_POINT ( 'NONE',  ( 0.000000000000000000, 1.625000000000000000, 0.000000000000000000 ) ) ;
#231 = STYLED_ITEM ( 'NONE', ( #271 ), #101 ) ;
#232 = STYLED_ITEM ( 'NONE', ( #44 ), #308 ) ;
#233 = LENGTH_MEASURE_WITH_UNIT ( LENGTH_MEASURE( 0.02539999999999999897 ), #273 );
#234 = VERTEX_POINT ( 'NONE', #11 ) ;
#235 =( CONVERSION_BASED_UNIT ( 'INCH', #70 ) LENGTH_UNIT ( ) NAMED_UNIT ( #103 ) );
#236 = ORIENTED_EDGE ( 'NONE', *, *, #150, .F. ) ;
#237 =( GEOMETRIC_REPRESENTATION_CONTEXT ( 3 ) GLOBAL_UNCERTAINTY_ASSIGNED_CONTEXT ( ( #24 ) ) GLOBAL_UNIT_ASSIGNED_CONTEXT ( ( #152, #7, #180 ) ) REPRESENTATION_CONTEXT ( 'NONE', 'WORKASPACE' ) );
#238 = ORIENTED_EDGE ( 'NONE', *, *, #122, .F. ) ;
#239 =( NAMED_UNIT ( * ) SI_UNIT ( $, .STERADIAN. ) SOLID_ANGLE_UNIT ( ) );
#240 = FILL_AREA_STYLE ('',( #66 ) ) ;
#241 = DIMENSIONAL_EXPONENTS ( 1.000000000000000000, 0.000000000000000000, 0.000000000000000000, 0.000000000000000000, 0.000000000000000000, 0.000000000000000000, 0.000000000000000000 ) ;
#242 = UNCERTAINTY_MEASURE_WITH_UNIT (LENGTH_MEASURE( 1.000000000000000082E-05 ), #187, 'distance_accuracy_value', 'NONE');
#243 = CARTESIAN_POINT ( 'NONE',  ( 0.000000000000000000, 0.000000000000000000, 0.000000000000000000 ) ) ;
#244 = DIRECTION ( 'NONE',  ( -0.000000000000000000, -1.000000000000000000, -0.000000000000000000 ) ) ;
#245 = ORIENTED_EDGE ( 'NONE', *, *, #292, .F. ) ;
#246 = DIRECTION ( 'NONE',  ( 0.000000000000000000, 0.000000000000000000, 1.000000000000000000 ) ) ;
#247 = VERTEX_POINT ( 'NONE', #149 ) ;
#248 = PRESENTATION_LAYER_ASSIGNMENT (  '', '', ( #170 ) ) ;
#249 = APPLICATION_CONTEXT ( 'automotive_design' ) ;
#250 = DIRECTION ( 'NONE',  ( 0.000000000000000000, 1.000000000000000000, 0.000000000000000000 ) ) ;
#251 = FILL_AREA_STYLE_COLOUR ( '', #64 ) ;
#252 = SURFACE_SIDE_STYLE ('',( #54 ) ) ;
#253 = EDGE_LOOP ( 'NONE', ( #155, #130 ) ) ;
#254 = AXIS2_PLACEMENT_3D ( 'NONE', #243, #3, #135 ) ;
#255 = DIRECTION ( 'NONE',  ( 0.000000000000000000, 0.000000000000000000, -1.000000000000000000 ) ) ;
#256 = SURFACE_STYLE_USAGE ( .BOTH. , #281 ) ;
#257 = EDGE_CURVE ( 'NONE', #247, #97, #228, .T. ) ;
#258 = APPLICATION_PROTOCOL_DEFINITION ( 'draft international standard', 'automotive_design', 1998, #249 ) ;
#259 = DIRECTION ( 'NONE',  ( 0.000000000000000000, 0.000000000000000000, -1.000000000000000000 ) ) ;
#260 =( CONVERSION_BASED_UNIT ( 'INCH', #301 ) LENGTH_UNIT ( ) NAMED_UNIT ( #123 ) );
#261 = FILL_AREA_STYLE_COLOUR ( '', #112 ) ;
#262 = CARTESIAN_POINT ( 'NONE',  ( -0.3750000000000002776, 4.000000000000000000, 0.000000000000000000 ) ) ;
#263 = FACE_OUTER_BOUND ( 'NONE', #179, .T. ) ;
#264 = CIRCLE ( 'NONE', #148, 0.3750000000000000555 ) ;
#265 = CARTESIAN_POINT ( 'NONE',  ( 0.000000000000000000, 0.000000000000000000, 0.000000000000000000 ) ) ;
#266 = CARTESIAN_POINT ( 'NONE',  ( -1.224646799147352714E-16, 4.000000000000000000, 0.000000000000000000 ) ) ;
#267 = CARTESIAN_POINT ( 'NONE',  ( 0.000000000000000000, 0.000000000000000000, 0.000000000000000000 ) ) ;
#268 = MECHANICAL_DESIGN_GEOMETRIC_PRESENTATION_REPRESENTATION (  '', ( #147 ), #282 ) ;
#269 = UNCERTAINTY_MEASURE_WITH_UNIT (LENGTH_MEASURE( 1.000000000000000082E-05 ), #174, 'distance_accuracy_value', 'NONE');
#270 = CARTESIAN_POINT ( 'NONE',  ( -0.3750000000000002220, 4.000000000000000000, 0.000000000000000000 ) ) ;
#271 = PRESENTATION_STYLE_ASSIGNMENT (( #208 ) ) ;
#272 = PLANE ( 'NONE',  #186 ) ;
#273 =( LENGTH_UNIT ( ) NAMED_UNIT ( * ) SI_UNIT ( $, .METRE. ) );
#274 = CARTESIAN_POINT ( 'NONE',  ( -0.3750000000000000555, 1.625000000000000000, 0.000000000000000000 ) ) ;
#275 = CIRCLE ( 'NONE', #27, 0.3750000000000000555 ) ;
#276 = DIRECTION ( 'NONE',  ( -1.000000000000000000, -5.156407575357275916E-17, 0.000000000000000000 ) ) ;
#277 = VECTOR ( 'NONE', #106, 39.37007874015748143 ) ;
#278 = DIRECTION ( 'NONE',  ( -0.000000000000000000, -1.000000000000000000, -0.000000000000000000 ) ) ;
#279 = DIRECTION ( 'NONE',  ( -5.156407575357275916E-17, 1.000000000000000000, -0.000000000000000000 ) ) ;
#280 = VECTOR ( 'NONE', #304, 39.37007874015748143 ) ;
#281 = SURFACE_SIDE_STYLE ('',( #67 ) ) ;
#282 =( GEOMETRIC_REPRESENTATION_CONTEXT ( 3 ) GLOBAL_UNCERTAINTY_ASSIGNED_CONTEXT ( ( #269 ) ) GLOBAL_UNIT_ASSIGNED_CONTEXT ( ( #174, #226, #143 ) ) REPRESENTATION_CONTEXT ( 'NONE', 'WORKASPACE' ) );
#283 = ORIENTED_EDGE ( 'NONE', *, *, #257, .F. ) ;
#284 = EDGE_CURVE ( 'NONE', #185, #97, #172, .T. ) ;
#285 = CYLINDRICAL_SURFACE ( 'NONE', #177, 0.3750000000000000555 ) ;
#286 =( LENGTH_UNIT ( ) NAMED_UNIT ( * ) SI_UNIT ( $, .METRE. ) );
#287 = CARTESIAN_POINT ( 'NONE',  ( 4.592425496802575451E-17, 1.625000000000000000, 0.3750000000000000555 ) ) ;
#288 = MECHANICAL_DESIGN_GEOMETRIC_PRESENTATION_REPRESENTATION (  '', ( #89 ), #206 ) ;
#289 = DIMENSIONAL_EXPONENTS ( 1.000000000000000000, 0.000000000000000000, 0.000000000000000000, 0.000000000000000000, 0.000000000000000000, 0.000000000000000000, 0.000000000000000000 ) ;
#290 = CARTESIAN_POINT ( 'NONE',  ( 0.000000000000000000, 0.000000000000000000, -0.3750000000000000555 ) ) ;
#291 = PRESENTATION_LAYER_ASSIGNMENT (  '', '', ( #160 ) ) ;
#292 = EDGE_CURVE ( 'NONE', #140, #185, #151, .T. ) ;
#293 = FACE_OUTER_BOUND ( 'NONE', #49, .T. ) ;
#294 = DIRECTION ( 'NONE',  ( -0.000000000000000000, -1.000000000000000000, -0.000000000000000000 ) ) ;
#295 = PRESENTATION_LAYER_ASSIGNMENT (  '', '', ( #89 ) ) ;
#296 = DIRECTION ( 'NONE',  ( 0.000000000000000000, -0.000000000000000000, 1.000000000000000000 ) ) ;
#297 = DIRECTION ( 'NONE',  ( 0.000000000000000000, 0.000000000000000000, -1.000000000000000000 ) ) ;
#298 =( LENGTH_UNIT ( ) NAMED_UNIT ( * ) SI_UNIT ( $, .METRE. ) );
#299 = ORIENTED_EDGE ( 'NONE', *, *, #26, .F. ) ;
#300 =( GEOMETRIC_REPRESENTATION_CONTEXT ( 3 ) GLOBAL_UNCERTAINTY_ASSIGNED_CONTEXT ( ( #46 ) ) GLOBAL_UNIT_ASSIGNED_CONTEXT ( ( #235, #212, #15 ) ) REPRESENTATION_CONTEXT ( 'NONE', 'WORKASPACE' ) );
#301 = LENGTH_MEASURE_WITH_UNIT ( LENGTH_MEASURE( 0.02539999999999999897 ), #298 );
#302 = COLOUR_RGB ( '',0.7921568627450980005, 0.8196078431372548767, 0.9333333333333333481 ) ;
#303 =( NAMED_UNIT ( * ) SI_UNIT ( $, .STERADIAN. ) SOLID_ANGLE_UNIT ( ) );
#304 = DIRECTION ( 'NONE',  ( -0.000000000000000000, -1.000000000000000000, -0.000000000000000000 ) ) ;
#305 = ORIENTED_EDGE ( 'NONE', *, *, #284, .F. ) ;
#306 = DIRECTION ( 'NONE',  ( 1.000000000000000000, 0.000000000000000000, 0.000000000000000000 ) ) ;
#307 = COLOUR_RGB ( '',1.000000000000000000, 0.000000000000000000, 0.000000000000000000 ) ;
#308 = MANIFOLD_SOLID_BREP ( 'Revolve - Tool Body (Straight Shanked)', #169 ) ;
#309 = CARTESIAN_POINT ( 'NONE',  ( 0.000000000000000000, 0.000000000000000000, 0.000000000000000000 ) ) ;
ENDSEC;
END-ISO-10303-21;
