ISO-10303-21;
HEADER;
FILE_DESCRIPTION (( 'STEP AP214' ),
    '1' );
FILE_NAME ('Micro_AECM-0402-4X.STEP',
    '2021-09-03T16:57:18',
    ( '' ),
    ( '' ),
    'SwSTEP 2.0',
    'SolidWorks 2020',
    '' );
FILE_SCHEMA (( 'AUTOMOTIVE_DESIGN' ));
ENDSEC;

DATA;
#1 = EDGE_CURVE ( 'NONE', #15, #206, #57, .T. ) ;
#2 = CARTESIAN_POINT ( 'NONE',  ( 5.303590139535433909E-17, 0.0000000000000000000, 0.4330709999999999837 ) ) ;
#3 = CARTESIAN_POINT ( 'NONE',  ( 0.0000000000000000000, 0.0000000000000000000, 2.244094000000000033 ) ) ;
#4 = ORIENTED_EDGE ( 'NONE', *, *, #54, .T. ) ;
#5 = CYLINDRICAL_SURFACE ( 'NONE', #123, 0.07866125999999999674 ) ;
#6 = EDGE_LOOP ( 'NONE', ( #257, #335, #127, #39 ) ) ;
#7 = AXIS2_PLACEMENT_3D ( 'NONE', #197, #60, #27 ) ;
#8 = DIRECTION ( 'NONE',  ( 0.0000000000000000000, 0.0000000000000000000, -1.000000000000000000 ) ) ;
#9 = CARTESIAN_POINT ( 'NONE',  ( 0.07866125999999999674, 9.633226027589770864E-18, -9.633226027589770864E-18 ) ) ;
#10 = PRESENTATION_LAYER_ASSIGNMENT (  '', '', ( #172 ) ) ;
#11 = ORIENTED_EDGE ( 'NONE', *, *, #163, .T. ) ;
#12 = ORIENTED_EDGE ( 'NONE', *, *, #291, .F. ) ;
#13 =( NAMED_UNIT ( * ) SI_UNIT ( $, .STERADIAN. ) SOLID_ANGLE_UNIT ( ) );
#14 = ORIENTED_EDGE ( 'NONE', *, *, #163, .F. ) ;
#15 = VERTEX_POINT ( 'NONE', #102 ) ;
#16 = EDGE_CURVE ( 'NONE', #338, #146, #208, .T. ) ;
#17 = EDGE_CURVE ( 'NONE', #42, #64, #137, .T. ) ;
#18 = CARTESIAN_POINT ( 'NONE',  ( 0.0000000000000000000, 0.0000000000000000000, 0.0000000000000000000 ) ) ;
#19 = COLOUR_RGB ( '',0.7921568627450980005, 0.8196078431372548767, 0.9333333333333333481 ) ;
#20 = AXIS2_PLACEMENT_3D ( 'NONE', #193, #299, #58 ) ;
#21 = CARTESIAN_POINT ( 'NONE',  ( 0.07866126000000003837, 0.0000000000000000000, 0.4330709999999999837 ) ) ;
#22 = DIMENSIONAL_EXPONENTS ( 1.000000000000000000, 0.0000000000000000000, 0.0000000000000000000, 0.0000000000000000000, 0.0000000000000000000, 0.0000000000000000000, 0.0000000000000000000 ) ;
#23 = DIRECTION ( 'NONE',  ( 1.000000000000000000, 0.0000000000000000000, 0.0000000000000000000 ) ) ;
#24 = CIRCLE ( 'NONE', #330, 0.1181100000000000066 ) ;
#25 = VERTEX_POINT ( 'NONE', #185 ) ;
#26 = CARTESIAN_POINT ( 'NONE',  ( 9.642868896486260435E-19, 0.0000000000000000000, 0.007874000000000000790 ) ) ;
#27 = DIRECTION ( 'NONE',  ( 0.0000000000000000000, 0.0000000000000000000, -1.000000000000000000 ) ) ;
#28 = CIRCLE ( 'NONE', #226, 0.1181100000000000066 ) ;
#29 = EDGE_CURVE ( 'NONE', #61, #59, #28, .T. ) ;
#30 = ADVANCED_FACE ( 'NONE', ( #149 ), #70, .T. ) ;
#31 = CARTESIAN_POINT ( 'NONE',  ( -0.07078725999999999074, 9.151082582765457938E-18, 0.0000000000000000000 ) ) ;
#32 = DIRECTION ( 'NONE',  ( -1.000000000000000000, 0.0000000000000000000, 0.0000000000000000000 ) ) ;
#33 = DIRECTION ( 'NONE',  ( 1.000000000000000000, 0.0000000000000000000, 0.0000000000000000000 ) ) ;
#34 = LINE ( 'NONE', #145, #289 ) ;
#35 = ORIENTED_EDGE ( 'NONE', *, *, #29, .F. ) ;
#36 = EDGE_LOOP ( 'NONE', ( #11, #196, #296, #212 ) ) ;
#37 = SURFACE_SIDE_STYLE ('',( #277 ) ) ;
#38 = AXIS2_PLACEMENT_3D ( 'NONE', #18, #170, #295 ) ;
#39 = ORIENTED_EDGE ( 'NONE', *, *, #52, .F. ) ;
#40 = ORIENTED_EDGE ( 'NONE', *, *, #194, .T. ) ;
#41 = TOROIDAL_SURFACE ( 'NONE', #148, 0.07078725999999999074, 0.007874000000000000790 ) ;
#42 = VERTEX_POINT ( 'NONE', #307 ) ;
#43 = DIRECTION ( 'NONE',  ( 0.0000000000000000000, 0.0000000000000000000, 1.000000000000000000 ) ) ;
#44 = ADVANCED_FACE ( 'NONE', ( #67 ), #180, .T. ) ;
#45 = CARTESIAN_POINT ( 'NONE',  ( 5.303590139535433909E-17, 0.0000000000000000000, 0.4330709999999999837 ) ) ;
#46 = DIRECTION ( 'NONE',  ( -0.0000000000000000000, -0.0000000000000000000, -1.000000000000000000 ) ) ;
#47 = AXIS2_PLACEMENT_3D ( 'NONE', #116, #298, #323 ) ;
#48 = CARTESIAN_POINT ( 'NONE',  ( 0.0000000000000000000, 0.0000000000000000000, 2.229093999999999465 ) ) ;
#49 = CYLINDRICAL_SURFACE ( 'NONE', #89, 0.07866125999999999674 ) ;
#50 = LENGTH_MEASURE_WITH_UNIT ( LENGTH_MEASURE( 0.02539999999999999897 ), #214 );
#51 = VECTOR ( 'NONE', #333, 39.37007874015748143 ) ;
#52 = EDGE_CURVE ( 'NONE', #146, #160, #143, .T. ) ;
#53 = CARTESIAN_POINT ( 'NONE',  ( 0.0000000000000000000, 0.0000000000000000000, 2.244094000000000033 ) ) ;
#54 = EDGE_CURVE ( 'NONE', #338, #259, #250, .T. ) ;
#55 = VECTOR ( 'NONE', #166, 39.37007874015747433 ) ;
#56 = DIRECTION ( 'NONE',  ( 1.000000000000000000, 0.0000000000000000000, 0.0000000000000000000 ) ) ;
#57 = CIRCLE ( 'NONE', #287, 0.07866125999999999674 ) ;
#58 = DIRECTION ( 'NONE',  ( -1.000000000000000000, 0.0000000000000000000, 0.0000000000000000000 ) ) ;
#59 = VERTEX_POINT ( 'NONE', #81 ) ;
#60 = DIRECTION ( 'NONE',  ( 0.0000000000000000000, -1.000000000000000000, 0.0000000000000000000 ) ) ;
#61 = VERTEX_POINT ( 'NONE', #350 ) ;
#62 = CARTESIAN_POINT ( 'NONE',  ( 0.07866125999999999674, 9.633226027589770864E-18, 0.007874000000000000790 ) ) ;
#63 = ORIENTED_EDGE ( 'NONE', *, *, #217, .F. ) ;
#64 = VERTEX_POINT ( 'NONE', #21 ) ;
#65 = FILL_AREA_STYLE_COLOUR ( '', #315 ) ;
#66 = ADVANCED_FACE ( 'NONE', ( #189 ), #347, .F. ) ;
#67 = FACE_OUTER_BOUND ( 'NONE', #142, .T. ) ;
#68 = ADVANCED_FACE ( 'NONE', ( #128 ), #49, .T. ) ;
#69 = DIRECTION ( 'NONE',  ( 1.000000000000000000, 0.0000000000000000000, 0.0000000000000000000 ) ) ;
#70 = CONICAL_SURFACE ( 'NONE', #279, 0.07866125999999999674, 0.1745329251994338915 ) ;
#71 = ORIENTED_EDGE ( 'NONE', *, *, #16, .T. ) ;
#72 = ORIENTED_EDGE ( 'NONE', *, *, #233, .F. ) ;
#73 = AXIS2_PLACEMENT_3D ( 'NONE', #302, #221, #56 ) ;
#74 = APPLICATION_CONTEXT ( 'automotive_design' ) ;
#75 = DIRECTION ( 'NONE',  ( -1.224646799147353207E-16, -0.0000000000000000000, -1.000000000000000000 ) ) ;
#76 = ORIENTED_EDGE ( 'NONE', *, *, #1, .T. ) ;
#77 = DIMENSIONAL_EXPONENTS ( 1.000000000000000000, 0.0000000000000000000, 0.0000000000000000000, 0.0000000000000000000, 0.0000000000000000000, 0.0000000000000000000, 0.0000000000000000000 ) ;
#78 = CARTESIAN_POINT ( 'NONE',  ( -0.1031100000000002570, 0.0000000000000000000, 2.244094000000000033 ) ) ;
#79 = CIRCLE ( 'NONE', #268, 0.07866125999999999674 ) ;
#80 = FILL_AREA_STYLE ('',( #134 ) ) ;
#81 = CARTESIAN_POINT ( 'NONE',  ( -0.1181099999999999234, 0.0000000000000000000, 0.6567959219688248584 ) ) ;
#82 = CYLINDRICAL_SURFACE ( 'NONE', #20, 0.1181100000000000066 ) ;
#83 = LINE ( 'NONE', #271, #51 ) ;
#84 = ORIENTED_EDGE ( 'NONE', *, *, #345, .T. ) ;
#85 = DIRECTION ( 'NONE',  ( 0.0000000000000000000, 0.0000000000000000000, 1.000000000000000000 ) ) ;
#86 = ORIENTED_EDGE ( 'NONE', *, *, #92, .T. ) ;
#87 = VECTOR ( 'NONE', #290, 39.37007874015748854 ) ;
#88 = PLANE ( 'NONE',  #336 ) ;
#89 = AXIS2_PLACEMENT_3D ( 'NONE', #320, #168, #264 ) ;
#90 = LINE ( 'NONE', #269, #343 ) ;
#91 =( GEOMETRIC_REPRESENTATION_CONTEXT ( 3 ) GLOBAL_UNCERTAINTY_ASSIGNED_CONTEXT ( ( #282 ) ) GLOBAL_UNIT_ASSIGNED_CONTEXT ( ( #251, #258, #95 ) ) REPRESENTATION_CONTEXT ( 'NONE', 'WORKASPACE' ) );
#92 = EDGE_CURVE ( 'NONE', #42, #59, #238, .T. ) ;
#93 = DIRECTION ( 'NONE',  ( -1.000000000000000000, 0.0000000000000000000, 0.0000000000000000000 ) ) ;
#94 = CONICAL_SURFACE ( 'NONE', #327, 0.1031100000000002570, 0.7853981633974318477 ) ;
#95 =( NAMED_UNIT ( * ) SI_UNIT ( $, .STERADIAN. ) SOLID_ANGLE_UNIT ( ) );
#96 = ORIENTED_EDGE ( 'NONE', *, *, #29, .T. ) ;
#97 = AXIS2_PLACEMENT_3D ( 'NONE', #229, #204, #308 ) ;
#98 = ORIENTED_EDGE ( 'NONE', *, *, #52, .T. ) ;
#99 = VECTOR ( 'NONE', #209, 39.37007874015748854 ) ;
#100 = DIRECTION ( 'NONE',  ( 1.000000000000000000, 0.0000000000000000000, 0.0000000000000000000 ) ) ;
#101 = AXIS2_PLACEMENT_3D ( 'NONE', #245, #325, #267 ) ;
#102 = CARTESIAN_POINT ( 'NONE',  ( -0.07866125999999999674, 0.0000000000000000000, 0.007874000000000000790 ) ) ;
#103 = AXIS2_PLACEMENT_3D ( 'NONE', #26, #106, #23 ) ;
#104 = EDGE_CURVE ( 'NONE', #146, #61, #191, .T. ) ;
#105 =( NAMED_UNIT ( * ) PLANE_ANGLE_UNIT ( ) SI_UNIT ( $, .RADIAN. ) );
#106 = DIRECTION ( 'NONE',  ( 0.0000000000000000000, 0.0000000000000000000, 1.000000000000000000 ) ) ;
#107 = EDGE_LOOP ( 'NONE', ( #281, #230, #112, #72 ) ) ;
#108 = DIRECTION ( 'NONE',  ( 1.000000000000000000, 0.0000000000000000000, 0.0000000000000000000 ) ) ;
#109 = EDGE_CURVE ( 'NONE', #222, #15, #304, .T. ) ;
#110 = FACE_OUTER_BOUND ( 'NONE', #120, .T. ) ;
#111 = CARTESIAN_POINT ( 'NONE',  ( 8.043430235321561285E-17, 0.0000000000000000000, 0.6567959219688248584 ) ) ;
#112 = ORIENTED_EDGE ( 'NONE', *, *, #228, .F. ) ;
#113 = DIRECTION ( 'NONE',  ( -1.224646799147353207E-16, -0.0000000000000000000, -1.000000000000000000 ) ) ;
#114 = ORIENTED_EDGE ( 'NONE', *, *, #345, .F. ) ;
#115 = CIRCLE ( 'NONE', #73, 0.07078725999999999074 ) ;
#116 = CARTESIAN_POINT ( 'NONE',  ( 5.303590139535433909E-17, 0.0000000000000000000, 0.4330709999999999837 ) ) ;
#117 = ADVANCED_FACE ( 'NONE', ( #213 ), #324, .T. ) ;
#118 = MANIFOLD_SOLID_BREP ( 'Fillet1', #240 ) ;
#119 =( GEOMETRIC_REPRESENTATION_CONTEXT ( 3 ) GLOBAL_UNCERTAINTY_ASSIGNED_CONTEXT ( ( #165 ) ) GLOBAL_UNIT_ASSIGNED_CONTEXT ( ( #201, #256, #13 ) ) REPRESENTATION_CONTEXT ( 'NONE', 'WORKASPACE' ) );
#120 = EDGE_LOOP ( 'NONE', ( #301, #71, #14, #341 ) ) ;
#121 = LINE ( 'NONE', #9, #280 ) ;
#122 = ORIENTED_EDGE ( 'NONE', *, *, #194, .F. ) ;
#123 = AXIS2_PLACEMENT_3D ( 'NONE', #328, #113, #178 ) ;
#124 = ORIENTED_EDGE ( 'NONE', *, *, #109, .F. ) ;
#125 = CARTESIAN_POINT ( 'NONE',  ( 9.642868896486260435E-19, 0.0000000000000000000, 0.007874000000000000790 ) ) ;
#126 = DIRECTION ( 'NONE',  ( -1.224646799147353207E-16, -0.0000000000000000000, -1.000000000000000000 ) ) ;
#127 = ORIENTED_EDGE ( 'NONE', *, *, #162, .T. ) ;
#128 = FACE_OUTER_BOUND ( 'NONE', #157, .T. ) ;
#129 = ADVANCED_FACE ( 'NONE', ( #321 ), #41, .T. ) ;
#130 = CARTESIAN_POINT ( 'NONE',  ( -0.07078725999999999074, 8.668939137941146554E-18, 0.007874000000000000790 ) ) ;
#131 = AXIS2_PLACEMENT_3D ( 'NONE', #130, #239, #211 ) ;
#132 = DIRECTION ( 'NONE',  ( 0.0000000000000000000, 0.0000000000000000000, 1.000000000000000000 ) ) ;
#133 = AXIS2_PLACEMENT_3D ( 'NONE', #48, #164, #225 ) ;
#134 = FILL_AREA_STYLE_COLOUR ( '', #19 ) ;
#135 = ORIENTED_EDGE ( 'NONE', *, *, #233, .T. ) ;
#136 = SURFACE_STYLE_USAGE ( .BOTH. , #260 ) ;
#137 = CIRCLE ( 'NONE', #334, 0.07866125999999999674 ) ;
#138 = PRODUCT_DEFINITION_SHAPE ( 'NONE', 'NONE',  #147 ) ;
#139 = FACE_OUTER_BOUND ( 'NONE', #227, .T. ) ;
#140 = CARTESIAN_POINT ( 'NONE',  ( -0.1031100000000002570, 0.0000000000000000000, 2.244094000000000033 ) ) ;
#141 = CARTESIAN_POINT ( 'NONE',  ( 0.1031100000000002570, 1.354581824536888722E-17, 2.244094000000000033 ) ) ;
#142 = EDGE_LOOP ( 'NONE', ( #198, #98, #276, #35 ) ) ;
#143 = CIRCLE ( 'NONE', #97, 0.1181100000000000066 ) ;
#144 = DIRECTION ( 'NONE',  ( 1.000000000000000000, 0.0000000000000000000, 0.0000000000000000000 ) ) ;
#145 = CARTESIAN_POINT ( 'NONE',  ( -0.1181100000000000066, 0.0000000000000000000, 2.244094000000000033 ) ) ;
#146 = VERTEX_POINT ( 'NONE', #317 ) ;
#147 = PRODUCT_DEFINITION ( 'UNKNOWN', '', #314, #236 ) ;
#148 = AXIS2_PLACEMENT_3D ( 'NONE', #161, #237, #293 ) ;
#149 = FACE_OUTER_BOUND ( 'NONE', #337, .T. ) ;
#150 = AXIS2_PLACEMENT_3D ( 'NONE', #322, #132, #108 ) ;
#151 = SURFACE_STYLE_USAGE ( .BOTH. , #37 ) ;
#152 = DIRECTION ( 'NONE',  ( -0.0000000000000000000, -0.0000000000000000000, -1.000000000000000000 ) ) ;
#153 = SHAPE_DEFINITION_REPRESENTATION ( #138, #167 ) ;
#154 = DIRECTION ( 'NONE',  ( 1.000000000000000000, 0.0000000000000000000, 0.0000000000000000000 ) ) ;
#155 = UNCERTAINTY_MEASURE_WITH_UNIT (LENGTH_MEASURE( 1.000000000000000082E-05 ), #261, 'distance_accuracy_value', 'NONE');
#156 = AXIS2_PLACEMENT_3D ( 'NONE', #3, #8, #32 ) ;
#157 = EDGE_LOOP ( 'NONE', ( #114, #285, #40, #76 ) ) ;
#158 = MECHANICAL_DESIGN_GEOMETRIC_PRESENTATION_REPRESENTATION (  '', ( #181 ), #169 ) ;
#159 = APPLICATION_PROTOCOL_DEFINITION ( 'draft international standard', 'automotive_design', 1998, #74 ) ;
#160 = VERTEX_POINT ( 'NONE', #346 ) ;
#161 = CARTESIAN_POINT ( 'NONE',  ( 9.642868896486260435E-19, 0.0000000000000000000, 0.007874000000000000790 ) ) ;
#162 = EDGE_CURVE ( 'NONE', #259, #160, #297, .T. ) ;
#163 = EDGE_CURVE ( 'NONE', #160, #146, #184, .T. ) ;
#164 = DIRECTION ( 'NONE',  ( 0.0000000000000000000, 0.0000000000000000000, -1.000000000000000000 ) ) ;
#165 = UNCERTAINTY_MEASURE_WITH_UNIT (LENGTH_MEASURE( 1.000000000000000082E-05 ), #201, 'distance_accuracy_value', 'NONE');
#166 = DIRECTION ( 'NONE',  ( -0.1736481776669311916, 2.126576849575783316E-17, 0.9848077530122080203 ) ) ;
#167 = ADVANCED_BREP_SHAPE_REPRESENTATION ( 'Micro_AECM-0402-4X', ( #118, #243 ), #119 ) ;
#168 = DIRECTION ( 'NONE',  ( -1.224646799147353207E-16, -0.0000000000000000000, -1.000000000000000000 ) ) ;
#169 =( GEOMETRIC_REPRESENTATION_CONTEXT ( 3 ) GLOBAL_UNCERTAINTY_ASSIGNED_CONTEXT ( ( #155 ) ) GLOBAL_UNIT_ASSIGNED_CONTEXT ( ( #261, #105, #210 ) ) REPRESENTATION_CONTEXT ( 'NONE', 'WORKASPACE' ) );
#170 = DIRECTION ( 'NONE',  ( 0.0000000000000000000, 0.0000000000000000000, 1.000000000000000000 ) ) ;
#171 = DIRECTION ( 'NONE',  ( -1.000000000000000000, 0.0000000000000000000, 0.0000000000000000000 ) ) ;
#172 = STYLED_ITEM ( 'NONE', ( #309 ), #167 ) ;
#173 = DIRECTION ( 'NONE',  ( -1.224646799147353207E-16, -0.0000000000000000000, -1.000000000000000000 ) ) ;
#174 = EDGE_CURVE ( 'NONE', #259, #338, #263, .T. ) ;
#175 = AXIS2_PLACEMENT_3D ( 'NONE', #199, #244, #248 ) ;
#176 = FACE_OUTER_BOUND ( 'NONE', #272, .T. ) ;
#177 = ORIENTED_EDGE ( 'NONE', *, *, #174, .T. ) ;
#178 = DIRECTION ( 'NONE',  ( -1.000000000000000000, 0.0000000000000000000, 1.224646799147352961E-16 ) ) ;
#179 = ORIENTED_EDGE ( 'NONE', *, *, #216, .F. ) ;
#180 = CYLINDRICAL_SURFACE ( 'NONE', #294, 0.1181100000000000066 ) ;
#181 = STYLED_ITEM ( 'NONE', ( #262 ), #118 ) ;
#182 = CARTESIAN_POINT ( 'NONE',  ( 0.1031100000000002570, 1.262733314600838667E-17, 2.244094000000000033 ) ) ;
#183 = ORIENTED_EDGE ( 'NONE', *, *, #216, .T. ) ;
#184 = CIRCLE ( 'NONE', #133, 0.1181100000000000066 ) ;
#185 = CARTESIAN_POINT ( 'NONE',  ( 0.07078725999999999074, 0.0000000000000000000, 0.0000000000000000000 ) ) ;
#186 = EDGE_CURVE ( 'NONE', #59, #61, #24, .T. ) ;
#187 = ORIENTED_EDGE ( 'NONE', *, *, #1, .F. ) ;
#188 = CARTESIAN_POINT ( 'NONE',  ( -0.07866125999999994123, 9.633226027589770864E-18, 0.4330709999999999837 ) ) ;
#189 = FACE_OUTER_BOUND ( 'NONE', #344, .T. ) ;
#190 = SURFACE_STYLE_FILL_AREA ( #80 ) ;
#191 = LINE ( 'NONE', #349, #339 ) ;
#192 = PRODUCT_RELATED_PRODUCT_CATEGORY ( 'part', '', ( #241 ) ) ;
#193 = CARTESIAN_POINT ( 'NONE',  ( 0.0000000000000000000, 0.0000000000000000000, 2.244094000000000033 ) ) ;
#194 = EDGE_CURVE ( 'NONE', #42, #15, #90, .T. ) ;
#195 = DIRECTION ( 'NONE',  ( -0.0000000000000000000, -0.0000000000000000000, -1.000000000000000000 ) ) ;
#196 = ORIENTED_EDGE ( 'NONE', *, *, #104, .T. ) ;
#197 = CARTESIAN_POINT ( 'NONE',  ( 0.07078725999999999074, 0.0000000000000000000, 0.007874000000000000790 ) ) ;
#198 = ORIENTED_EDGE ( 'NONE', *, *, #104, .F. ) ;
#199 = CARTESIAN_POINT ( 'NONE',  ( 9.642868896486260435E-19, 0.0000000000000000000, 0.0000000000000000000 ) ) ;
#200 = CARTESIAN_POINT ( 'NONE',  ( 0.0000000000000000000, 0.0000000000000000000, 0.0000000000000000000 ) ) ;
#201 =( CONVERSION_BASED_UNIT ( 'INCH', #205 ) LENGTH_UNIT ( ) NAMED_UNIT ( #22 ) );
#202 = CONICAL_SURFACE ( 'NONE', #47, 0.07866125999999999674, 0.1745329251994338915 ) ;
#203 = DIRECTION ( 'NONE',  ( 1.000000000000000000, 0.0000000000000000000, 0.0000000000000000000 ) ) ;
#204 = DIRECTION ( 'NONE',  ( 0.0000000000000000000, 0.0000000000000000000, -1.000000000000000000 ) ) ;
#205 = LENGTH_MEASURE_WITH_UNIT ( LENGTH_MEASURE( 0.02539999999999999897 ), #283 );
#206 = VERTEX_POINT ( 'NONE', #62 ) ;
#207 = APPLICATION_PROTOCOL_DEFINITION ( 'draft international standard', 'automotive_design', 1998, #318 ) ;
#208 = LINE ( 'NONE', #182, #99 ) ;
#209 = DIRECTION ( 'NONE',  ( 0.7071067811865358044, 8.659560562354788645E-17, -0.7071067811865590080 ) ) ;
#210 =( NAMED_UNIT ( * ) SI_UNIT ( $, .STERADIAN. ) SOLID_ANGLE_UNIT ( ) );
#211 = DIRECTION ( 'NONE',  ( -1.000000000000000000, 1.224646799147352714E-16, 0.0000000000000000000 ) ) ;
#212 = ORIENTED_EDGE ( 'NONE', *, *, #275, .F. ) ;
#213 = FACE_OUTER_BOUND ( 'NONE', #107, .T. ) ;
#214 =( LENGTH_UNIT ( ) NAMED_UNIT ( * ) SI_UNIT ( $, .METRE. ) );
#215 = DIMENSIONAL_EXPONENTS ( 1.000000000000000000, 0.0000000000000000000, 0.0000000000000000000, 0.0000000000000000000, 0.0000000000000000000, 0.0000000000000000000, 0.0000000000000000000 ) ;
#216 = EDGE_CURVE ( 'NONE', #25, #222, #115, .T. ) ;
#217 = EDGE_CURVE ( 'NONE', #64, #61, #83, .T. ) ;
#218 = DIRECTION ( 'NONE',  ( -1.224646799147353207E-16, -0.0000000000000000000, -1.000000000000000000 ) ) ;
#219 = CARTESIAN_POINT ( 'NONE',  ( 0.0000000000000000000, 0.0000000000000000000, 2.244094000000000033 ) ) ;
#220 = PRESENTATION_LAYER_ASSIGNMENT (  '', '', ( #181 ) ) ;
#221 = DIRECTION ( 'NONE',  ( -0.0000000000000000000, -0.0000000000000000000, -1.000000000000000000 ) ) ;
#222 = VERTEX_POINT ( 'NONE', #31 ) ;
#223 = CIRCLE ( 'NONE', #101, 0.07866125999999999674 ) ;
#224 = DIRECTION ( 'NONE',  ( -1.224646799147353207E-16, -0.0000000000000000000, -1.000000000000000000 ) ) ;
#225 = DIRECTION ( 'NONE',  ( 1.000000000000000000, 0.0000000000000000000, 0.0000000000000000000 ) ) ;
#226 = AXIS2_PLACEMENT_3D ( 'NONE', #313, #286, #154 ) ;
#227 = EDGE_LOOP ( 'NONE', ( #177, #4 ) ) ;
#228 = EDGE_CURVE ( 'NONE', #206, #15, #223, .T. ) ;
#229 = CARTESIAN_POINT ( 'NONE',  ( 0.0000000000000000000, 0.0000000000000000000, 2.229093999999999465 ) ) ;
#230 = ORIENTED_EDGE ( 'NONE', *, *, #109, .T. ) ;
#231 =( LENGTH_UNIT ( ) NAMED_UNIT ( * ) SI_UNIT ( $, .METRE. ) );
#232 = ORIENTED_EDGE ( 'NONE', *, *, #228, .T. ) ;
#233 = EDGE_CURVE ( 'NONE', #25, #206, #311, .T. ) ;
#234 = ADVANCED_FACE ( 'NONE', ( #139 ), #88, .T. ) ;
#235 = DIRECTION ( 'NONE',  ( 0.0000000000000000000, 0.0000000000000000000, 1.000000000000000000 ) ) ;
#236 = PRODUCT_DEFINITION_CONTEXT ( 'detailed design', #74, 'design' ) ;
#237 = DIRECTION ( 'NONE',  ( 0.0000000000000000000, 0.0000000000000000000, 1.000000000000000000 ) ) ;
#238 = LINE ( 'NONE', #188, #55 ) ;
#239 = DIRECTION ( 'NONE',  ( 1.224646799147353207E-16, 1.000000000000000000, -0.0000000000000000000 ) ) ;
#240 = CLOSED_SHELL ( 'NONE', ( #117, #265, #30, #326, #332, #44, #234, #305, #316, #68, #66, #129 ) ) ;
#241 = PRODUCT ( 'Micro_AECM-0402-4X', 'Micro_AECM-0402-4X', '', ( #253 ) ) ;
#242 = FACE_OUTER_BOUND ( 'NONE', #36, .T. ) ;
#243 = AXIS2_PLACEMENT_3D ( 'NONE', #200, #43, #69 ) ;
#244 = DIRECTION ( 'NONE',  ( -0.0000000000000000000, -0.0000000000000000000, -1.000000000000000000 ) ) ;
#245 = CARTESIAN_POINT ( 'NONE',  ( 9.642868896486260435E-19, 0.0000000000000000000, 0.007874000000000000790 ) ) ;
#246 = EDGE_LOOP ( 'NONE', ( #124, #179, #135, #187 ) ) ;
#247 = CARTESIAN_POINT ( 'NONE',  ( 0.0000000000000000000, 0.0000000000000000000, 2.244094000000000033 ) ) ;
#248 = DIRECTION ( 'NONE',  ( 1.000000000000000000, 0.0000000000000000000, 0.0000000000000000000 ) ) ;
#249 = DIRECTION ( 'NONE',  ( 1.224646799147353207E-16, 0.0000000000000000000, 1.000000000000000000 ) ) ;
#250 = CIRCLE ( 'NONE', #150, 0.1031100000000002570 ) ;
#251 =( CONVERSION_BASED_UNIT ( 'INCH', #340 ) LENGTH_UNIT ( ) NAMED_UNIT ( #215 ) );
#252 = DIRECTION ( 'NONE',  ( -1.000000000000000000, 0.0000000000000000000, 0.0000000000000000000 ) ) ;
#253 = PRODUCT_CONTEXT ( 'NONE', #318, 'mechanical' ) ;
#254 = ORIENTED_EDGE ( 'NONE', *, *, #17, .F. ) ;
#255 = CONICAL_SURFACE ( 'NONE', #156, 0.1031100000000002570, 0.7853981633974318477 ) ;
#256 =( NAMED_UNIT ( * ) PLANE_ANGLE_UNIT ( ) SI_UNIT ( $, .RADIAN. ) );
#257 = ORIENTED_EDGE ( 'NONE', *, *, #16, .F. ) ;
#258 =( NAMED_UNIT ( * ) PLANE_ANGLE_UNIT ( ) SI_UNIT ( $, .RADIAN. ) );
#259 = VERTEX_POINT ( 'NONE', #140 ) ;
#260 = SURFACE_SIDE_STYLE ('',( #190 ) ) ;
#261 =( CONVERSION_BASED_UNIT ( 'INCH', #50 ) LENGTH_UNIT ( ) NAMED_UNIT ( #77 ) );
#262 = PRESENTATION_STYLE_ASSIGNMENT (( #136 ) ) ;
#263 = CIRCLE ( 'NONE', #284, 0.1031100000000002570 ) ;
#264 = DIRECTION ( 'NONE',  ( -1.000000000000000000, 0.0000000000000000000, 1.224646799147352961E-16 ) ) ;
#265 = ADVANCED_FACE ( 'NONE', ( #176 ), #5, .T. ) ;
#266 = FACE_OUTER_BOUND ( 'NONE', #6, .T. ) ;
#267 = DIRECTION ( 'NONE',  ( 1.000000000000000000, 0.0000000000000000000, 0.0000000000000000000 ) ) ;
#268 = AXIS2_PLACEMENT_3D ( 'NONE', #2, #224, #331 ) ;
#269 = CARTESIAN_POINT ( 'NONE',  ( -0.07866125999999999674, 0.0000000000000000000, 9.633226027589770864E-18 ) ) ;
#270 = ORIENTED_EDGE ( 'NONE', *, *, #186, .T. ) ;
#271 = CARTESIAN_POINT ( 'NONE',  ( 0.07866126000000003837, 0.0000000000000000000, 0.4330709999999999837 ) ) ;
#272 = EDGE_LOOP ( 'NONE', ( #348, #84, #232, #122 ) ) ;
#273 = DIRECTION ( 'NONE',  ( 1.000000000000000000, 0.0000000000000000000, -0.0000000000000000000 ) ) ;
#274 = EDGE_LOOP ( 'NONE', ( #288, #12, #310, #96 ) ) ;
#275 = EDGE_CURVE ( 'NONE', #160, #59, #34, .T. ) ;
#276 = ORIENTED_EDGE ( 'NONE', *, *, #275, .T. ) ;
#277 = SURFACE_STYLE_FILL_AREA ( #342 ) ;
#278 = CARTESIAN_POINT ( 'NONE',  ( 0.0000000000000000000, 0.0000000000000000000, 2.244094000000000033 ) ) ;
#279 = AXIS2_PLACEMENT_3D ( 'NONE', #45, #249, #203 ) ;
#280 = VECTOR ( 'NONE', #126, 39.37007874015748143 ) ;
#281 = ORIENTED_EDGE ( 'NONE', *, *, #292, .F. ) ;
#282 = UNCERTAINTY_MEASURE_WITH_UNIT (LENGTH_MEASURE( 1.000000000000000082E-05 ), #251, 'distance_accuracy_value', 'NONE');
#283 =( LENGTH_UNIT ( ) NAMED_UNIT ( * ) SI_UNIT ( $, .METRE. ) );
#284 = AXIS2_PLACEMENT_3D ( 'NONE', #219, #303, #33 ) ;
#285 = ORIENTED_EDGE ( 'NONE', *, *, #291, .T. ) ;
#286 = DIRECTION ( 'NONE',  ( -1.224646799147353207E-16, -0.0000000000000000000, -1.000000000000000000 ) ) ;
#287 = AXIS2_PLACEMENT_3D ( 'NONE', #125, #235, #100 ) ;
#288 = ORIENTED_EDGE ( 'NONE', *, *, #92, .F. ) ;
#289 = VECTOR ( 'NONE', #195, 39.37007874015748143 ) ;
#290 = DIRECTION ( 'NONE',  ( -0.7071067811865358044, 0.0000000000000000000, -0.7071067811865590080 ) ) ;
#291 = EDGE_CURVE ( 'NONE', #64, #42, #79, .T. ) ;
#292 = EDGE_CURVE ( 'NONE', #222, #25, #319, .T. ) ;
#293 = DIRECTION ( 'NONE',  ( 1.000000000000000000, 0.0000000000000000000, 0.0000000000000000000 ) ) ;
#294 = AXIS2_PLACEMENT_3D ( 'NONE', #278, #152, #252 ) ;
#295 = DIRECTION ( 'NONE',  ( 1.000000000000000000, 0.0000000000000000000, -0.0000000000000000000 ) ) ;
#296 = ORIENTED_EDGE ( 'NONE', *, *, #186, .F. ) ;
#297 = LINE ( 'NONE', #78, #87 ) ;
#298 = DIRECTION ( 'NONE',  ( 1.224646799147353207E-16, 0.0000000000000000000, 1.000000000000000000 ) ) ;
#299 = DIRECTION ( 'NONE',  ( -0.0000000000000000000, -0.0000000000000000000, -1.000000000000000000 ) ) ;
#300 = DIRECTION ( 'NONE',  ( 0.0000000000000000000, 0.0000000000000000000, -1.000000000000000000 ) ) ;
#301 = ORIENTED_EDGE ( 'NONE', *, *, #54, .F. ) ;
#302 = CARTESIAN_POINT ( 'NONE',  ( 9.642868896486260435E-19, 0.0000000000000000000, 0.0000000000000000000 ) ) ;
#303 = DIRECTION ( 'NONE',  ( 0.0000000000000000000, 0.0000000000000000000, 1.000000000000000000 ) ) ;
#304 = CIRCLE ( 'NONE', #131, 0.007873999999999999055 ) ;
#305 = ADVANCED_FACE ( 'NONE', ( #266 ), #255, .T. ) ;
#306 = MECHANICAL_DESIGN_GEOMETRIC_PRESENTATION_REPRESENTATION (  '', ( #172 ), #91 ) ;
#307 = CARTESIAN_POINT ( 'NONE',  ( -0.07866125999999994123, 1.204876468615957931E-17, 0.4330709999999999837 ) ) ;
#308 = DIRECTION ( 'NONE',  ( 1.000000000000000000, 0.0000000000000000000, 0.0000000000000000000 ) ) ;
#309 = PRESENTATION_STYLE_ASSIGNMENT (( #151 ) ) ;
#310 = ORIENTED_EDGE ( 'NONE', *, *, #217, .T. ) ;
#311 = CIRCLE ( 'NONE', #7, 0.007874000000000000790 ) ;
#312 = CARTESIAN_POINT ( 'NONE',  ( 5.303590139535433909E-17, 0.0000000000000000000, 0.4330709999999999837 ) ) ;
#313 = CARTESIAN_POINT ( 'NONE',  ( 8.043430235321561285E-17, 0.0000000000000000000, 0.6567959219688248584 ) ) ;
#314 = PRODUCT_DEFINITION_FORMATION_WITH_SPECIFIED_SOURCE ( 'ANY', '', #241, .NOT_KNOWN. ) ;
#315 = COLOUR_RGB ( '',0.7921568627450980005, 0.8196078431372548767, 0.9333333333333333481 ) ;
#316 = ADVANCED_FACE ( 'NONE', ( #351 ), #202, .T. ) ;
#317 = CARTESIAN_POINT ( 'NONE',  ( 0.1181100000000000066, 1.446430334472939084E-17, 2.229093999999999465 ) ) ;
#318 = APPLICATION_CONTEXT ( 'automotive_design' ) ;
#319 = CIRCLE ( 'NONE', #175, 0.07078725999999999074 ) ;
#320 = CARTESIAN_POINT ( 'NONE',  ( 0.0000000000000000000, 0.0000000000000000000, 0.0000000000000000000 ) ) ;
#321 = FACE_OUTER_BOUND ( 'NONE', #246, .T. ) ;
#322 = CARTESIAN_POINT ( 'NONE',  ( 0.0000000000000000000, 0.0000000000000000000, 2.244094000000000033 ) ) ;
#323 = DIRECTION ( 'NONE',  ( 1.000000000000000000, 0.0000000000000000000, 0.0000000000000000000 ) ) ;
#324 = TOROIDAL_SURFACE ( 'NONE', #103, 0.07078725999999999074, 0.007874000000000000790 ) ;
#325 = DIRECTION ( 'NONE',  ( 0.0000000000000000000, 0.0000000000000000000, 1.000000000000000000 ) ) ;
#326 = ADVANCED_FACE ( 'NONE', ( #110 ), #94, .T. ) ;
#327 = AXIS2_PLACEMENT_3D ( 'NONE', #53, #300, #171 ) ;
#328 = CARTESIAN_POINT ( 'NONE',  ( 0.0000000000000000000, 0.0000000000000000000, 0.0000000000000000000 ) ) ;
#329 = ORIENTED_EDGE ( 'NONE', *, *, #292, .T. ) ;
#330 = AXIS2_PLACEMENT_3D ( 'NONE', #111, #173, #144 ) ;
#331 = DIRECTION ( 'NONE',  ( -1.000000000000000000, 0.0000000000000000000, 0.0000000000000000000 ) ) ;
#332 = ADVANCED_FACE ( 'NONE', ( #242 ), #82, .T. ) ;
#333 = DIRECTION ( 'NONE',  ( 0.1736481776669313859, 0.0000000000000000000, 0.9848077530122077983 ) ) ;
#334 = AXIS2_PLACEMENT_3D ( 'NONE', #312, #75, #93 ) ;
#335 = ORIENTED_EDGE ( 'NONE', *, *, #174, .F. ) ;
#336 = AXIS2_PLACEMENT_3D ( 'NONE', #247, #85, #273 ) ;
#337 = EDGE_LOOP ( 'NONE', ( #254, #86, #270, #63 ) ) ;
#338 = VERTEX_POINT ( 'NONE', #141 ) ;
#339 = VECTOR ( 'NONE', #46, 39.37007874015748143 ) ;
#340 = LENGTH_MEASURE_WITH_UNIT ( LENGTH_MEASURE( 0.02539999999999999897 ), #231 );
#341 = ORIENTED_EDGE ( 'NONE', *, *, #162, .F. ) ;
#342 = FILL_AREA_STYLE ('',( #65 ) ) ;
#343 = VECTOR ( 'NONE', #218, 39.37007874015748143 ) ;
#344 = EDGE_LOOP ( 'NONE', ( #183, #329 ) ) ;
#345 = EDGE_CURVE ( 'NONE', #64, #206, #121, .T. ) ;
#346 = CARTESIAN_POINT ( 'NONE',  ( -0.1181100000000000066, 0.0000000000000000000, 2.229093999999999465 ) ) ;
#347 = PLANE ( 'NONE',  #38 ) ;
#348 = ORIENTED_EDGE ( 'NONE', *, *, #17, .T. ) ;
#349 = CARTESIAN_POINT ( 'NONE',  ( 0.1181100000000000066, 1.446430334472939084E-17, 2.244094000000000033 ) ) ;
#350 = CARTESIAN_POINT ( 'NONE',  ( 0.1181100000000000899, 1.446430334472940009E-17, 0.6567959219688248584 ) ) ;
#351 = FACE_OUTER_BOUND ( 'NONE', #274, .T. ) ;
ENDSEC;
END-ISO-10303-21;
