ISO-10303-21;
HEADER;
FILE_DESCRIPTION (( 'STEP AP214' ),
    '1' );
FILE_NAME ('Micro_BMR-032-2X.STEP',
    '2021-09-03T14:06:05',
    ( '' ),
    ( '' ),
    'SwSTEP 2.0',
    'SolidWorks 2020',
    '' );
FILE_SCHEMA (( 'AUTOMOTIVE_DESIGN' ));
ENDSEC;

DATA;
#1 = ORIENTED_EDGE ( 'NONE', *, *, #209, .F. ) ;
#2 = CARTESIAN_POINT ( 'NONE',  ( 0.0000000000000000000, 0.0000000000000000000, 1.485000000000000764 ) ) ;
#3 = DIRECTION ( 'NONE',  ( 1.000000000000000000, 0.0000000000000000000, 0.0000000000000000000 ) ) ;
#4 = EDGE_CURVE ( 'NONE', #16, #43, #6, .T. ) ;
#5 = DIRECTION ( 'NONE',  ( -1.000000000000000000, 1.224646799147353207E-16, 0.0000000000000000000 ) ) ;
#6 = LINE ( 'NONE', #185, #310 ) ;
#7 = ORIENTED_EDGE ( 'NONE', *, *, #136, .F. ) ;
#8 = EDGE_CURVE ( 'NONE', #205, #96, #69, .T. ) ;
#9 = FACE_OUTER_BOUND ( 'NONE', #135, .T. ) ;
#10 = EDGE_CURVE ( 'NONE', #313, #150, #24, .T. ) ;
#11 = FACE_OUTER_BOUND ( 'NONE', #276, .T. ) ;
#12 = SURFACE_STYLE_USAGE ( .BOTH. , #261 ) ;
#13 = CARTESIAN_POINT ( 'NONE',  ( 1.175660927181459403E-17, 0.0000000000000000000, 0.09600000000000000200 ) ) ;
#14 = CARTESIAN_POINT ( 'NONE',  ( 0.0000000000000000000, 0.0000000000000000000, 0.0000000000000000000 ) ) ;
#15 =( GEOMETRIC_REPRESENTATION_CONTEXT ( 3 ) GLOBAL_UNCERTAINTY_ASSIGNED_CONTEXT ( ( #38 ) ) GLOBAL_UNIT_ASSIGNED_CONTEXT ( ( #324, #295, #170 ) ) REPRESENTATION_CONTEXT ( 'NONE', 'WORKASPACE' ) );
#16 = VERTEX_POINT ( 'NONE', #72 ) ;
#17 = ORIENTED_EDGE ( 'NONE', *, *, #20, .T. ) ;
#18 = VECTOR ( 'NONE', #186, 39.37007874015748143 ) ;
#19 = ORIENTED_EDGE ( 'NONE', *, *, #152, .T. ) ;
#20 = EDGE_CURVE ( 'NONE', #284, #114, #26, .T. ) ;
#21 = DIRECTION ( 'NONE',  ( -1.000000000000000000, 0.0000000000000000000, 1.335245398554933230E-16 ) ) ;
#22 = ORIENTED_EDGE ( 'NONE', *, *, #4, .T. ) ;
#23 = DIRECTION ( 'NONE',  ( 0.0000000000000000000, 0.0000000000000000000, -1.000000000000000000 ) ) ;
#24 = CIRCLE ( 'NONE', #161, 0.01598400000000000168 ) ;
#25 = PLANE ( 'NONE',  #319 ) ;
#26 = LINE ( 'NONE', #130, #202 ) ;
#27 = DIRECTION ( 'NONE',  ( -1.000000000000000000, 0.0000000000000000000, 0.0000000000000000000 ) ) ;
#28 = AXIS2_PLACEMENT_3D ( 'NONE', #304, #223, #277 ) ;
#29 = EDGE_LOOP ( 'NONE', ( #123, #230, #133, #55 ) ) ;
#30 = ADVANCED_FACE ( 'NONE', ( #92 ), #85, .T. ) ;
#31 = DIRECTION ( 'NONE',  ( -0.1736481776669311916, 2.126576849575783316E-17, 0.9848077530122080203 ) ) ;
#32 = LINE ( 'NONE', #84, #239 ) ;
#33 = DIRECTION ( 'NONE',  ( -1.224646799147353454E-16, -0.0000000000000000000, -1.000000000000000000 ) ) ;
#34 = LINE ( 'NONE', #172, #174 ) ;
#35 = SURFACE_SIDE_STYLE ('',( #116 ) ) ;
#36 = SPHERICAL_SURFACE ( 'NONE', #37, 0.01598400000000000168 ) ;
#37 = AXIS2_PLACEMENT_3D ( 'NONE', #145, #65, #144 ) ;
#38 = UNCERTAINTY_MEASURE_WITH_UNIT (LENGTH_MEASURE( 1.000000000000000082E-05 ), #324, 'distance_accuracy_value', 'NONE');
#39 = EDGE_LOOP ( 'NONE', ( #259, #70, #178, #102 ) ) ;
#40 = DIRECTION ( 'NONE',  ( 1.224646799147353454E-16, 0.0000000000000000000, 1.000000000000000000 ) ) ;
#41 = AXIS2_PLACEMENT_3D ( 'NONE', #281, #252, #23 ) ;
#42 = ORIENTED_EDGE ( 'NONE', *, *, #68, .T. ) ;
#43 = VERTEX_POINT ( 'NONE', #309 ) ;
#44 = DIRECTION ( 'NONE',  ( -1.000000000000000000, 0.0000000000000000000, 0.0000000000000000000 ) ) ;
#45 = DIRECTION ( 'NONE',  ( 1.000000000000000000, 0.0000000000000000000, 0.0000000000000000000 ) ) ;
#46 = EDGE_CURVE ( 'NONE', #147, #96, #291, .T. ) ;
#47 = CARTESIAN_POINT ( 'NONE',  ( 1.957475443757130046E-18, 0.0000000000000000000, 0.01598400000000000168 ) ) ;
#48 = CONICAL_SURFACE ( 'NONE', #302, 0.01598400000000000168, 0.1745329251994338915 ) ;
#49 = DIRECTION ( 'NONE',  ( 1.224646799147353207E-16, 1.000000000000000000, -0.0000000000000000000 ) ) ;
#50 = ORIENTED_EDGE ( 'NONE', *, *, #257, .F. ) ;
#51 = APPLICATION_CONTEXT ( 'automotive_design' ) ;
#52 = DIRECTION ( 'NONE',  ( 1.000000000000000000, 0.0000000000000000000, 0.0000000000000000000 ) ) ;
#53 = ORIENTED_EDGE ( 'NONE', *, *, #10, .F. ) ;
#54 = CARTESIAN_POINT ( 'NONE',  ( 0.01598400000000000515, 1.957475443757129660E-18, 0.01598400000000000168 ) ) ;
#55 = ORIENTED_EDGE ( 'NONE', *, *, #318, .F. ) ;
#56 = AXIS2_PLACEMENT_3D ( 'NONE', #103, #207, #317 ) ;
#57 = DIRECTION ( 'NONE',  ( 0.0000000000000000000, 0.0000000000000000000, 1.000000000000000000 ) ) ;
#58 = FILL_AREA_STYLE ('',( #316 ) ) ;
#59 = EDGE_CURVE ( 'NONE', #16, #284, #148, .T. ) ;
#60 = EDGE_CURVE ( 'NONE', #96, #205, #75, .T. ) ;
#61 = COLOUR_RGB ( '',0.7921568627450980005, 0.8196078431372548767, 0.9333333333333333481 ) ;
#62 = FACE_OUTER_BOUND ( 'NONE', #151, .T. ) ;
#63 = ORIENTED_EDGE ( 'NONE', *, *, #46, .T. ) ;
#64 = DIRECTION ( 'NONE',  ( 0.0000000000000000000, 1.000000000000000000, 0.0000000000000000000 ) ) ;
#65 = DIRECTION ( 'NONE',  ( 0.0000000000000000000, 1.000000000000000000, 0.0000000000000000000 ) ) ;
#66 = AXIS2_PLACEMENT_3D ( 'NONE', #14, #242, #168 ) ;
#67 = PRODUCT_CONTEXT ( 'NONE', #117, 'mechanical' ) ;
#68 = EDGE_CURVE ( 'NONE', #129, #247, #183, .T. ) ;
#69 = CIRCLE ( 'NONE', #126, 0.01598400000000000168 ) ;
#70 = ORIENTED_EDGE ( 'NONE', *, *, #227, .F. ) ;
#71 = CARTESIAN_POINT ( 'NONE',  ( -0.01598400000000000168, 0.0000000000000000000, 0.01598400000000000515 ) ) ;
#72 = CARTESIAN_POINT ( 'NONE',  ( -0.06250000000000002776, 0.0000000000000000000, 1.485000000000000764 ) ) ;
#73 = DIRECTION ( 'NONE',  ( 1.000000000000000000, 0.0000000000000000000, 0.0000000000000000000 ) ) ;
#74 = DIRECTION ( 'NONE',  ( 0.0000000000000000000, 0.0000000000000000000, -1.000000000000000000 ) ) ;
#75 = CIRCLE ( 'NONE', #191, 0.01598400000000000168 ) ;
#76 = AXIS2_PLACEMENT_3D ( 'NONE', #13, #110, #27 ) ;
#77 = DIRECTION ( 'NONE',  ( -1.000000000000000000, 0.0000000000000000000, 0.0000000000000000000 ) ) ;
#78 = DIRECTION ( 'NONE',  ( -1.000000000000000000, 0.0000000000000000000, 0.0000000000000000000 ) ) ;
#79 = ORIENTED_EDGE ( 'NONE', *, *, #136, .T. ) ;
#80 = DIRECTION ( 'NONE',  ( 0.1736481776669313859, 0.0000000000000000000, 0.9848077530122077983 ) ) ;
#81 = CIRCLE ( 'NONE', #128, 0.06250000000000002776 ) ;
#82 = ORIENTED_EDGE ( 'NONE', *, *, #318, .T. ) ;
#83 = SURFACE_STYLE_FILL_AREA ( #58 ) ;
#84 = CARTESIAN_POINT ( 'NONE',  ( 0.01598400000000001209, 0.0000000000000000000, 0.09600000000000000200 ) ) ;
#85 = CONICAL_SURFACE ( 'NONE', #323, 0.04750000000000064587, 0.7853981633974466137 ) ;
#86 = MECHANICAL_DESIGN_GEOMETRIC_PRESENTATION_REPRESENTATION (  '', ( #271 ), #217 ) ;
#87 = SPHERICAL_SURFACE ( 'NONE', #315, 0.01598400000000000168 ) ;
#88 = FILL_AREA_STYLE ('',( #270 ) ) ;
#89 = EDGE_CURVE ( 'NONE', #114, #43, #132, .T. ) ;
#90 = ADVANCED_FACE ( 'NONE', ( #201 ), #98, .T. ) ;
#91 = AXIS2_PLACEMENT_3D ( 'NONE', #2, #278, #45 ) ;
#92 = FACE_OUTER_BOUND ( 'NONE', #305, .T. ) ;
#93 = ORIENTED_EDGE ( 'NONE', *, *, #8, .F. ) ;
#94 = CARTESIAN_POINT ( 'NONE',  ( 2.936213165635694876E-18, 0.0000000000000000000, 0.0000000000000000000 ) ) ;
#95 = ORIENTED_EDGE ( 'NONE', *, *, #209, .T. ) ;
#96 = VERTEX_POINT ( 'NONE', #71 ) ;
#97 = DIRECTION ( 'NONE',  ( 0.0000000000000000000, 0.0000000000000000000, 1.000000000000000000 ) ) ;
#98 = CYLINDRICAL_SURFACE ( 'NONE', #225, 0.01598400000000000168 ) ;
#99 = ORIENTED_EDGE ( 'NONE', *, *, #89, .F. ) ;
#100 = STYLED_ITEM ( 'NONE', ( #193 ), #196 ) ;
#101 = ORIENTED_EDGE ( 'NONE', *, *, #10, .T. ) ;
#102 = ORIENTED_EDGE ( 'NONE', *, *, #89, .T. ) ;
#103 = CARTESIAN_POINT ( 'NONE',  ( 0.0000000000000000000, 0.0000000000000000000, 1.500000000000000222 ) ) ;
#104 = UNCERTAINTY_MEASURE_WITH_UNIT (LENGTH_MEASURE( 1.000000000000000082E-05 ), #229, 'distance_accuracy_value', 'NONE');
#105 = ORIENTED_EDGE ( 'NONE', *, *, #4, .F. ) ;
#106 =( NAMED_UNIT ( * ) PLANE_ANGLE_UNIT ( ) SI_UNIT ( $, .RADIAN. ) );
#107 = ADVANCED_FACE ( 'NONE', ( #250 ), #176, .T. ) ;
#108 = LINE ( 'NONE', #289, #234 ) ;
#109 =( LENGTH_UNIT ( ) NAMED_UNIT ( * ) SI_UNIT ( $, .METRE. ) );
#110 = DIRECTION ( 'NONE',  ( -1.224646799147353454E-16, -0.0000000000000000000, -1.000000000000000000 ) ) ;
#111 = FACE_OUTER_BOUND ( 'NONE', #208, .T. ) ;
#112 = CIRCLE ( 'NONE', #76, 0.01598400000000000168 ) ;
#113 =( NAMED_UNIT ( * ) PLANE_ANGLE_UNIT ( ) SI_UNIT ( $, .RADIAN. ) );
#114 = VERTEX_POINT ( 'NONE', #200 ) ;
#115 = ADVANCED_FACE ( 'NONE', ( #179 ), #25, .T. ) ;
#116 = SURFACE_STYLE_FILL_AREA ( #88 ) ;
#117 = APPLICATION_CONTEXT ( 'automotive_design' ) ;
#118 = ORIENTED_EDGE ( 'NONE', *, *, #240, .F. ) ;
#119 = ORIENTED_EDGE ( 'NONE', *, *, #257, .T. ) ;
#120 = AXIS2_PLACEMENT_3D ( 'NONE', #264, #57, #314 ) ;
#121 = DIRECTION ( 'NONE',  ( -1.224646799147353454E-16, -0.0000000000000000000, -1.000000000000000000 ) ) ;
#122 = CLOSED_SHELL ( 'NONE', ( #308, #90, #272, #107, #154, #232, #115, #30, #245, #303, #299 ) ) ;
#123 = ORIENTED_EDGE ( 'NONE', *, *, #189, .F. ) ;
#124 = DIRECTION ( 'NONE',  ( 0.0000000000000000000, 0.0000000000000000000, 1.000000000000000000 ) ) ;
#125 = ORIENTED_EDGE ( 'NONE', *, *, #60, .F. ) ;
#126 = AXIS2_PLACEMENT_3D ( 'NONE', #47, #279, #198 ) ;
#127 = DIRECTION ( 'NONE',  ( -1.224646799147353454E-16, -0.0000000000000000000, -1.000000000000000000 ) ) ;
#128 = AXIS2_PLACEMENT_3D ( 'NONE', #258, #266, #131 ) ;
#129 = VERTEX_POINT ( 'NONE', #253 ) ;
#130 = CARTESIAN_POINT ( 'NONE',  ( 0.06250000000000002776, 7.654042494670959086E-18, 1.500000000000000222 ) ) ;
#131 = DIRECTION ( 'NONE',  ( 1.000000000000000000, 0.0000000000000000000, 0.0000000000000000000 ) ) ;
#132 = CIRCLE ( 'NONE', #265, 0.06250000000000002776 ) ;
#133 = ORIENTED_EDGE ( 'NONE', *, *, #59, .F. ) ;
#134 = DIRECTION ( 'NONE',  ( 0.7071067811865462405, 8.659560562354916834E-17, -0.7071067811865486830 ) ) ;
#135 = EDGE_LOOP ( 'NONE', ( #141, #79, #22, #99 ) ) ;
#136 = EDGE_CURVE ( 'NONE', #284, #16, #280, .T. ) ;
#137 = CARTESIAN_POINT ( 'NONE',  ( -0.01598399999999998780, 1.957475443757129275E-18, 0.09600000000000000200 ) ) ;
#138 = FACE_OUTER_BOUND ( 'NONE', #39, .T. ) ;
#139 = AXIS2_PLACEMENT_3D ( 'NONE', #181, #49, #5 ) ;
#140 = PRESENTATION_STYLE_ASSIGNMENT (( #12 ) ) ;
#141 = ORIENTED_EDGE ( 'NONE', *, *, #20, .F. ) ;
#142 = ORIENTED_EDGE ( 'NONE', *, *, #286, .T. ) ;
#143 = CARTESIAN_POINT ( 'NONE',  ( 0.0000000000000000000, 0.0000000000000000000, 0.0000000000000000000 ) ) ;
#144 = DIRECTION ( 'NONE',  ( 1.000000000000000000, 0.0000000000000000000, 0.0000000000000000000 ) ) ;
#145 = CARTESIAN_POINT ( 'NONE',  ( 1.957475443757130046E-18, 0.0000000000000000000, 0.01598400000000000168 ) ) ;
#146 = LENGTH_MEASURE_WITH_UNIT ( LENGTH_MEASURE( 0.02539999999999999897 ), #237 );
#147 = VERTEX_POINT ( 'NONE', #94 ) ;
#148 = CIRCLE ( 'NONE', #28, 0.06250000000000002776 ) ;
#149 = CARTESIAN_POINT ( 'NONE',  ( 0.0000000000000000000, 0.0000000000000000000, 0.0000000000000000000 ) ) ;
#150 = VERTEX_POINT ( 'NONE', #156 ) ;
#151 = EDGE_LOOP ( 'NONE', ( #175, #155, #95, #241 ) ) ;
#152 = EDGE_CURVE ( 'NONE', #147, #205, #249, .T. ) ;
#153 = CARTESIAN_POINT ( 'NONE',  ( 4.406344642189530902E-17, 0.0000000000000000000, 0.3598053451213360510 ) ) ;
#154 = ADVANCED_FACE ( 'NONE', ( #159 ), #165, .T. ) ;
#155 = ORIENTED_EDGE ( 'NONE', *, *, #227, .T. ) ;
#156 = CARTESIAN_POINT ( 'NONE',  ( 0.01598400000000001209, 0.0000000000000000000, 0.09600000000000000200 ) ) ;
#157 = AXIS2_PLACEMENT_3D ( 'NONE', #182, #219, #307 ) ;
#158 = CARTESIAN_POINT ( 'NONE',  ( 0.0000000000000000000, 0.0000000000000000000, 1.500000000000000222 ) ) ;
#159 = FACE_OUTER_BOUND ( 'NONE', #255, .T. ) ;
#160 = CARTESIAN_POINT ( 'NONE',  ( 0.04750000000000064587, 6.735557395310483192E-18, 1.500000000000000222 ) ) ;
#161 = AXIS2_PLACEMENT_3D ( 'NONE', #224, #127, #77 ) ;
#162 = DIMENSIONAL_EXPONENTS ( 1.000000000000000000, 0.0000000000000000000, 0.0000000000000000000, 0.0000000000000000000, 0.0000000000000000000, 0.0000000000000000000, 0.0000000000000000000 ) ;
#163 = MECHANICAL_DESIGN_GEOMETRIC_PRESENTATION_REPRESENTATION (  '', ( #100 ), #15 ) ;
#164 = LINE ( 'NONE', #213, #18 ) ;
#165 = CYLINDRICAL_SURFACE ( 'NONE', #267, 0.06250000000000002776 ) ;
#166 =( NAMED_UNIT ( * ) SI_UNIT ( $, .STERADIAN. ) SOLID_ANGLE_UNIT ( ) );
#167 = EDGE_CURVE ( 'NONE', #313, #43, #188, .T. ) ;
#168 = DIRECTION ( 'NONE',  ( -1.000000000000000000, 0.0000000000000000000, 1.224646799147353454E-16 ) ) ;
#169 = LENGTH_MEASURE_WITH_UNIT ( LENGTH_MEASURE( 0.02539999999999999897 ), #238 );
#170 =( NAMED_UNIT ( * ) SI_UNIT ( $, .STERADIAN. ) SOLID_ANGLE_UNIT ( ) );
#171 = ORIENTED_EDGE ( 'NONE', *, *, #8, .T. ) ;
#172 = CARTESIAN_POINT ( 'NONE',  ( -0.04750000000000064587, 0.0000000000000000000, 1.500000000000000222 ) ) ;
#173 = DIRECTION ( 'NONE',  ( 1.000000000000000000, 0.0000000000000000000, 0.0000000000000000000 ) ) ;
#174 = VECTOR ( 'NONE', #294, 39.37007874015748854 ) ;
#175 = ORIENTED_EDGE ( 'NONE', *, *, #286, .F. ) ;
#176 = CONICAL_SURFACE ( 'NONE', #157, 0.04750000000000064587, 0.7853981633974466137 ) ;
#177 = EDGE_LOOP ( 'NONE', ( #101, #142, #171, #1 ) ) ;
#178 = ORIENTED_EDGE ( 'NONE', *, *, #240, .T. ) ;
#179 = FACE_OUTER_BOUND ( 'NONE', #275, .T. ) ;
#180 = PRODUCT_DEFINITION_SHAPE ( 'NONE', 'NONE',  #312 ) ;
#181 = CARTESIAN_POINT ( 'NONE',  ( 1.957475443757130046E-18, 0.0000000000000000000, 0.01598400000000000168 ) ) ;
#182 = CARTESIAN_POINT ( 'NONE',  ( 0.0000000000000000000, 0.0000000000000000000, 1.500000000000000222 ) ) ;
#183 = CIRCLE ( 'NONE', #216, 0.04750000000000064587 ) ;
#184 = DIRECTION ( 'NONE',  ( 1.000000000000000000, 0.0000000000000000000, -0.0000000000000000000 ) ) ;
#185 = CARTESIAN_POINT ( 'NONE',  ( -0.06250000000000002776, 0.0000000000000000000, 1.500000000000000222 ) ) ;
#186 = DIRECTION ( 'NONE',  ( -1.224646799147353454E-16, -0.0000000000000000000, -1.000000000000000000 ) ) ;
#187 = LINE ( 'NONE', #287, #195 ) ;
#188 = LINE ( 'NONE', #137, #260 ) ;
#189 = EDGE_CURVE ( 'NONE', #247, #129, #212, .T. ) ;
#190 = FACE_OUTER_BOUND ( 'NONE', #206, .T. ) ;
#191 = AXIS2_PLACEMENT_3D ( 'NONE', #197, #40, #21 ) ;
#192 = DIRECTION ( 'NONE',  ( 1.000000000000000000, 0.0000000000000000000, 0.0000000000000000000 ) ) ;
#193 = PRESENTATION_STYLE_ASSIGNMENT (( #248 ) ) ;
#194 = CYLINDRICAL_SURFACE ( 'NONE', #66, 0.01598400000000000168 ) ;
#195 = VECTOR ( 'NONE', #33, 39.37007874015748143 ) ;
#196 = ADVANCED_BREP_SHAPE_REPRESENTATION ( 'Micro_BMR-032-2X', ( #296, #321 ), #203 ) ;
#197 = CARTESIAN_POINT ( 'NONE',  ( 1.957475443757130046E-18, 0.0000000000000000000, 0.01598400000000000168 ) ) ;
#198 = DIRECTION ( 'NONE',  ( -1.000000000000000000, 0.0000000000000000000, 1.335245398554933230E-16 ) ) ;
#199 = PRODUCT ( 'Micro_BMR-032-2X', 'Micro_BMR-032-2X', '', ( #67 ) ) ;
#200 = CARTESIAN_POINT ( 'NONE',  ( 0.06250000000000006939, 7.654042494670963708E-18, 0.3598053451213360510 ) ) ;
#201 = FACE_OUTER_BOUND ( 'NONE', #177, .T. ) ;
#202 = VECTOR ( 'NONE', #204, 39.37007874015748143 ) ;
#203 =( GEOMETRIC_REPRESENTATION_CONTEXT ( 3 ) GLOBAL_UNCERTAINTY_ASSIGNED_CONTEXT ( ( #228 ) ) GLOBAL_UNIT_ASSIGNED_CONTEXT ( ( #320, #113, #322 ) ) REPRESENTATION_CONTEXT ( 'NONE', 'WORKASPACE' ) );
#204 = DIRECTION ( 'NONE',  ( -0.0000000000000000000, -0.0000000000000000000, -1.000000000000000000 ) ) ;
#205 = VERTEX_POINT ( 'NONE', #54 ) ;
#206 = EDGE_LOOP ( 'NONE', ( #273, #19, #125 ) ) ;
#207 = DIRECTION ( 'NONE',  ( -0.0000000000000000000, -0.0000000000000000000, -1.000000000000000000 ) ) ;
#208 = EDGE_LOOP ( 'NONE', ( #246, #63, #93 ) ) ;
#209 = EDGE_CURVE ( 'NONE', #313, #96, #187, .T. ) ;
#210 = DIMENSIONAL_EXPONENTS ( 1.000000000000000000, 0.0000000000000000000, 0.0000000000000000000, 0.0000000000000000000, 0.0000000000000000000, 0.0000000000000000000, 0.0000000000000000000 ) ;
#211 = CARTESIAN_POINT ( 'NONE',  ( 1.175660927181459403E-17, 0.0000000000000000000, 0.09600000000000000200 ) ) ;
#212 = CIRCLE ( 'NONE', #120, 0.04750000000000064587 ) ;
#213 = CARTESIAN_POINT ( 'NONE',  ( 0.01598400000000000168, 1.957475443757129660E-18, -1.957475443757130046E-18 ) ) ;
#214 = CYLINDRICAL_SURFACE ( 'NONE', #56, 0.06250000000000002776 ) ;
#215 = PRODUCT_DEFINITION_FORMATION_WITH_SPECIFIED_SOURCE ( 'ANY', '', #199, .NOT_KNOWN. ) ;
#216 = AXIS2_PLACEMENT_3D ( 'NONE', #220, #97, #3 ) ;
#217 =( GEOMETRIC_REPRESENTATION_CONTEXT ( 3 ) GLOBAL_UNCERTAINTY_ASSIGNED_CONTEXT ( ( #104 ) ) GLOBAL_UNIT_ASSIGNED_CONTEXT ( ( #229, #106, #166 ) ) REPRESENTATION_CONTEXT ( 'NONE', 'WORKASPACE' ) );
#218 = DIRECTION ( 'NONE',  ( 0.0000000000000000000, 0.0000000000000000000, 1.000000000000000000 ) ) ;
#219 = DIRECTION ( 'NONE',  ( 0.0000000000000000000, 0.0000000000000000000, -1.000000000000000000 ) ) ;
#220 = CARTESIAN_POINT ( 'NONE',  ( 0.0000000000000000000, 0.0000000000000000000, 1.500000000000000222 ) ) ;
#221 = CONICAL_SURFACE ( 'NONE', #325, 0.01598400000000000168, 0.1745329251994338915 ) ;
#222 = DIRECTION ( 'NONE',  ( -0.0000000000000000000, -0.0000000000000000000, -1.000000000000000000 ) ) ;
#223 = DIRECTION ( 'NONE',  ( 0.0000000000000000000, 0.0000000000000000000, -1.000000000000000000 ) ) ;
#224 = CARTESIAN_POINT ( 'NONE',  ( 1.175660927181459403E-17, 0.0000000000000000000, 0.09600000000000000200 ) ) ;
#225 = AXIS2_PLACEMENT_3D ( 'NONE', #149, #121, #251 ) ;
#226 = DIRECTION ( 'NONE',  ( 1.224646799147353454E-16, 0.0000000000000000000, 1.000000000000000000 ) ) ;
#227 = EDGE_CURVE ( 'NONE', #150, #313, #112, .T. ) ;
#228 = UNCERTAINTY_MEASURE_WITH_UNIT (LENGTH_MEASURE( 1.000000000000000082E-05 ), #320, 'distance_accuracy_value', 'NONE');
#229 =( CONVERSION_BASED_UNIT ( 'INCH', #290 ) LENGTH_UNIT ( ) NAMED_UNIT ( #210 ) );
#230 = ORIENTED_EDGE ( 'NONE', *, *, #268, .T. ) ;
#231 = DIRECTION ( 'NONE',  ( 1.224646799147353454E-16, 0.0000000000000000000, 1.000000000000000000 ) ) ;
#232 = ADVANCED_FACE ( 'NONE', ( #9 ), #214, .T. ) ;
#233 = CARTESIAN_POINT ( 'NONE',  ( 0.0000000000000000000, 0.0000000000000000000, 1.500000000000000222 ) ) ;
#234 = VECTOR ( 'NONE', #134, 39.37007874015748854 ) ;
#235 = ORIENTED_EDGE ( 'NONE', *, *, #68, .F. ) ;
#236 = DIRECTION ( 'NONE',  ( -0.0000000000000000000, -0.0000000000000000000, -1.000000000000000000 ) ) ;
#237 =( LENGTH_UNIT ( ) NAMED_UNIT ( * ) SI_UNIT ( $, .METRE. ) );
#238 =( LENGTH_UNIT ( ) NAMED_UNIT ( * ) SI_UNIT ( $, .METRE. ) );
#239 = VECTOR ( 'NONE', #80, 39.37007874015748143 ) ;
#240 = EDGE_CURVE ( 'NONE', #150, #114, #32, .T. ) ;
#241 = ORIENTED_EDGE ( 'NONE', *, *, #60, .T. ) ;
#242 = DIRECTION ( 'NONE',  ( -1.224646799147353454E-16, -0.0000000000000000000, -1.000000000000000000 ) ) ;
#243 = APPLICATION_PROTOCOL_DEFINITION ( 'draft international standard', 'automotive_design', 1998, #51 ) ;
#244 = SHAPE_DEFINITION_REPRESENTATION ( #180, #196 ) ;
#245 = ADVANCED_FACE ( 'NONE', ( #138 ), #48, .T. ) ;
#246 = ORIENTED_EDGE ( 'NONE', *, *, #152, .F. ) ;
#247 = VERTEX_POINT ( 'NONE', #160 ) ;
#248 = SURFACE_STYLE_USAGE ( .BOTH. , #35 ) ;
#249 = CIRCLE ( 'NONE', #41, 0.01598400000000000168 ) ;
#250 = FACE_OUTER_BOUND ( 'NONE', #29, .T. ) ;
#251 = DIRECTION ( 'NONE',  ( -1.000000000000000000, 0.0000000000000000000, 1.224646799147353454E-16 ) ) ;
#252 = DIRECTION ( 'NONE',  ( 0.0000000000000000000, -1.000000000000000000, 0.0000000000000000000 ) ) ;
#253 = CARTESIAN_POINT ( 'NONE',  ( -0.04750000000000064587, 0.0000000000000000000, 1.500000000000000222 ) ) ;
#254 = ORIENTED_EDGE ( 'NONE', *, *, #59, .T. ) ;
#255 = EDGE_LOOP ( 'NONE', ( #254, #17, #50, #105 ) ) ;
#256 = PRODUCT_DEFINITION_CONTEXT ( 'detailed design', #51, 'design' ) ;
#257 = EDGE_CURVE ( 'NONE', #43, #114, #81, .T. ) ;
#258 = CARTESIAN_POINT ( 'NONE',  ( 4.406344642189530902E-17, 0.0000000000000000000, 0.3598053451213360510 ) ) ;
#259 = ORIENTED_EDGE ( 'NONE', *, *, #167, .F. ) ;
#260 = VECTOR ( 'NONE', #31, 39.37007874015747433 ) ;
#261 = SURFACE_SIDE_STYLE ('',( #83 ) ) ;
#262 = ORIENTED_EDGE ( 'NONE', *, *, #268, .F. ) ;
#263 = DIMENSIONAL_EXPONENTS ( 1.000000000000000000, 0.0000000000000000000, 0.0000000000000000000, 0.0000000000000000000, 0.0000000000000000000, 0.0000000000000000000, 0.0000000000000000000 ) ;
#264 = CARTESIAN_POINT ( 'NONE',  ( 0.0000000000000000000, 0.0000000000000000000, 1.500000000000000222 ) ) ;
#265 = AXIS2_PLACEMENT_3D ( 'NONE', #153, #301, #73 ) ;
#266 = DIRECTION ( 'NONE',  ( -1.224646799147353454E-16, -0.0000000000000000000, -1.000000000000000000 ) ) ;
#267 = AXIS2_PLACEMENT_3D ( 'NONE', #233, #236, #78 ) ;
#268 = EDGE_CURVE ( 'NONE', #247, #284, #108, .T. ) ;
#269 = CARTESIAN_POINT ( 'NONE',  ( -0.01598399999999998780, 4.805758969214044758E-18, 0.09600000000000000200 ) ) ;
#270 = FILL_AREA_STYLE_COLOUR ( '', #61 ) ;
#271 = STYLED_ITEM ( 'NONE', ( #140 ), #296 ) ;
#272 = ADVANCED_FACE ( 'NONE', ( #11 ), #221, .T. ) ;
#273 = ORIENTED_EDGE ( 'NONE', *, *, #46, .F. ) ;
#274 = PRESENTATION_LAYER_ASSIGNMENT (  '', '', ( #100 ) ) ;
#275 = EDGE_LOOP ( 'NONE', ( #42, #300 ) ) ;
#276 = EDGE_LOOP ( 'NONE', ( #53, #288, #119, #118 ) ) ;
#277 = DIRECTION ( 'NONE',  ( 1.000000000000000000, 0.0000000000000000000, 0.0000000000000000000 ) ) ;
#278 = DIRECTION ( 'NONE',  ( 0.0000000000000000000, 0.0000000000000000000, -1.000000000000000000 ) ) ;
#279 = DIRECTION ( 'NONE',  ( 1.224646799147353454E-16, 0.0000000000000000000, 1.000000000000000000 ) ) ;
#280 = CIRCLE ( 'NONE', #91, 0.06250000000000002776 ) ;
#281 = CARTESIAN_POINT ( 'NONE',  ( 1.957475443757130046E-18, 0.0000000000000000000, 0.01598400000000000168 ) ) ;
#282 = CARTESIAN_POINT ( 'NONE',  ( 1.175660927181459403E-17, 0.0000000000000000000, 0.09600000000000000200 ) ) ;
#283 = DIRECTION ( 'NONE',  ( 1.000000000000000000, 0.0000000000000000000, 0.0000000000000000000 ) ) ;
#284 = VERTEX_POINT ( 'NONE', #311 ) ;
#285 = COLOUR_RGB ( '',0.7921568627450980005, 0.8196078431372548767, 0.9333333333333333481 ) ;
#286 = EDGE_CURVE ( 'NONE', #150, #205, #164, .T. ) ;
#287 = CARTESIAN_POINT ( 'NONE',  ( -0.01598400000000000168, 0.0000000000000000000, 1.957475443757130046E-18 ) ) ;
#288 = ORIENTED_EDGE ( 'NONE', *, *, #167, .T. ) ;
#289 = CARTESIAN_POINT ( 'NONE',  ( 0.04750000000000064587, 5.817072295950006528E-18, 1.500000000000000222 ) ) ;
#290 = LENGTH_MEASURE_WITH_UNIT ( LENGTH_MEASURE( 0.02539999999999999897 ), #109 );
#291 = CIRCLE ( 'NONE', #139, 0.01598400000000000168 ) ;
#292 = CARTESIAN_POINT ( 'NONE',  ( 1.957475443757130046E-18, 0.0000000000000000000, 0.01598400000000000168 ) ) ;
#293 = PRESENTATION_LAYER_ASSIGNMENT (  '', '', ( #271 ) ) ;
#294 = DIRECTION ( 'NONE',  ( -0.7071067811865462405, 0.0000000000000000000, -0.7071067811865486830 ) ) ;
#295 =( NAMED_UNIT ( * ) PLANE_ANGLE_UNIT ( ) SI_UNIT ( $, .RADIAN. ) );
#296 = MANIFOLD_SOLID_BREP ( 'Fillet1', #122 ) ;
#297 = PRODUCT_RELATED_PRODUCT_CATEGORY ( 'part', '', ( #199 ) ) ;
#298 = APPLICATION_PROTOCOL_DEFINITION ( 'draft international standard', 'automotive_design', 1998, #117 ) ;
#299 = ADVANCED_FACE ( 'NONE', ( #190 ), #87, .T. ) ;
#300 = ORIENTED_EDGE ( 'NONE', *, *, #189, .T. ) ;
#301 = DIRECTION ( 'NONE',  ( -1.224646799147353454E-16, -0.0000000000000000000, -1.000000000000000000 ) ) ;
#302 = AXIS2_PLACEMENT_3D ( 'NONE', #282, #231, #52 ) ;
#303 = ADVANCED_FACE ( 'NONE', ( #62 ), #194, .T. ) ;
#304 = CARTESIAN_POINT ( 'NONE',  ( 0.0000000000000000000, 0.0000000000000000000, 1.485000000000000764 ) ) ;
#305 = EDGE_LOOP ( 'NONE', ( #262, #235, #82, #7 ) ) ;
#306 = CARTESIAN_POINT ( 'NONE',  ( 0.0000000000000000000, 0.0000000000000000000, 1.500000000000000222 ) ) ;
#307 = DIRECTION ( 'NONE',  ( -1.000000000000000000, 0.0000000000000000000, 0.0000000000000000000 ) ) ;
#308 = ADVANCED_FACE ( 'NONE', ( #111 ), #36, .T. ) ;
#309 = CARTESIAN_POINT ( 'NONE',  ( -0.06249999999999997918, 0.0000000000000000000, 0.3598053451213360510 ) ) ;
#310 = VECTOR ( 'NONE', #222, 39.37007874015748143 ) ;
#311 = CARTESIAN_POINT ( 'NONE',  ( 0.06250000000000002776, 7.654042494670959086E-18, 1.485000000000000764 ) ) ;
#312 = PRODUCT_DEFINITION ( 'UNKNOWN', '', #215, #256 ) ;
#313 = VERTEX_POINT ( 'NONE', #269 ) ;
#314 = DIRECTION ( 'NONE',  ( 1.000000000000000000, 0.0000000000000000000, 0.0000000000000000000 ) ) ;
#315 = AXIS2_PLACEMENT_3D ( 'NONE', #292, #64, #192 ) ;
#316 = FILL_AREA_STYLE_COLOUR ( '', #285 ) ;
#317 = DIRECTION ( 'NONE',  ( -1.000000000000000000, 0.0000000000000000000, 0.0000000000000000000 ) ) ;
#318 = EDGE_CURVE ( 'NONE', #129, #16, #34, .T. ) ;
#319 = AXIS2_PLACEMENT_3D ( 'NONE', #158, #124, #184 ) ;
#320 =( CONVERSION_BASED_UNIT ( 'INCH', #169 ) LENGTH_UNIT ( ) NAMED_UNIT ( #162 ) );
#321 = AXIS2_PLACEMENT_3D ( 'NONE', #143, #218, #173 ) ;
#322 =( NAMED_UNIT ( * ) SI_UNIT ( $, .STERADIAN. ) SOLID_ANGLE_UNIT ( ) );
#323 = AXIS2_PLACEMENT_3D ( 'NONE', #306, #74, #44 ) ;
#324 =( CONVERSION_BASED_UNIT ( 'INCH', #146 ) LENGTH_UNIT ( ) NAMED_UNIT ( #263 ) );
#325 = AXIS2_PLACEMENT_3D ( 'NONE', #211, #226, #283 ) ;
ENDSEC;
END-ISO-10303-21;
