ISO-10303-21;
HEADER;
FILE_DESCRIPTION (( 'STEP AP214' ),
    '1' );
FILE_NAME ('Micro_SEM-203-04X.STEP',
    '2021-09-02T02:19:17',
    ( '' ),
    ( '' ),
    'SwSTEP 2.0',
    'SolidWorks 2020',
    '' );
FILE_SCHEMA (( 'AUTOMOTIVE_DESIGN' ));
ENDSEC;

DATA;
#1 = DIRECTION ( 'NONE',  ( 1.000000000000000000, 0.0000000000000000000, 0.0000000000000000000 ) ) ;
#2 = PRODUCT ( 'Micro_SEM-203-04X', 'Micro_SEM-203-04X', '', ( #227 ) ) ;
#3 = ADVANCED_FACE ( 'NONE', ( #229 ), #75, .T. ) ;
#4 = DIRECTION ( 'NONE',  ( -1.000000000000000000, 0.0000000000000000000, 0.0000000000000000000 ) ) ;
#5 = AXIS2_PLACEMENT_3D ( 'NONE', #138, #116, #290 ) ;
#6 = AXIS2_PLACEMENT_3D ( 'NONE', #219, #170, #4 ) ;
#7 = DIRECTION ( 'NONE',  ( -0.7071067811865434649, 0.0000000000000000000, -0.7071067811865515695 ) ) ;
#8 = ADVANCED_FACE ( 'NONE', ( #295 ), #53, .T. ) ;
#9 = LINE ( 'NONE', #234, #93 ) ;
#10 = LENGTH_MEASURE_WITH_UNIT ( LENGTH_MEASURE( 0.02539999999999999897 ), #172 );
#11 = CARTESIAN_POINT ( 'NONE',  ( 0.0000000000000000000, 0.0000000000000000000, 2.000000000000000000 ) ) ;
#12 = ORIENTED_EDGE ( 'NONE', *, *, #160, .T. ) ;
#13 = DIRECTION ( 'NONE',  ( 0.0000000000000000000, 0.0000000000000000000, -1.000000000000000000 ) ) ;
#14 = ORIENTED_EDGE ( 'NONE', *, *, #25, .F. ) ;
#15 = DIMENSIONAL_EXPONENTS ( 1.000000000000000000, 0.0000000000000000000, 0.0000000000000000000, 0.0000000000000000000, 0.0000000000000000000, 0.0000000000000000000, 0.0000000000000000000 ) ;
#16 = AXIS2_PLACEMENT_3D ( 'NONE', #83, #197, #222 ) ;
#17 = DIRECTION ( 'NONE',  ( 0.0000000000000000000, 0.0000000000000000000, 1.000000000000000000 ) ) ;
#18 = ORIENTED_EDGE ( 'NONE', *, *, #164, .F. ) ;
#19 = CARTESIAN_POINT ( 'NONE',  ( -0.1014484499999999539, 1.242385195709603026E-17, 0.3750000000000000555 ) ) ;
#20 = VERTEX_POINT ( 'NONE', #52 ) ;
#21 = CARTESIAN_POINT ( 'NONE',  ( 0.0000000000000000000, 0.0000000000000000000, 0.0000000000000000000 ) ) ;
#22 = ORIENTED_EDGE ( 'NONE', *, *, #25, .T. ) ;
#23 = ORIENTED_EDGE ( 'NONE', *, *, #153, .T. ) ;
#24 = DIRECTION ( 'NONE',  ( 1.000000000000000000, 0.0000000000000000000, 0.0000000000000000000 ) ) ;
#25 = EDGE_CURVE ( 'NONE', #61, #265, #105, .T. ) ;
#26 = CARTESIAN_POINT ( 'NONE',  ( 0.0000000000000000000, 0.0000000000000000000, 2.000000000000000000 ) ) ;
#27 =( CONVERSION_BASED_UNIT ( 'INCH', #297 ) LENGTH_UNIT ( ) NAMED_UNIT ( #15 ) );
#28 = ORIENTED_EDGE ( 'NONE', *, *, #259, .F. ) ;
#29 = CIRCLE ( 'NONE', #34, 0.1099999999999996397 ) ;
#30 = DIRECTION ( 'NONE',  ( 1.000000000000000000, 0.0000000000000000000, 0.0000000000000000000 ) ) ;
#31 = DIRECTION ( 'NONE',  ( -1.224646799147353207E-16, -0.0000000000000000000, -1.000000000000000000 ) ) ;
#32 = CARTESIAN_POINT ( 'NONE',  ( 4.592425496802575451E-17, 0.0000000000000000000, 0.3750000000000000555 ) ) ;
#33 = CARTESIAN_POINT ( 'NONE',  ( 1.521483053233823417E-33, 0.0000000000000000000, 1.242385195709603026E-17 ) ) ;
#34 = AXIS2_PLACEMENT_3D ( 'NONE', #287, #89, #243 ) ;
#35 = AXIS2_PLACEMENT_3D ( 'NONE', #98, #181, #24 ) ;
#36 = PRODUCT_DEFINITION ( 'UNKNOWN', '', #283, #281 ) ;
#37 = CARTESIAN_POINT ( 'NONE',  ( 1.521483053233823417E-33, 0.0000000000000000000, 1.242385195709603026E-17 ) ) ;
#38 = DIRECTION ( 'NONE',  ( -1.000000000000000000, 0.0000000000000000000, 1.224646799147353207E-16 ) ) ;
#39 =( LENGTH_UNIT ( ) NAMED_UNIT ( * ) SI_UNIT ( $, .METRE. ) );
#40 = ORIENTED_EDGE ( 'NONE', *, *, #96, .T. ) ;
#41 = DIRECTION ( 'NONE',  ( -1.224646799147353207E-16, -0.0000000000000000000, -1.000000000000000000 ) ) ;
#42 = FACE_OUTER_BOUND ( 'NONE', #273, .T. ) ;
#43 = ORIENTED_EDGE ( 'NONE', *, *, #160, .F. ) ;
#44 = CARTESIAN_POINT ( 'NONE',  ( 0.0000000000000000000, 0.0000000000000000000, 1.984999999999999432 ) ) ;
#45 = CARTESIAN_POINT ( 'NONE',  ( 0.0000000000000000000, 0.0000000000000000000, 2.000000000000000000 ) ) ;
#46 = CONICAL_SURFACE ( 'NONE', #228, 0.1099999999999996397, 0.7853981633974426169 ) ;
#47 = ORIENTED_EDGE ( 'NONE', *, *, #131, .F. ) ;
#48 = CYLINDRICAL_SURFACE ( 'NONE', #139, 0.1250000000000000000 ) ;
#49 = PRODUCT_RELATED_PRODUCT_CATEGORY ( 'part', '', ( #2 ) ) ;
#50 = CONICAL_SURFACE ( 'NONE', #16, 0.1014484499999999956, 0.1745329251994338082 ) ;
#51 = MECHANICAL_DESIGN_GEOMETRIC_PRESENTATION_REPRESENTATION (  '', ( #248 ), #78 ) ;
#52 = CARTESIAN_POINT ( 'NONE',  ( -0.1014484499999999956, 0.0000000000000000000, 2.484770391419206052E-17 ) ) ;
#53 = CONICAL_SURFACE ( 'NONE', #161, 0.1014484499999999956, 0.1745329251994338082 ) ;
#54 =( NAMED_UNIT ( * ) SI_UNIT ( $, .STERADIAN. ) SOLID_ANGLE_UNIT ( ) );
#55 = ADVANCED_FACE ( 'NONE', ( #154 ), #249, .T. ) ;
#56 = DIRECTION ( 'NONE',  ( -1.224646799147353207E-16, -0.0000000000000000000, -1.000000000000000000 ) ) ;
#57 = AXIS2_PLACEMENT_3D ( 'NONE', #21, #17, #173 ) ;
#58 =( NAMED_UNIT ( * ) SI_UNIT ( $, .STERADIAN. ) SOLID_ANGLE_UNIT ( ) );
#59 = FILL_AREA_STYLE ('',( #262 ) ) ;
#60 = DIRECTION ( 'NONE',  ( -0.0000000000000000000, -0.0000000000000000000, -1.000000000000000000 ) ) ;
#61 = VERTEX_POINT ( 'NONE', #130 ) ;
#62 = EDGE_CURVE ( 'NONE', #142, #137, #85, .T. ) ;
#63 = VECTOR ( 'NONE', #255, 39.37007874015748143 ) ;
#64 = AXIS2_PLACEMENT_3D ( 'NONE', #109, #260, #148 ) ;
#65 = VERTEX_POINT ( 'NONE', #146 ) ;
#66 = DIRECTION ( 'NONE',  ( 0.0000000000000000000, 0.0000000000000000000, -1.000000000000000000 ) ) ;
#67 = ORIENTED_EDGE ( 'NONE', *, *, #80, .T. ) ;
#68 = ADVANCED_FACE ( 'NONE', ( #217 ), #50, .T. ) ;
#69 = CARTESIAN_POINT ( 'NONE',  ( 0.0000000000000000000, 0.0000000000000000000, 1.984999999999999432 ) ) ;
#70 = SURFACE_STYLE_FILL_AREA ( #88 ) ;
#71 = FACE_OUTER_BOUND ( 'NONE', #95, .T. ) ;
#72 = APPLICATION_PROTOCOL_DEFINITION ( 'draft international standard', 'automotive_design', 1998, #258 ) ;
#73 = EDGE_LOOP ( 'NONE', ( #175, #272, #22, #183 ) ) ;
#74 = EDGE_CURVE ( 'NONE', #118, #91, #77, .T. ) ;
#75 = PLANE ( 'NONE',  #177 ) ;
#76 = DIRECTION ( 'NONE',  ( 1.000000000000000000, 0.0000000000000000000, 0.0000000000000000000 ) ) ;
#77 = CIRCLE ( 'NONE', #6, 0.1014484499999999956 ) ;
#78 =( GEOMETRIC_REPRESENTATION_CONTEXT ( 3 ) GLOBAL_UNCERTAINTY_ASSIGNED_CONTEXT ( ( #127 ) ) GLOBAL_UNIT_ASSIGNED_CONTEXT ( ( #92, #114, #242 ) ) REPRESENTATION_CONTEXT ( 'NONE', 'WORKASPACE' ) );
#79 = ORIENTED_EDGE ( 'NONE', *, *, #164, .T. ) ;
#80 = EDGE_CURVE ( 'NONE', #208, #20, #263, .T. ) ;
#81 =( GEOMETRIC_REPRESENTATION_CONTEXT ( 3 ) GLOBAL_UNCERTAINTY_ASSIGNED_CONTEXT ( ( #108 ) ) GLOBAL_UNIT_ASSIGNED_CONTEXT ( ( #27, #256, #54 ) ) REPRESENTATION_CONTEXT ( 'NONE', 'WORKASPACE' ) );
#82 =( NAMED_UNIT ( * ) PLANE_ANGLE_UNIT ( ) SI_UNIT ( $, .RADIAN. ) );
#83 = CARTESIAN_POINT ( 'NONE',  ( 4.592425496802575451E-17, 0.0000000000000000000, 0.3750000000000000555 ) ) ;
#84 = PRESENTATION_STYLE_ASSIGNMENT (( #220 ) ) ;
#85 = CIRCLE ( 'NONE', #64, 0.1099999999999996397 ) ;
#86 = FACE_OUTER_BOUND ( 'NONE', #185, .T. ) ;
#87 = DIMENSIONAL_EXPONENTS ( 1.000000000000000000, 0.0000000000000000000, 0.0000000000000000000, 0.0000000000000000000, 0.0000000000000000000, 0.0000000000000000000, 0.0000000000000000000 ) ;
#88 = FILL_AREA_STYLE ('',( #288 ) ) ;
#89 = DIRECTION ( 'NONE',  ( 0.0000000000000000000, 0.0000000000000000000, 1.000000000000000000 ) ) ;
#90 = MANIFOLD_SOLID_BREP ( 'Cut-Revolve1', #196 ) ;
#91 = VERTEX_POINT ( 'NONE', #149 ) ;
#92 =( CONVERSION_BASED_UNIT ( 'INCH', #10 ) LENGTH_UNIT ( ) NAMED_UNIT ( #245 ) );
#93 = VECTOR ( 'NONE', #7, 39.37007874015748143 ) ;
#94 = CARTESIAN_POINT ( 'NONE',  ( 0.0000000000000000000, 0.0000000000000000000, 2.000000000000000000 ) ) ;
#95 = EDGE_LOOP ( 'NONE', ( #150, #12, #210, #201 ) ) ;
#96 = EDGE_CURVE ( 'NONE', #91, #118, #180, .T. ) ;
#97 = EDGE_LOOP ( 'NONE', ( #269, #179, #79, #226 ) ) ;
#98 = CARTESIAN_POINT ( 'NONE',  ( 0.0000000000000000000, 0.0000000000000000000, 0.0000000000000000000 ) ) ;
#99 = PRESENTATION_LAYER_ASSIGNMENT (  '', '', ( #221 ) ) ;
#100 = CARTESIAN_POINT ( 'NONE',  ( -0.1014484499999999956, 0.0000000000000000000, 1.242385195709603026E-17 ) ) ;
#101 = CARTESIAN_POINT ( 'NONE',  ( 4.592425496802575451E-17, 0.0000000000000000000, 0.3750000000000000555 ) ) ;
#102 = DIRECTION ( 'NONE',  ( 0.0000000000000000000, 0.0000000000000000000, -1.000000000000000000 ) ) ;
#103 = ORIENTED_EDGE ( 'NONE', *, *, #214, .T. ) ;
#104 = ADVANCED_FACE ( 'NONE', ( #86 ), #200, .T. ) ;
#105 = CIRCLE ( 'NONE', #193, 0.1250000000000000000 ) ;
#106 = AXIS2_PLACEMENT_3D ( 'NONE', #237, #56, #38 ) ;
#107 = DIRECTION ( 'NONE',  ( -1.224646799147353207E-16, -0.0000000000000000000, -1.000000000000000000 ) ) ;
#108 = UNCERTAINTY_MEASURE_WITH_UNIT (LENGTH_MEASURE( 1.000000000000000082E-05 ), #27, 'distance_accuracy_value', 'NONE');
#109 = CARTESIAN_POINT ( 'NONE',  ( 0.0000000000000000000, 0.0000000000000000000, 2.000000000000000000 ) ) ;
#110 = CARTESIAN_POINT ( 'NONE',  ( -0.1099999999999996397, 0.0000000000000000000, 2.000000000000000000 ) ) ;
#111 = LINE ( 'NONE', #112, #121 ) ;
#112 = CARTESIAN_POINT ( 'NONE',  ( 0.1014484500000000511, 0.0000000000000000000, 0.3750000000000000555 ) ) ;
#113 = EDGE_CURVE ( 'NONE', #65, #265, #171, .T. ) ;
#114 =( NAMED_UNIT ( * ) PLANE_ANGLE_UNIT ( ) SI_UNIT ( $, .RADIAN. ) );
#115 = AXIS2_PLACEMENT_3D ( 'NONE', #33, #285, #282 ) ;
#116 = DIRECTION ( 'NONE',  ( -1.224646799147353207E-16, -0.0000000000000000000, -1.000000000000000000 ) ) ;
#117 = ORIENTED_EDGE ( 'NONE', *, *, #232, .T. ) ;
#118 = VERTEX_POINT ( 'NONE', #215 ) ;
#119 = DIRECTION ( 'NONE',  ( 0.1736481776669313026, 0.0000000000000000000, 0.9848077530122077983 ) ) ;
#120 = EDGE_LOOP ( 'NONE', ( #117, #276, #14, #225 ) ) ;
#121 = VECTOR ( 'NONE', #119, 39.37007874015748143 ) ;
#122 = ORIENTED_EDGE ( 'NONE', *, *, #271, .T. ) ;
#123 = SHAPE_DEFINITION_REPRESENTATION ( #184, #199 ) ;
#124 = AXIS2_PLACEMENT_3D ( 'NONE', #279, #107, #280 ) ;
#125 = EDGE_CURVE ( 'NONE', #142, #157, #9, .T. ) ;
#126 = DIRECTION ( 'NONE',  ( -0.0000000000000000000, -0.0000000000000000000, -1.000000000000000000 ) ) ;
#127 = UNCERTAINTY_MEASURE_WITH_UNIT (LENGTH_MEASURE( 1.000000000000000082E-05 ), #92, 'distance_accuracy_value', 'NONE');
#128 = CIRCLE ( 'NONE', #174, 0.1250000000000000000 ) ;
#129 = DIRECTION ( 'NONE',  ( -1.000000000000000000, 0.0000000000000000000, 0.0000000000000000000 ) ) ;
#130 = CARTESIAN_POINT ( 'NONE',  ( -0.1249999999999999306, 0.0000000000000000000, 0.5085674773388167980 ) ) ;
#131 = EDGE_CURVE ( 'NONE', #265, #61, #278, .T. ) ;
#132 =( CONVERSION_BASED_UNIT ( 'INCH', #169 ) LENGTH_UNIT ( ) NAMED_UNIT ( #87 ) );
#133 = AXIS2_PLACEMENT_3D ( 'NONE', #32, #192, #129 ) ;
#134 = DIRECTION ( 'NONE',  ( -0.1736481776669311083, 2.126576849575782084E-17, 0.9848077530122080203 ) ) ;
#135 = PRESENTATION_STYLE_ASSIGNMENT (( #267 ) ) ;
#136 = PLANE ( 'NONE',  #57 ) ;
#137 = VERTEX_POINT ( 'NONE', #236 ) ;
#138 = CARTESIAN_POINT ( 'NONE',  ( 0.0000000000000000000, 0.0000000000000000000, 0.0000000000000000000 ) ) ;
#139 = AXIS2_PLACEMENT_3D ( 'NONE', #45, #140, #268 ) ;
#140 = DIRECTION ( 'NONE',  ( -0.0000000000000000000, -0.0000000000000000000, -1.000000000000000000 ) ) ;
#141 = LINE ( 'NONE', #250, #63 ) ;
#142 = VERTEX_POINT ( 'NONE', #110 ) ;
#143 = VECTOR ( 'NONE', #134, 39.37007874015747433 ) ;
#144 = CARTESIAN_POINT ( 'NONE',  ( 6.228155332734261484E-17, 0.0000000000000000000, 0.5085674773388167980 ) ) ;
#145 = APPLICATION_CONTEXT ( 'automotive_design' ) ;
#146 = CARTESIAN_POINT ( 'NONE',  ( 0.1250000000000000000, 1.530808498934191509E-17, 1.984999999999999432 ) ) ;
#147 = CARTESIAN_POINT ( 'NONE',  ( 0.1250000000000000000, 1.530808498934191509E-17, 2.000000000000000000 ) ) ;
#148 = DIRECTION ( 'NONE',  ( 1.000000000000000000, 0.0000000000000000000, 0.0000000000000000000 ) ) ;
#149 = CARTESIAN_POINT ( 'NONE',  ( -0.1014484499999999539, 1.386596847321897422E-17, 0.3750000000000000555 ) ) ;
#150 = ORIENTED_EDGE ( 'NONE', *, *, #178, .F. ) ;
#151 = COLOUR_RGB ( '',0.7921568627450980005, 0.8196078431372548767, 0.9333333333333333481 ) ;
#152 = ORIENTED_EDGE ( 'NONE', *, *, #259, .T. ) ;
#153 = EDGE_CURVE ( 'NONE', #20, #208, #191, .T. ) ;
#154 = FACE_OUTER_BOUND ( 'NONE', #120, .T. ) ;
#155 = ORIENTED_EDGE ( 'NONE', *, *, #153, .F. ) ;
#156 = LINE ( 'NONE', #19, #143 ) ;
#157 = VERTEX_POINT ( 'NONE', #284 ) ;
#158 = DIRECTION ( 'NONE',  ( 0.0000000000000000000, 0.0000000000000000000, -1.000000000000000000 ) ) ;
#159 = SURFACE_SIDE_STYLE ('',( #70 ) ) ;
#160 = EDGE_CURVE ( 'NONE', #137, #65, #246, .T. ) ;
#161 = AXIS2_PLACEMENT_3D ( 'NONE', #101, #187, #253 ) ;
#162 = EDGE_LOOP ( 'NONE', ( #296, #213, #103, #239 ) ) ;
#163 = VECTOR ( 'NONE', #293, 39.37007874015748143 ) ;
#164 = EDGE_CURVE ( 'NONE', #91, #20, #202, .T. ) ;
#165 = DIRECTION ( 'NONE',  ( -1.224646799147353207E-16, -0.0000000000000000000, -1.000000000000000000 ) ) ;
#166 = SURFACE_SIDE_STYLE ('',( #238 ) ) ;
#167 = ADVANCED_FACE ( 'NONE', ( #182 ), #275, .T. ) ;
#168 = VECTOR ( 'NONE', #31, 39.37007874015748143 ) ;
#169 = LENGTH_MEASURE_WITH_UNIT ( LENGTH_MEASURE( 0.02539999999999999897 ), #39 );
#170 = DIRECTION ( 'NONE',  ( -1.224646799147353207E-16, -0.0000000000000000000, -1.000000000000000000 ) ) ;
#171 = LINE ( 'NONE', #147, #266 ) ;
#172 =( LENGTH_UNIT ( ) NAMED_UNIT ( * ) SI_UNIT ( $, .METRE. ) );
#173 = DIRECTION ( 'NONE',  ( 1.000000000000000000, 0.0000000000000000000, -0.0000000000000000000 ) ) ;
#174 = AXIS2_PLACEMENT_3D ( 'NONE', #44, #102, #76 ) ;
#175 = ORIENTED_EDGE ( 'NONE', *, *, #96, .F. ) ;
#176 = DIRECTION ( 'NONE',  ( -1.000000000000000000, 0.0000000000000000000, 0.0000000000000000000 ) ) ;
#177 = AXIS2_PLACEMENT_3D ( 'NONE', #26, #231, #211 ) ;
#178 = EDGE_CURVE ( 'NONE', #137, #142, #29, .T. ) ;
#179 = ORIENTED_EDGE ( 'NONE', *, *, #74, .T. ) ;
#180 = CIRCLE ( 'NONE', #133, 0.1014484499999999956 ) ;
#181 = DIRECTION ( 'NONE',  ( 0.0000000000000000000, 0.0000000000000000000, 1.000000000000000000 ) ) ;
#182 = FACE_OUTER_BOUND ( 'NONE', #286, .T. ) ;
#183 = ORIENTED_EDGE ( 'NONE', *, *, #214, .F. ) ;
#184 = PRODUCT_DEFINITION_SHAPE ( 'NONE', 'NONE',  #36 ) ;
#185 = EDGE_LOOP ( 'NONE', ( #40, #122, #155, #18 ) ) ;
#186 = ADVANCED_FACE ( 'NONE', ( #71 ), #46, .T. ) ;
#187 = DIRECTION ( 'NONE',  ( 1.224646799147353207E-16, 0.0000000000000000000, 1.000000000000000000 ) ) ;
#188 = CARTESIAN_POINT ( 'NONE',  ( 0.1250000000000000555, 1.530808498934192125E-17, 0.5085674773388167980 ) ) ;
#189 = EDGE_CURVE ( 'NONE', #91, #61, #156, .T. ) ;
#190 = LINE ( 'NONE', #254, #168 ) ;
#191 = CIRCLE ( 'NONE', #235, 0.1014484499999999956 ) ;
#192 = DIRECTION ( 'NONE',  ( -1.224646799147353207E-16, -0.0000000000000000000, -1.000000000000000000 ) ) ;
#193 = AXIS2_PLACEMENT_3D ( 'NONE', #144, #230, #30 ) ;
#194 = DIRECTION ( 'NONE',  ( -1.000000000000000000, 0.0000000000000000000, 0.0000000000000000000 ) ) ;
#195 = ADVANCED_FACE ( 'NONE', ( #42 ), #48, .T. ) ;
#196 = CLOSED_SHELL ( 'NONE', ( #104, #68, #186, #55, #195, #3, #167, #8, #223, #209 ) ) ;
#197 = DIRECTION ( 'NONE',  ( 1.224646799147353207E-16, 0.0000000000000000000, 1.000000000000000000 ) ) ;
#198 = DIRECTION ( 'NONE',  ( -1.000000000000000000, 0.0000000000000000000, 1.224646799147353207E-16 ) ) ;
#199 = ADVANCED_BREP_SHAPE_REPRESENTATION ( 'Micro_SEM-203-04X', ( #90, #35 ), #81 ) ;
#200 = CYLINDRICAL_SURFACE ( 'NONE', #106, 0.1014484499999999956 ) ;
#201 = ORIENTED_EDGE ( 'NONE', *, *, #125, .F. ) ;
#202 = LINE ( 'NONE', #100, #247 ) ;
#203 = ORIENTED_EDGE ( 'NONE', *, *, #113, .F. ) ;
#204 = CYLINDRICAL_SURFACE ( 'NONE', #5, 0.1014484499999999956 ) ;
#205 = ORIENTED_EDGE ( 'NONE', *, *, #125, .T. ) ;
#206 = FACE_OUTER_BOUND ( 'NONE', #97, .T. ) ;
#207 = CARTESIAN_POINT ( 'NONE',  ( 0.1099999999999996397, 1.347111479062084158E-17, 2.000000000000000000 ) ) ;
#208 = VERTEX_POINT ( 'NONE', #264 ) ;
#209 = ADVANCED_FACE ( 'NONE', ( #289 ), #136, .F. ) ;
#210 = ORIENTED_EDGE ( 'NONE', *, *, #232, .F. ) ;
#211 = DIRECTION ( 'NONE',  ( 1.000000000000000000, 0.0000000000000000000, -0.0000000000000000000 ) ) ;
#212 = ORIENTED_EDGE ( 'NONE', *, *, #62, .T. ) ;
#213 = ORIENTED_EDGE ( 'NONE', *, *, #74, .F. ) ;
#214 = EDGE_CURVE ( 'NONE', #118, #265, #111, .T. ) ;
#215 = CARTESIAN_POINT ( 'NONE',  ( 0.1014484500000000511, 0.0000000000000000000, 0.3750000000000000555 ) ) ;
#216 = MECHANICAL_DESIGN_GEOMETRIC_PRESENTATION_REPRESENTATION (  '', ( #221 ), #257 ) ;
#217 = FACE_OUTER_BOUND ( 'NONE', #73, .T. ) ;
#218 = UNCERTAINTY_MEASURE_WITH_UNIT (LENGTH_MEASURE( 1.000000000000000082E-05 ), #132, 'distance_accuracy_value', 'NONE');
#219 = CARTESIAN_POINT ( 'NONE',  ( 4.592425496802575451E-17, 0.0000000000000000000, 0.3750000000000000555 ) ) ;
#220 = SURFACE_STYLE_USAGE ( .BOTH. , #166 ) ;
#221 = STYLED_ITEM ( 'NONE', ( #84 ), #90 ) ;
#222 = DIRECTION ( 'NONE',  ( 1.000000000000000000, 0.0000000000000000000, 0.0000000000000000000 ) ) ;
#223 = ADVANCED_FACE ( 'NONE', ( #206 ), #204, .T. ) ;
#224 = ORIENTED_EDGE ( 'NONE', *, *, #178, .T. ) ;
#225 = ORIENTED_EDGE ( 'NONE', *, *, #233, .F. ) ;
#226 = ORIENTED_EDGE ( 'NONE', *, *, #80, .F. ) ;
#227 = PRODUCT_CONTEXT ( 'NONE', #145, 'mechanical' ) ;
#228 = AXIS2_PLACEMENT_3D ( 'NONE', #94, #66, #176 ) ;
#229 = FACE_OUTER_BOUND ( 'NONE', #294, .T. ) ;
#230 = DIRECTION ( 'NONE',  ( -1.224646799147353207E-16, -0.0000000000000000000, -1.000000000000000000 ) ) ;
#231 = DIRECTION ( 'NONE',  ( 0.0000000000000000000, 0.0000000000000000000, 1.000000000000000000 ) ) ;
#232 = EDGE_CURVE ( 'NONE', #157, #65, #251, .T. ) ;
#233 = EDGE_CURVE ( 'NONE', #157, #61, #141, .T. ) ;
#234 = CARTESIAN_POINT ( 'NONE',  ( -0.1099999999999996397, 0.0000000000000000000, 2.000000000000000000 ) ) ;
#235 = AXIS2_PLACEMENT_3D ( 'NONE', #37, #165, #198 ) ;
#236 = CARTESIAN_POINT ( 'NONE',  ( 0.1099999999999996397, 1.438959988998137757E-17, 2.000000000000000000 ) ) ;
#237 = CARTESIAN_POINT ( 'NONE',  ( 0.0000000000000000000, 0.0000000000000000000, 0.0000000000000000000 ) ) ;
#238 = SURFACE_STYLE_FILL_AREA ( #59 ) ;
#239 = ORIENTED_EDGE ( 'NONE', *, *, #131, .T. ) ;
#240 = AXIS2_PLACEMENT_3D ( 'NONE', #11, #13, #270 ) ;
#241 = APPLICATION_PROTOCOL_DEFINITION ( 'draft international standard', 'automotive_design', 1998, #145 ) ;
#242 =( NAMED_UNIT ( * ) SI_UNIT ( $, .STERADIAN. ) SOLID_ANGLE_UNIT ( ) );
#243 = DIRECTION ( 'NONE',  ( 1.000000000000000000, 0.0000000000000000000, 0.0000000000000000000 ) ) ;
#244 = ORIENTED_EDGE ( 'NONE', *, *, #233, .T. ) ;
#245 = DIMENSIONAL_EXPONENTS ( 1.000000000000000000, 0.0000000000000000000, 0.0000000000000000000, 0.0000000000000000000, 0.0000000000000000000, 0.0000000000000000000, 0.0000000000000000000 ) ;
#246 = LINE ( 'NONE', #207, #163 ) ;
#247 = VECTOR ( 'NONE', #41, 39.37007874015748143 ) ;
#248 = STYLED_ITEM ( 'NONE', ( #135 ), #199 ) ;
#249 = CYLINDRICAL_SURFACE ( 'NONE', #298, 0.1250000000000000000 ) ;
#250 = CARTESIAN_POINT ( 'NONE',  ( -0.1250000000000000000, 0.0000000000000000000, 2.000000000000000000 ) ) ;
#251 = CIRCLE ( 'NONE', #261, 0.1250000000000000000 ) ;
#252 = PRESENTATION_LAYER_ASSIGNMENT (  '', '', ( #248 ) ) ;
#253 = DIRECTION ( 'NONE',  ( 1.000000000000000000, 0.0000000000000000000, 0.0000000000000000000 ) ) ;
#254 = CARTESIAN_POINT ( 'NONE',  ( 0.1014484499999999956, 1.242385195709603026E-17, -1.242385195709603026E-17 ) ) ;
#255 = DIRECTION ( 'NONE',  ( -0.0000000000000000000, -0.0000000000000000000, -1.000000000000000000 ) ) ;
#256 =( NAMED_UNIT ( * ) PLANE_ANGLE_UNIT ( ) SI_UNIT ( $, .RADIAN. ) );
#257 =( GEOMETRIC_REPRESENTATION_CONTEXT ( 3 ) GLOBAL_UNCERTAINTY_ASSIGNED_CONTEXT ( ( #218 ) ) GLOBAL_UNIT_ASSIGNED_CONTEXT ( ( #132, #82, #58 ) ) REPRESENTATION_CONTEXT ( 'NONE', 'WORKASPACE' ) );
#258 = APPLICATION_CONTEXT ( 'automotive_design' ) ;
#259 = EDGE_CURVE ( 'NONE', #65, #157, #128, .T. ) ;
#260 = DIRECTION ( 'NONE',  ( 0.0000000000000000000, 0.0000000000000000000, 1.000000000000000000 ) ) ;
#261 = AXIS2_PLACEMENT_3D ( 'NONE', #69, #158, #1 ) ;
#262 = FILL_AREA_STYLE_COLOUR ( '', #151 ) ;
#263 = CIRCLE ( 'NONE', #115, 0.1014484499999999956 ) ;
#264 = CARTESIAN_POINT ( 'NONE',  ( 0.1014484499999999956, 1.242385195709603026E-17, 0.0000000000000000000 ) ) ;
#265 = VERTEX_POINT ( 'NONE', #188 ) ;
#266 = VECTOR ( 'NONE', #60, 39.37007874015748143 ) ;
#267 = SURFACE_STYLE_USAGE ( .BOTH. , #159 ) ;
#268 = DIRECTION ( 'NONE',  ( -1.000000000000000000, 0.0000000000000000000, 0.0000000000000000000 ) ) ;
#269 = ORIENTED_EDGE ( 'NONE', *, *, #271, .F. ) ;
#270 = DIRECTION ( 'NONE',  ( -1.000000000000000000, 0.0000000000000000000, 0.0000000000000000000 ) ) ;
#271 = EDGE_CURVE ( 'NONE', #118, #208, #190, .T. ) ;
#272 = ORIENTED_EDGE ( 'NONE', *, *, #189, .T. ) ;
#273 = EDGE_LOOP ( 'NONE', ( #203, #152, #244, #47 ) ) ;
#274 = ORIENTED_EDGE ( 'NONE', *, *, #62, .F. ) ;
#275 = CONICAL_SURFACE ( 'NONE', #240, 0.1099999999999996397, 0.7853981633974426169 ) ;
#276 = ORIENTED_EDGE ( 'NONE', *, *, #113, .T. ) ;
#277 =( LENGTH_UNIT ( ) NAMED_UNIT ( * ) SI_UNIT ( $, .METRE. ) );
#278 = CIRCLE ( 'NONE', #124, 0.1250000000000000000 ) ;
#279 = CARTESIAN_POINT ( 'NONE',  ( 6.228155332734261484E-17, 0.0000000000000000000, 0.5085674773388167980 ) ) ;
#280 = DIRECTION ( 'NONE',  ( 1.000000000000000000, 0.0000000000000000000, 0.0000000000000000000 ) ) ;
#281 = PRODUCT_DEFINITION_CONTEXT ( 'detailed design', #258, 'design' ) ;
#282 = DIRECTION ( 'NONE',  ( -1.000000000000000000, 0.0000000000000000000, 1.224646799147353207E-16 ) ) ;
#283 = PRODUCT_DEFINITION_FORMATION_WITH_SPECIFIED_SOURCE ( 'ANY', '', #2, .NOT_KNOWN. ) ;
#284 = CARTESIAN_POINT ( 'NONE',  ( -0.1250000000000000000, 0.0000000000000000000, 1.984999999999999432 ) ) ;
#285 = DIRECTION ( 'NONE',  ( -1.224646799147353207E-16, -0.0000000000000000000, -1.000000000000000000 ) ) ;
#286 = EDGE_LOOP ( 'NONE', ( #43, #274, #205, #28 ) ) ;
#287 = CARTESIAN_POINT ( 'NONE',  ( 0.0000000000000000000, 0.0000000000000000000, 2.000000000000000000 ) ) ;
#288 = FILL_AREA_STYLE_COLOUR ( '', #299 ) ;
#289 = FACE_OUTER_BOUND ( 'NONE', #292, .T. ) ;
#290 = DIRECTION ( 'NONE',  ( -1.000000000000000000, 0.0000000000000000000, 1.224646799147353207E-16 ) ) ;
#291 = CARTESIAN_POINT ( 'NONE',  ( 0.0000000000000000000, 0.0000000000000000000, 2.000000000000000000 ) ) ;
#292 = EDGE_LOOP ( 'NONE', ( #23, #67 ) ) ;
#293 = DIRECTION ( 'NONE',  ( 0.7071067811865434649, 8.659560562354883554E-17, -0.7071067811865515695 ) ) ;
#294 = EDGE_LOOP ( 'NONE', ( #212, #224 ) ) ;
#295 = FACE_OUTER_BOUND ( 'NONE', #162, .T. ) ;
#296 = ORIENTED_EDGE ( 'NONE', *, *, #189, .F. ) ;
#297 = LENGTH_MEASURE_WITH_UNIT ( LENGTH_MEASURE( 0.02539999999999999897 ), #277 );
#298 = AXIS2_PLACEMENT_3D ( 'NONE', #291, #126, #194 ) ;
#299 = COLOUR_RGB ( '',0.7921568627450980005, 0.8196078431372548767, 0.9333333333333333481 ) ;
ENDSEC;
END-ISO-10303-21;
