ISO-10303-21;
HEADER;
FILE_DESCRIPTION (( 'STEP AP214' ),
    '1' );
FILE_NAME ('06513.STEP',
    '2023-07-05T16:04:05',
    ( '' ),
    ( '' ),
    'SwSTEP 2.0',
    'SolidWorks 2023',
    '' );
FILE_SCHEMA (( 'AUTOMOTIVE_DESIGN' ));
ENDSEC;

DATA;
#1 = SURFACE_STYLE_FILL_AREA ( #228 ) ;
#2 = MECHANICAL_DESIGN_GEOMETRIC_PRESENTATION_REPRESENTATION (  '', ( #40 ), #163 ) ;
#3 = DIRECTION ( 'NONE',  ( 1.060575238724908024E-16, 0.4999999999999979461, -0.8660254037844397068 ) ) ;
#4 = PRODUCT_DEFINITION_FORMATION_WITH_SPECIFIED_SOURCE ( 'ANY', '', #234, .NOT_KNOWN. ) ;
#5 = DIRECTION ( 'NONE',  ( 0.000000000000000000, 0.000000000000000000, -1.000000000000000000 ) ) ;
#6 = ORIENTED_EDGE ( 'NONE', *, *, #242, .F. ) ;
#7 = DIMENSIONAL_EXPONENTS ( 1.000000000000000000, 0.000000000000000000, 0.000000000000000000, 0.000000000000000000, 0.000000000000000000, 0.000000000000000000, 0.000000000000000000 ) ;
#8 = DIRECTION ( 'NONE',  ( 0.000000000000000000, 0.000000000000000000, 1.000000000000000000 ) ) ;
#9 = LINE ( 'NONE', #257, #190 ) ;
#10 = UNCERTAINTY_MEASURE_WITH_UNIT (LENGTH_MEASURE( 1.000000000000000082E-05 ), #236, 'distance_accuracy_value', 'NONE');
#11 = DIMENSIONAL_EXPONENTS ( 1.000000000000000000, 0.000000000000000000, 0.000000000000000000, 0.000000000000000000, 0.000000000000000000, 0.000000000000000000, 0.000000000000000000 ) ;
#12 =( GEOMETRIC_REPRESENTATION_CONTEXT ( 3 ) GLOBAL_UNCERTAINTY_ASSIGNED_CONTEXT ( ( #175 ) ) GLOBAL_UNIT_ASSIGNED_CONTEXT ( ( #23, #195, #265 ) ) REPRESENTATION_CONTEXT ( 'NONE', 'WORKASPACE' ) );
#13 =( NAMED_UNIT ( * ) PLANE_ANGLE_UNIT ( ) SI_UNIT ( $, .RADIAN. ) );
#14 = EDGE_LOOP ( 'NONE', ( #38, #127 ) ) ;
#15 = DIRECTION ( 'NONE',  ( 1.000000000000000000, 1.451753476719974375E-16, 0.000000000000000000 ) ) ;
#16 = CARTESIAN_POINT ( 'NONE',  ( 0.000000000000000000, 0.000000000000000000, 0.000000000000000000 ) ) ;
#17 = SURFACE_STYLE_USAGE ( .BOTH. , #152 ) ;
#18 = PRESENTATION_STYLE_ASSIGNMENT (( #243 ) ) ;
#19 = CARTESIAN_POINT ( 'NONE',  ( 0.000000000000000000, 0.000000000000000000, 0.000000000000000000 ) ) ;
#20 = CONICAL_SURFACE ( 'NONE', #146, 68.19097667594041923, 1.047197551196600074 ) ;
#21 = ORIENTED_EDGE ( 'NONE', *, *, #37, .F. ) ;
#22 = PRODUCT_DEFINITION_SHAPE ( 'NONE', 'NONE',  #72 ) ;
#23 =( CONVERSION_BASED_UNIT ( 'INCH', #110 ) LENGTH_UNIT ( ) NAMED_UNIT ( #162 ) );
#24 = AXIS2_PLACEMENT_3D ( 'NONE', #82, #205, #189 ) ;
#25 = AXIS2_PLACEMENT_3D ( 'NONE', #241, #147, #64 ) ;
#26 = DIRECTION ( 'NONE',  ( -1.000000000000000000, 0.000000000000000000, 0.000000000000000000 ) ) ;
#27 = DIRECTION ( 'NONE',  ( 0.000000000000000000, 1.000000000000000000, 0.000000000000000000 ) ) ;
#28 =( LENGTH_UNIT ( ) NAMED_UNIT ( * ) SI_UNIT ( $, .METRE. ) );
#29 = CIRCLE ( 'NONE', #42, 0.1874999999999996947 ) ;
#30 = SURFACE_STYLE_FILL_AREA ( #140 ) ;
#31 = UNCERTAINTY_MEASURE_WITH_UNIT (LENGTH_MEASURE( 1.000000000000000082E-05 ), #80, 'distance_accuracy_value', 'NONE');
#32 = CARTESIAN_POINT ( 'NONE',  ( 0.000000000000000000, 39.37007874015748143, 0.000000000000000000 ) ) ;
#33 = DIRECTION ( 'NONE',  ( 0.000000000000000000, 1.000000000000000000, 0.000000000000000000 ) ) ;
#34 = APPLICATION_PROTOCOL_DEFINITION ( 'draft international standard', 'automotive_design', 1998, #61 ) ;
#35 = VERTEX_POINT ( 'NONE', #54 ) ;
#36 = DIRECTION ( 'NONE',  ( -1.000000000000000000, 0.000000000000000000, 0.000000000000000000 ) ) ;
#37 = EDGE_CURVE ( 'NONE', #35, #120, #49, .T. ) ;
#38 = ORIENTED_EDGE ( 'NONE', *, *, #253, .F. ) ;
#39 =( NAMED_UNIT ( * ) SI_UNIT ( $, .STERADIAN. ) SOLID_ANGLE_UNIT ( ) );
#40 = STYLED_ITEM ( 'NONE', ( #166 ), #84 ) ;
#41 = DIRECTION ( 'NONE',  ( 1.000000000000000000, 0.000000000000000000, 0.000000000000000000 ) ) ;
#42 = AXIS2_PLACEMENT_3D ( 'NONE', #43, #261, #132 ) ;
#43 = CARTESIAN_POINT ( 'NONE',  ( 2.859903368367275526E-16, 0.1082531754730542140, 0.000000000000000000 ) ) ;
#44 = ORIENTED_EDGE ( 'NONE', *, *, #154, .T. ) ;
#45 = CARTESIAN_POINT ( 'NONE',  ( -0.1874999999999994449, 0.1082531754730541723, 0.000000000000000000 ) ) ;
#46 = AXIS2_PLACEMENT_3D ( 'NONE', #92, #138, #209 ) ;
#47 = CARTESIAN_POINT ( 'NONE',  ( 0.000000000000000000, 0.1082531754730542695, 0.1875000000000000278 ) ) ;
#48 = CIRCLE ( 'NONE', #135, 0.1875000000000000555 ) ;
#49 = LINE ( 'NONE', #196, #109 ) ;
#50 = PRESENTATION_STYLE_ASSIGNMENT (( #73 ) ) ;
#51 = LENGTH_MEASURE_WITH_UNIT ( LENGTH_MEASURE( 0.02539999999999999897 ), #157 );
#52 = FILL_AREA_STYLE_COLOUR ( '', #206 ) ;
#53 = PRESENTATION_STYLE_ASSIGNMENT (( #143 ) ) ;
#54 = CARTESIAN_POINT ( 'NONE',  ( 0.000000000000000000, 0.000000000000000000, 0.000000000000000000 ) ) ;
#55 = DIRECTION ( 'NONE',  ( 0.000000000000000000, 0.000000000000000000, 1.000000000000000000 ) ) ;
#56 = ORIENTED_EDGE ( 'NONE', *, *, #129, .F. ) ;
#57 = UNCERTAINTY_MEASURE_WITH_UNIT (LENGTH_MEASURE( 1.000000000000000082E-05 ), #212, 'distance_accuracy_value', 'NONE');
#58 =( LENGTH_UNIT ( ) NAMED_UNIT ( * ) SI_UNIT ( $, .METRE. ) );
#59 = CIRCLE ( 'NONE', #25, 0.1875000000000000555 ) ;
#60 = CARTESIAN_POINT ( 'NONE',  ( -6.123233995736766036E-17, 2.500000000000000000, 0.000000000000000000 ) ) ;
#61 = APPLICATION_CONTEXT ( 'automotive_design' ) ;
#62 = ADVANCED_FACE ( 'NONE', ( #100 ), #222, .T. ) ;
#63 = DIRECTION ( 'NONE',  ( -1.000000000000000000, 0.000000000000000000, 0.000000000000000000 ) ) ;
#64 = DIRECTION ( 'NONE',  ( -1.000000000000000000, 0.000000000000000000, 0.000000000000000000 ) ) ;
#65 = AXIS2_PLACEMENT_3D ( 'NONE', #60, #102, #63 ) ;
#66 = SURFACE_SIDE_STYLE ('',( #165 ) ) ;
#67 = MECHANICAL_DESIGN_GEOMETRIC_PRESENTATION_REPRESENTATION (  '', ( #224 ), #197 ) ;
#68 =( CONVERSION_BASED_UNIT ( 'INCH', #168 ) LENGTH_UNIT ( ) NAMED_UNIT ( #160 ) );
#69 = COLOUR_RGB ( '',1.000000000000000000, 0.000000000000000000, 0.000000000000000000 ) ;
#70 = AXIS2_PLACEMENT_3D ( 'NONE', #19, #215, #41 ) ;
#71 = EDGE_LOOP ( 'NONE', ( #118, #203 ) ) ;
#72 = PRODUCT_DEFINITION ( 'UNKNOWN', '', #4, #231 ) ;
#73 = SURFACE_STYLE_USAGE ( .BOTH. , #94 ) ;
#74 = ORIENTED_EDGE ( 'NONE', *, *, #210, .F. ) ;
#75 = AXIS2_PLACEMENT_3D ( 'NONE', #32, #27, #8 ) ;
#76 = ORIENTED_EDGE ( 'NONE', *, *, #136, .T. ) ;
#77 = EDGE_LOOP ( 'NONE', ( #258, #211, #176 ) ) ;
#78 = ADVANCED_BREP_SHAPE_REPRESENTATION ( '06513', ( #187, #106, #70 ), #202 ) ;
#79 = FACE_OUTER_BOUND ( 'NONE', #161, .T. ) ;
#80 =( CONVERSION_BASED_UNIT ( 'INCH', #218 ) LENGTH_UNIT ( ) NAMED_UNIT ( #214 ) );
#81 = DIRECTION ( 'NONE',  ( -1.451753476719974375E-16, 1.000000000000000000, -0.000000000000000000 ) ) ;
#82 = CARTESIAN_POINT ( 'NONE',  ( 2.859903368367275526E-16, 0.1082531754730542140, 0.000000000000000000 ) ) ;
#83 = FILL_AREA_STYLE ('',( #112 ) ) ;
#84 = ADVANCED_FACE ( 'NONE', ( #255 ), #114, .T. ) ;
#85 = AXIS2_PLACEMENT_3D ( 'NONE', #204, #128, #15 ) ;
#86 = LINE ( 'NONE', #16, #193 ) ;
#87 = ADVANCED_FACE ( 'NONE', ( #169 ), #248, .F. ) ;
#88 =( LENGTH_UNIT ( ) NAMED_UNIT ( * ) SI_UNIT ( $, .METRE. ) );
#89 = STYLED_ITEM ( 'NONE', ( #53 ), #106 ) ;
#90 = MECHANICAL_DESIGN_GEOMETRIC_PRESENTATION_REPRESENTATION (  '', ( #256 ), #12 ) ;
#91 =( NAMED_UNIT ( * ) SI_UNIT ( $, .STERADIAN. ) SOLID_ANGLE_UNIT ( ) );
#92 = CARTESIAN_POINT ( 'NONE',  ( 2.859903368367275526E-16, 0.1082531754730542278, 0.000000000000000000 ) ) ;
#93 = ADVANCED_FACE ( 'NONE', ( #170 ), #20, .T. ) ;
#94 = SURFACE_SIDE_STYLE ('',( #1 ) ) ;
#95 = CARTESIAN_POINT ( 'NONE',  ( -6.123233995736764803E-17, 2.500000000000000000, 0.000000000000000000 ) ) ;
#96 = AXIS2_PLACEMENT_3D ( 'NONE', #186, #148, #220 ) ;
#97 = FILL_AREA_STYLE_COLOUR ( '', #244 ) ;
#98 = CARTESIAN_POINT ( 'NONE',  ( 0.1874999999999999722, 2.500000000000000000, 2.296212748401286801E-17 ) ) ;
#99 = VERTEX_POINT ( 'NONE', #185 ) ;
#100 = FACE_OUTER_BOUND ( 'NONE', #77, .T. ) ;
#101 =( NAMED_UNIT ( * ) PLANE_ANGLE_UNIT ( ) SI_UNIT ( $, .RADIAN. ) );
#102 = DIRECTION ( 'NONE',  ( -1.451753476719974375E-16, 1.000000000000000000, -0.000000000000000000 ) ) ;
#103 = DIRECTION ( 'NONE',  ( -0.000000000000000000, -1.000000000000000000, -0.000000000000000000 ) ) ;
#104 = COLOUR_RGB ( '',1.000000000000000000, 0.000000000000000000, 0.000000000000000000 ) ;
#105 = DIMENSIONAL_EXPONENTS ( 1.000000000000000000, 0.000000000000000000, 0.000000000000000000, 0.000000000000000000, 0.000000000000000000, 0.000000000000000000, 0.000000000000000000 ) ;
#106 = MANIFOLD_SOLID_BREP ( 'Revolve - Tool Body (Pointed)', #133 ) ;
#107 = LINE ( 'NONE', #259, #260 ) ;
#108 = APPLICATION_CONTEXT ( 'automotive_design' ) ;
#109 = VECTOR ( 'NONE', #3, 39.37007874015748854 ) ;
#110 = LENGTH_MEASURE_WITH_UNIT ( LENGTH_MEASURE( 0.02539999999999999897 ), #223 );
#111 = CIRCLE ( 'NONE', #96, 0.1875000000000000278 ) ;
#112 = FILL_AREA_STYLE_COLOUR ( '', #69 ) ;
#113 = ADVANCED_FACE ( 'NONE', ( #177 ), #184, .F. ) ;
#114 = PLANE ( 'NONE',  #250 ) ;
#115 = COLOUR_RGB ( '',0.7921568627450980005, 0.8196078431372548767, 0.9333333333333333481 ) ;
#116 = LENGTH_MEASURE_WITH_UNIT ( LENGTH_MEASURE( 0.02539999999999999897 ), #28 );
#117 = DIRECTION ( 'NONE',  ( 0.000000000000000000, -0.000000000000000000, 1.000000000000000000 ) ) ;
#118 = ORIENTED_EDGE ( 'NONE', *, *, #242, .T. ) ;
#119 =( GEOMETRIC_REPRESENTATION_CONTEXT ( 3 ) GLOBAL_UNCERTAINTY_ASSIGNED_CONTEXT ( ( #31 ) ) GLOBAL_UNIT_ASSIGNED_CONTEXT ( ( #80, #101, #39 ) ) REPRESENTATION_CONTEXT ( 'NONE', 'WORKASPACE' ) );
#120 = VERTEX_POINT ( 'NONE', #123 ) ;
#121 =( NAMED_UNIT ( * ) SI_UNIT ( $, .STERADIAN. ) SOLID_ANGLE_UNIT ( ) );
#122 = ORIENTED_EDGE ( 'NONE', *, *, #154, .F. ) ;
#123 = CARTESIAN_POINT ( 'NONE',  ( 2.296212748401287726E-17, 0.1082531754730542695, -0.1875000000000000278 ) ) ;
#124 = UNCERTAINTY_MEASURE_WITH_UNIT (LENGTH_MEASURE( 1.000000000000000082E-05 ), #68, 'distance_accuracy_value', 'NONE');
#125 = SURFACE_STYLE_FILL_AREA ( #179 ) ;
#126 =( LENGTH_UNIT ( ) NAMED_UNIT ( * ) SI_UNIT ( $, .METRE. ) );
#127 = ORIENTED_EDGE ( 'NONE', *, *, #200, .F. ) ;
#128 = DIRECTION ( 'NONE',  ( 1.451753476719974375E-16, -1.000000000000000000, 0.000000000000000000 ) ) ;
#129 = EDGE_CURVE ( 'NONE', #142, #159, #107, .T. ) ;
#130 = FACE_OUTER_BOUND ( 'NONE', #254, .T. ) ;
#131 = SURFACE_STYLE_FILL_AREA ( #83 ) ;
#132 = DIRECTION ( 'NONE',  ( -1.000000000000000000, -1.821231995776178437E-16, 0.000000000000000000 ) ) ;
#133 = CLOSED_SHELL ( 'NONE', ( #227, #87, #264, #113 ) ) ;
#134 = AXIS2_PLACEMENT_3D ( 'NONE', #230, #103, #5 ) ;
#135 = AXIS2_PLACEMENT_3D ( 'NONE', #95, #173, #26 ) ;
#136 = EDGE_CURVE ( 'NONE', #142, #99, #153, .T. ) ;
#137 = PRESENTATION_LAYER_ASSIGNMENT (  '', '', ( #224 ) ) ;
#138 = DIRECTION ( 'NONE',  ( -1.451753476719974375E-16, 1.000000000000000000, 0.000000000000000000 ) ) ;
#139 = ORIENTED_EDGE ( 'NONE', *, *, #192, .F. ) ;
#140 = FILL_AREA_STYLE ('',( #52 ) ) ;
#141 = PRESENTATION_LAYER_ASSIGNMENT (  '', '', ( #245 ) ) ;
#142 = VERTEX_POINT ( 'NONE', #45 ) ;
#143 = SURFACE_STYLE_USAGE ( .BOTH. , #232 ) ;
#144 = DIRECTION ( 'NONE',  ( -1.451753476719974375E-16, 1.000000000000000000, -0.000000000000000000 ) ) ;
#145 = ORIENTED_EDGE ( 'NONE', *, *, #129, .T. ) ;
#146 = AXIS2_PLACEMENT_3D ( 'NONE', #172, #33, #55 ) ;
#147 = DIRECTION ( 'NONE',  ( -1.451753476719974375E-16, 1.000000000000000000, -0.000000000000000000 ) ) ;
#148 = DIRECTION ( 'NONE',  ( -0.000000000000000000, -1.000000000000000000, -0.000000000000000000 ) ) ;
#149 = CARTESIAN_POINT ( 'NONE',  ( -6.123233995736766036E-17, 2.500000000000000000, 0.000000000000000000 ) ) ;
#150 = PRESENTATION_LAYER_ASSIGNMENT (  '', '', ( #256 ) ) ;
#151 = PRODUCT_RELATED_PRODUCT_CATEGORY ( 'part', '', ( #234 ) ) ;
#152 = SURFACE_SIDE_STYLE ('',( #131 ) ) ;
#153 = CIRCLE ( 'NONE', #24, 0.1874999999999996947 ) ;
#154 = EDGE_CURVE ( 'NONE', #99, #142, #29, .T. ) ;
#155 = DIRECTION ( 'NONE',  ( -1.451753476719974375E-16, 1.000000000000000000, -0.000000000000000000 ) ) ;
#156 = ORIENTED_EDGE ( 'NONE', *, *, #136, .F. ) ;
#157 =( LENGTH_UNIT ( ) NAMED_UNIT ( * ) SI_UNIT ( $, .METRE. ) );
#158 =( CONVERSION_BASED_UNIT ( 'INCH', #51 ) LENGTH_UNIT ( ) NAMED_UNIT ( #105 ) );
#159 = VERTEX_POINT ( 'NONE', #207 ) ;
#160 = DIMENSIONAL_EXPONENTS ( 1.000000000000000000, 0.000000000000000000, 0.000000000000000000, 0.000000000000000000, 0.000000000000000000, 0.000000000000000000, 0.000000000000000000 ) ;
#161 = EDGE_LOOP ( 'NONE', ( #76, #216, #6, #56 ) ) ;
#162 = DIMENSIONAL_EXPONENTS ( 1.000000000000000000, 0.000000000000000000, 0.000000000000000000, 0.000000000000000000, 0.000000000000000000, 0.000000000000000000, 0.000000000000000000 ) ;
#163 =( GEOMETRIC_REPRESENTATION_CONTEXT ( 3 ) GLOBAL_UNCERTAINTY_ASSIGNED_CONTEXT ( ( #57 ) ) GLOBAL_UNIT_ASSIGNED_CONTEXT ( ( #212, #194, #91 ) ) REPRESENTATION_CONTEXT ( 'NONE', 'WORKASPACE' ) );
#164 = DIRECTION ( 'NONE',  ( 0.000000000000000000, 0.4999999999999979461, 0.8660254037844397068 ) ) ;
#165 = SURFACE_STYLE_FILL_AREA ( #167 ) ;
#166 = PRESENTATION_STYLE_ASSIGNMENT (( #17 ) ) ;
#167 = FILL_AREA_STYLE ('',( #221 ) ) ;
#168 = LENGTH_MEASURE_WITH_UNIT ( LENGTH_MEASURE( 0.02539999999999999897 ), #88 );
#169 = FACE_OUTER_BOUND ( 'NONE', #247, .T. ) ;
#170 = FACE_OUTER_BOUND ( 'NONE', #229, .T. ) ;
#171 = PRESENTATION_LAYER_ASSIGNMENT (  '', '', ( #89 ) ) ;
#172 = CARTESIAN_POINT ( 'NONE',  ( 0.000000000000000000, 39.37007874015748143, 0.000000000000000000 ) ) ;
#173 = DIRECTION ( 'NONE',  ( -1.451753476719974375E-16, 1.000000000000000000, -0.000000000000000000 ) ) ;
#174 = SURFACE_SIDE_STYLE ('',( #125 ) ) ;
#175 = UNCERTAINTY_MEASURE_WITH_UNIT (LENGTH_MEASURE( 1.000000000000000082E-05 ), #23, 'distance_accuracy_value', 'NONE');
#176 = ORIENTED_EDGE ( 'NONE', *, *, #200, .T. ) ;
#177 = FACE_OUTER_BOUND ( 'NONE', #71, .T. ) ;
#178 = LENGTH_MEASURE_WITH_UNIT ( LENGTH_MEASURE( 0.02539999999999999897 ), #126 );
#179 = FILL_AREA_STYLE ('',( #97 ) ) ;
#180 = CYLINDRICAL_SURFACE ( 'NONE', #225, 0.1874999999999998890 ) ;
#181 = EDGE_CURVE ( 'NONE', #35, #217, #86, .T. ) ;
#182 =( NAMED_UNIT ( * ) SI_UNIT ( $, .STERADIAN. ) SOLID_ANGLE_UNIT ( ) );
#183 = ORIENTED_EDGE ( 'NONE', *, *, #181, .T. ) ;
#184 = PLANE ( 'NONE',  #85 ) ;
#185 = CARTESIAN_POINT ( 'NONE',  ( 0.1874999999999999722, 0.1082531754730542417, 2.296212748401286801E-17 ) ) ;
#186 = CARTESIAN_POINT ( 'NONE',  ( 0.000000000000000000, 0.1082531754730542695, 0.000000000000000000 ) ) ;
#187 = MANIFOLD_SOLID_BREP ( 'Revolve - Cutting Edge', #238 ) ;
#188 = MECHANICAL_DESIGN_GEOMETRIC_PRESENTATION_REPRESENTATION (  '', ( #245 ), #233 ) ;
#189 = DIRECTION ( 'NONE',  ( -1.000000000000000000, -1.821231995776178437E-16, 0.000000000000000000 ) ) ;
#190 = VECTOR ( 'NONE', #155, 39.37007874015748143 ) ;
#191 = SHAPE_DEFINITION_REPRESENTATION ( #22, #78 ) ;
#192 = EDGE_CURVE ( 'NONE', #198, #159, #48, .T. ) ;
#193 = VECTOR ( 'NONE', #164, 39.37007874015748854 ) ;
#194 =( NAMED_UNIT ( * ) PLANE_ANGLE_UNIT ( ) SI_UNIT ( $, .RADIAN. ) );
#195 =( NAMED_UNIT ( * ) PLANE_ANGLE_UNIT ( ) SI_UNIT ( $, .RADIAN. ) );
#196 = CARTESIAN_POINT ( 'NONE',  ( 0.000000000000000000, 0.000000000000000000, 0.000000000000000000 ) ) ;
#197 =( GEOMETRIC_REPRESENTATION_CONTEXT ( 3 ) GLOBAL_UNCERTAINTY_ASSIGNED_CONTEXT ( ( #10 ) ) GLOBAL_UNIT_ASSIGNED_CONTEXT ( ( #236, #13, #121 ) ) REPRESENTATION_CONTEXT ( 'NONE', 'WORKASPACE' ) );
#198 = VERTEX_POINT ( 'NONE', #98 ) ;
#199 = SURFACE_STYLE_USAGE ( .BOTH. , #174 ) ;
#200 = EDGE_CURVE ( 'NONE', #120, #217, #251, .T. ) ;
#201 = APPLICATION_PROTOCOL_DEFINITION ( 'draft international standard', 'automotive_design', 1998, #108 ) ;
#202 =( GEOMETRIC_REPRESENTATION_CONTEXT ( 3 ) GLOBAL_UNCERTAINTY_ASSIGNED_CONTEXT ( ( #124 ) ) GLOBAL_UNIT_ASSIGNED_CONTEXT ( ( #68, #246, #208 ) ) REPRESENTATION_CONTEXT ( 'NONE', 'WORKASPACE' ) );
#203 = ORIENTED_EDGE ( 'NONE', *, *, #192, .T. ) ;
#204 = CARTESIAN_POINT ( 'NONE',  ( 0.1874999999999999722, 2.500000000000000000, 0.000000000000000000 ) ) ;
#205 = DIRECTION ( 'NONE',  ( -1.451753476719974375E-16, 1.000000000000000000, -0.000000000000000000 ) ) ;
#206 = COLOUR_RGB ( '',0.7921568627450980005, 0.8196078431372548767, 0.9333333333333333481 ) ;
#207 = CARTESIAN_POINT ( 'NONE',  ( -0.1875000000000001110, 2.500000000000000000, 0.000000000000000000 ) ) ;
#208 =( NAMED_UNIT ( * ) SI_UNIT ( $, .STERADIAN. ) SOLID_ANGLE_UNIT ( ) );
#209 = DIRECTION ( 'NONE',  ( -1.000000000000000000, -1.451753476719974375E-16, 0.000000000000000000 ) ) ;
#210 = EDGE_CURVE ( 'NONE', #99, #198, #9, .T. ) ;
#211 = ORIENTED_EDGE ( 'NONE', *, *, #37, .T. ) ;
#212 =( CONVERSION_BASED_UNIT ( 'INCH', #116 ) LENGTH_UNIT ( ) NAMED_UNIT ( #7 ) );
#213 =( NAMED_UNIT ( * ) PLANE_ANGLE_UNIT ( ) SI_UNIT ( $, .RADIAN. ) );
#214 = DIMENSIONAL_EXPONENTS ( 1.000000000000000000, 0.000000000000000000, 0.000000000000000000, 0.000000000000000000, 0.000000000000000000, 0.000000000000000000, 0.000000000000000000 ) ;
#215 = DIRECTION ( 'NONE',  ( 0.000000000000000000, 0.000000000000000000, 1.000000000000000000 ) ) ;
#216 = ORIENTED_EDGE ( 'NONE', *, *, #210, .T. ) ;
#217 = VERTEX_POINT ( 'NONE', #47 ) ;
#218 = LENGTH_MEASURE_WITH_UNIT ( LENGTH_MEASURE( 0.02539999999999999897 ), #58 );
#219 = PRESENTATION_LAYER_ASSIGNMENT (  '', '', ( #40 ) ) ;
#220 = DIRECTION ( 'NONE',  ( 0.000000000000000000, 0.000000000000000000, -1.000000000000000000 ) ) ;
#221 = FILL_AREA_STYLE_COLOUR ( '', #115 ) ;
#222 = CONICAL_SURFACE ( 'NONE', #75, 68.19097667594041923, 1.047197551196600074 ) ;
#223 =( LENGTH_UNIT ( ) NAMED_UNIT ( * ) SI_UNIT ( $, .METRE. ) );
#224 = STYLED_ITEM ( 'NONE', ( #50 ), #93 ) ;
#225 = AXIS2_PLACEMENT_3D ( 'NONE', #149, #144, #36 ) ;
#226 = CARTESIAN_POINT ( 'NONE',  ( 0.000000000000000000, 0.1082531754730542556, 0.000000000000000000 ) ) ;
#227 = ADVANCED_FACE ( 'NONE', ( #79 ), #240, .T. ) ;
#228 = FILL_AREA_STYLE ('',( #249 ) ) ;
#229 = EDGE_LOOP ( 'NONE', ( #21, #183, #235 ) ) ;
#230 = CARTESIAN_POINT ( 'NONE',  ( 0.000000000000000000, 0.1082531754730542695, 0.000000000000000000 ) ) ;
#231 = PRODUCT_DEFINITION_CONTEXT ( 'detailed design', #108, 'design' ) ;
#232 = SURFACE_SIDE_STYLE ('',( #30 ) ) ;
#233 =( GEOMETRIC_REPRESENTATION_CONTEXT ( 3 ) GLOBAL_UNCERTAINTY_ASSIGNED_CONTEXT ( ( #237 ) ) GLOBAL_UNIT_ASSIGNED_CONTEXT ( ( #158, #213, #182 ) ) REPRESENTATION_CONTEXT ( 'NONE', 'WORKASPACE' ) );
#234 = PRODUCT ( '06513', '06513', '', ( #262 ) ) ;
#235 = ORIENTED_EDGE ( 'NONE', *, *, #253, .T. ) ;
#236 =( CONVERSION_BASED_UNIT ( 'INCH', #178 ) LENGTH_UNIT ( ) NAMED_UNIT ( #11 ) );
#237 = UNCERTAINTY_MEASURE_WITH_UNIT (LENGTH_MEASURE( 1.000000000000000082E-05 ), #158, 'distance_accuracy_value', 'NONE');
#238 = CLOSED_SHELL ( 'NONE', ( #62, #84, #93 ) ) ;
#239 = MECHANICAL_DESIGN_GEOMETRIC_PRESENTATION_REPRESENTATION (  '', ( #89 ), #119 ) ;
#240 = CYLINDRICAL_SURFACE ( 'NONE', #65, 0.1874999999999998890 ) ;
#241 = CARTESIAN_POINT ( 'NONE',  ( -6.123233995736764803E-17, 2.500000000000000000, 0.000000000000000000 ) ) ;
#242 = EDGE_CURVE ( 'NONE', #159, #198, #59, .T. ) ;
#243 = SURFACE_STYLE_USAGE ( .BOTH. , #66 ) ;
#244 = COLOUR_RGB ( '',1.000000000000000000, 0.000000000000000000, 0.000000000000000000 ) ;
#245 = STYLED_ITEM ( 'NONE', ( #252 ), #62 ) ;
#246 =( NAMED_UNIT ( * ) PLANE_ANGLE_UNIT ( ) SI_UNIT ( $, .RADIAN. ) );
#247 = EDGE_LOOP ( 'NONE', ( #156, #122 ) ) ;
#248 = PLANE ( 'NONE',  #46 ) ;
#249 = FILL_AREA_STYLE_COLOUR ( '', #104 ) ;
#250 = AXIS2_PLACEMENT_3D ( 'NONE', #226, #263, #117 ) ;
#251 = CIRCLE ( 'NONE', #134, 0.1875000000000000278 ) ;
#252 = PRESENTATION_STYLE_ASSIGNMENT (( #199 ) ) ;
#253 = EDGE_CURVE ( 'NONE', #217, #120, #111, .T. ) ;
#254 = EDGE_LOOP ( 'NONE', ( #74, #44, #145, #139 ) ) ;
#255 = FACE_OUTER_BOUND ( 'NONE', #14, .T. ) ;
#256 = STYLED_ITEM ( 'NONE', ( #18 ), #187 ) ;
#257 = CARTESIAN_POINT ( 'NONE',  ( 0.1874999999999998057, 2.500000000000000000, 2.296212748401285877E-17 ) ) ;
#258 = ORIENTED_EDGE ( 'NONE', *, *, #181, .F. ) ;
#259 = CARTESIAN_POINT ( 'NONE',  ( -0.1874999999999999445, 2.500000000000000000, 0.000000000000000000 ) ) ;
#260 = VECTOR ( 'NONE', #81, 39.37007874015748143 ) ;
#261 = DIRECTION ( 'NONE',  ( -1.451753476719974375E-16, 1.000000000000000000, -0.000000000000000000 ) ) ;
#262 = PRODUCT_CONTEXT ( 'NONE', #61, 'mechanical' ) ;
#263 = DIRECTION ( 'NONE',  ( 0.000000000000000000, 1.000000000000000000, 0.000000000000000000 ) ) ;
#264 = ADVANCED_FACE ( 'NONE', ( #130 ), #180, .T. ) ;
#265 =( NAMED_UNIT ( * ) SI_UNIT ( $, .STERADIAN. ) SOLID_ANGLE_UNIT ( ) );
ENDSEC;
END-ISO-10303-21;
