ISO-10303-21;
HEADER;
FILE_DESCRIPTION (( 'STEP AP214' ),
    '1' );
FILE_NAME ('Micro_AELM-040-2X.STEP',
    '2021-09-01T17:04:22',
    ( '' ),
    ( '' ),
    'SwSTEP 2.0',
    'SolidWorks 2020',
    '' );
FILE_SCHEMA (( 'AUTOMOTIVE_DESIGN' ));
ENDSEC;

DATA;
#1 = VERTEX_POINT ( 'NONE', #6 ) ;
#2 = EDGE_LOOP ( 'NONE', ( #217, #129, #58, #80 ) ) ;
#3 = AXIS2_PLACEMENT_3D ( 'NONE', #197, #224, #39 ) ;
#4 = ORIENTED_EDGE ( 'NONE', *, *, #172, .T. ) ;
#5 = ORIENTED_EDGE ( 'NONE', *, *, #221, .T. ) ;
#6 = CARTESIAN_POINT ( 'NONE',  ( -0.1031099999999991607, 0.0000000000000000000, 2.952755999999999936 ) ) ;
#7 = ADVANCED_FACE ( 'NONE', ( #250 ), #226, .T. ) ;
#8 = CARTESIAN_POINT ( 'NONE',  ( 1.179729942015078748E-33, 0.0000000000000000000, 9.633226027589770864E-18 ) ) ;
#9 = AXIS2_PLACEMENT_3D ( 'NONE', #233, #276, #179 ) ;
#10 = DIMENSIONAL_EXPONENTS ( 1.000000000000000000, 0.0000000000000000000, 0.0000000000000000000, 0.0000000000000000000, 0.0000000000000000000, 0.0000000000000000000, 0.0000000000000000000 ) ;
#11 = DIRECTION ( 'NONE',  ( -1.000000000000000000, 0.0000000000000000000, 0.0000000000000000000 ) ) ;
#12 =( CONVERSION_BASED_UNIT ( 'INCH', #269 ) LENGTH_UNIT ( ) NAMED_UNIT ( #38 ) );
#13 = EDGE_CURVE ( 'NONE', #166, #1, #68, .T. ) ;
#14 = CARTESIAN_POINT ( 'NONE',  ( 0.0000000000000000000, 0.0000000000000000000, 2.952755999999999936 ) ) ;
#15 = CARTESIAN_POINT ( 'NONE',  ( 0.1181100000000000066, 1.446430334472939084E-17, 2.937755999999999368 ) ) ;
#16 = CARTESIAN_POINT ( 'NONE',  ( 0.0000000000000000000, 0.0000000000000000000, 2.952755999999999936 ) ) ;
#17 = MECHANICAL_DESIGN_GEOMETRIC_PRESENTATION_REPRESENTATION (  '', ( #25 ), #45 ) ;
#18 = CIRCLE ( 'NONE', #203, 0.07866125999999996898 ) ;
#19 = FACE_OUTER_BOUND ( 'NONE', #78, .T. ) ;
#20 = DIRECTION ( 'NONE',  ( 0.0000000000000000000, 0.0000000000000000000, 1.000000000000000000 ) ) ;
#21 = FACE_OUTER_BOUND ( 'NONE', #239, .T. ) ;
#22 = DIRECTION ( 'NONE',  ( 1.000000000000000000, 0.0000000000000000000, 0.0000000000000000000 ) ) ;
#23 = DIRECTION ( 'NONE',  ( 1.000000000000000000, 0.0000000000000000000, 0.0000000000000000000 ) ) ;
#24 = ADVANCED_FACE ( 'NONE', ( #156 ), #230, .T. ) ;
#25 = STYLED_ITEM ( 'NONE', ( #89 ), #72 ) ;
#26 = EDGE_LOOP ( 'NONE', ( #244, #5, #283, #194 ) ) ;
#27 = VERTEX_POINT ( 'NONE', #204 ) ;
#28 = ORIENTED_EDGE ( 'NONE', *, *, #124, .F. ) ;
#29 = CIRCLE ( 'NONE', #35, 0.1181100000000000066 ) ;
#30 = ORIENTED_EDGE ( 'NONE', *, *, #105, .F. ) ;
#31 = EDGE_LOOP ( 'NONE', ( #97, #165, #4, #56 ) ) ;
#32 =( LENGTH_UNIT ( ) NAMED_UNIT ( * ) SI_UNIT ( $, .METRE. ) );
#33 = CYLINDRICAL_SURFACE ( 'NONE', #144, 0.1181100000000000066 ) ;
#34 = AXIS2_PLACEMENT_3D ( 'NONE', #41, #291, #228 ) ;
#35 = AXIS2_PLACEMENT_3D ( 'NONE', #138, #114, #274 ) ;
#36 = VECTOR ( 'NONE', #106, 39.37007874015748143 ) ;
#37 = FILL_AREA_STYLE ('',( #202 ) ) ;
#38 = DIMENSIONAL_EXPONENTS ( 1.000000000000000000, 0.0000000000000000000, 0.0000000000000000000, 0.0000000000000000000, 0.0000000000000000000, 0.0000000000000000000, 0.0000000000000000000 ) ;
#39 = DIRECTION ( 'NONE',  ( 1.000000000000000000, 0.0000000000000000000, 0.0000000000000000000 ) ) ;
#40 = DIRECTION ( 'NONE',  ( 1.000000000000000000, 0.0000000000000000000, 0.0000000000000000000 ) ) ;
#41 = CARTESIAN_POINT ( 'NONE',  ( 0.0000000000000000000, 0.0000000000000000000, 2.952755999999999936 ) ) ;
#42 =( NAMED_UNIT ( * ) SI_UNIT ( $, .STERADIAN. ) SOLID_ANGLE_UNIT ( ) );
#43 = FILL_AREA_STYLE_COLOUR ( '', #158 ) ;
#44 = DIRECTION ( 'NONE',  ( -1.000000000000000000, 0.0000000000000000000, 1.224646799147353207E-16 ) ) ;
#45 =( GEOMETRIC_REPRESENTATION_CONTEXT ( 3 ) GLOBAL_UNCERTAINTY_ASSIGNED_CONTEXT ( ( #298 ) ) GLOBAL_UNIT_ASSIGNED_CONTEXT ( ( #12, #229, #42 ) ) REPRESENTATION_CONTEXT ( 'NONE', 'WORKASPACE' ) );
#46 = DIRECTION ( 'NONE',  ( 0.7071067811865486830, 8.659560562354947649E-17, -0.7071067811865462405 ) ) ;
#47 = FACE_OUTER_BOUND ( 'NONE', #79, .T. ) ;
#48 = LINE ( 'NONE', #92, #126 ) ;
#49 =( LENGTH_UNIT ( ) NAMED_UNIT ( * ) SI_UNIT ( $, .METRE. ) );
#50 = MECHANICAL_DESIGN_GEOMETRIC_PRESENTATION_REPRESENTATION (  '', ( #247 ), #278 ) ;
#51 = ADVANCED_FACE ( 'NONE', ( #155 ), #267, .T. ) ;
#52 = PRODUCT_DEFINITION_CONTEXT ( 'detailed design', #132, 'design' ) ;
#53 = ADVANCED_FACE ( 'NONE', ( #271 ), #236, .T. ) ;
#54 = ORIENTED_EDGE ( 'NONE', *, *, #124, .T. ) ;
#55 = VERTEX_POINT ( 'NONE', #66 ) ;
#56 = ORIENTED_EDGE ( 'NONE', *, *, #219, .F. ) ;
#57 = EDGE_CURVE ( 'NONE', #98, #148, #252, .T. ) ;
#58 = ORIENTED_EDGE ( 'NONE', *, *, #186, .F. ) ;
#59 = AXIS2_PLACEMENT_3D ( 'NONE', #67, #255, #215 ) ;
#60 = LENGTH_MEASURE_WITH_UNIT ( LENGTH_MEASURE( 0.02539999999999999897 ), #32 );
#61 = DIRECTION ( 'NONE',  ( -0.0000000000000000000, -0.0000000000000000000, -1.000000000000000000 ) ) ;
#62 = DIRECTION ( 'NONE',  ( -0.7071067811865486830, 0.0000000000000000000, -0.7071067811865462405 ) ) ;
#63 = LINE ( 'NONE', #264, #77 ) ;
#64 = DIRECTION ( 'NONE',  ( 0.0000000000000000000, 0.0000000000000000000, 1.000000000000000000 ) ) ;
#65 = CARTESIAN_POINT ( 'NONE',  ( 0.1181100000000000066, 1.446430334472939084E-17, 2.952755999999999936 ) ) ;
#66 = CARTESIAN_POINT ( 'NONE',  ( -0.07866125999999999674, 0.0000000000000000000, 1.926645205517954173E-17 ) ) ;
#67 = CARTESIAN_POINT ( 'NONE',  ( 0.0000000000000000000, 0.0000000000000000000, 0.0000000000000000000 ) ) ;
#68 = CIRCLE ( 'NONE', #284, 0.1031099999999991607 ) ;
#69 = PLANE ( 'NONE',  #59 ) ;
#70 = CARTESIAN_POINT ( 'NONE',  ( -0.07866125999999987184, 1.204876468615957931E-17, 0.7874019999999999353 ) ) ;
#71 = EDGE_CURVE ( 'NONE', #27, #55, #74, .T. ) ;
#72 = MANIFOLD_SOLID_BREP ( 'Cut-Revolve1', #119 ) ;
#73 = DIRECTION ( 'NONE',  ( 1.000000000000000000, 0.0000000000000000000, 0.0000000000000000000 ) ) ;
#74 = CIRCLE ( 'NONE', #241, 0.07866125999999999674 ) ;
#75 = UNCERTAINTY_MEASURE_WITH_UNIT (LENGTH_MEASURE( 1.000000000000000082E-05 ), #109, 'distance_accuracy_value', 'NONE');
#76 = AXIS2_PLACEMENT_3D ( 'NONE', #135, #137, #44 ) ;
#77 = VECTOR ( 'NONE', #249, 39.37007874015748143 ) ;
#78 = EDGE_LOOP ( 'NONE', ( #220, #168, #146, #167 ) ) ;
#79 = EDGE_LOOP ( 'NONE', ( #192, #150, #123, #100 ) ) ;
#80 = ORIENTED_EDGE ( 'NONE', *, *, #120, .F. ) ;
#81 = ADVANCED_FACE ( 'NONE', ( #173 ), #142, .T. ) ;
#82 = ORIENTED_EDGE ( 'NONE', *, *, #279, .T. ) ;
#83 = SHAPE_DEFINITION_REPRESENTATION ( #238, #103 ) ;
#84 = AXIS2_PLACEMENT_3D ( 'NONE', #113, #184, #163 ) ;
#85 =( NAMED_UNIT ( * ) PLANE_ANGLE_UNIT ( ) SI_UNIT ( $, .RADIAN. ) );
#86 = DIRECTION ( 'NONE',  ( -1.224646799147353207E-16, -0.0000000000000000000, -1.000000000000000000 ) ) ;
#87 = LINE ( 'NONE', #265, #266 ) ;
#88 = DIRECTION ( 'NONE',  ( 0.1736481776669313859, 0.0000000000000000000, 0.9848077530122077983 ) ) ;
#89 = PRESENTATION_STYLE_ASSIGNMENT (( #171 ) ) ;
#90 = DIRECTION ( 'NONE',  ( 0.0000000000000000000, 0.0000000000000000000, -1.000000000000000000 ) ) ;
#91 = VECTOR ( 'NONE', #61, 39.37007874015748143 ) ;
#92 = CARTESIAN_POINT ( 'NONE',  ( 0.1031099999999991607, 1.262733314600825571E-17, 2.952755999999999936 ) ) ;
#93 = AXIS2_PLACEMENT_3D ( 'NONE', #187, #275, #73 ) ;
#94 = LINE ( 'NONE', #95, #223 ) ;
#95 = CARTESIAN_POINT ( 'NONE',  ( -0.07866125999999987184, 9.633226027589769323E-18, 0.7874019999999999353 ) ) ;
#96 =( CONVERSION_BASED_UNIT ( 'INCH', #296 ) LENGTH_UNIT ( ) NAMED_UNIT ( #10 ) );
#97 = ORIENTED_EDGE ( 'NONE', *, *, #221, .F. ) ;
#98 = VERTEX_POINT ( 'NONE', #290 ) ;
#99 = EDGE_LOOP ( 'NONE', ( #195, #82, #101, #243 ) ) ;
#100 = ORIENTED_EDGE ( 'NONE', *, *, #57, .F. ) ;
#101 = ORIENTED_EDGE ( 'NONE', *, *, #105, .T. ) ;
#102 = SURFACE_SIDE_STYLE ('',( #180 ) ) ;
#103 = ADVANCED_BREP_SHAPE_REPRESENTATION ( 'Micro_AELM-040-2X', ( #72, #153 ), #188 ) ;
#104 = VECTOR ( 'NONE', #88, 39.37007874015748143 ) ;
#105 = EDGE_CURVE ( 'NONE', #280, #55, #170, .T. ) ;
#106 = DIRECTION ( 'NONE',  ( -1.224646799147353207E-16, -0.0000000000000000000, -1.000000000000000000 ) ) ;
#107 = CARTESIAN_POINT ( 'NONE',  ( 0.0000000000000000000, 0.0000000000000000000, 2.952755999999999936 ) ) ;
#108 = DIRECTION ( 'NONE',  ( -1.000000000000000000, 0.0000000000000000000, 1.224646799147352961E-16 ) ) ;
#109 =( CONVERSION_BASED_UNIT ( 'INCH', #60 ) LENGTH_UNIT ( ) NAMED_UNIT ( #287 ) );
#110 = DIRECTION ( 'NONE',  ( 1.000000000000000000, 0.0000000000000000000, 0.0000000000000000000 ) ) ;
#111 = LINE ( 'NONE', #65, #91 ) ;
#112 = PRODUCT_CONTEXT ( 'NONE', #245, 'mechanical' ) ;
#113 = CARTESIAN_POINT ( 'NONE',  ( 9.642893389422242582E-17, 0.0000000000000000000, 0.7874019999999999353 ) ) ;
#114 = DIRECTION ( 'NONE',  ( 0.0000000000000000000, 0.0000000000000000000, -1.000000000000000000 ) ) ;
#115 = AXIS2_PLACEMENT_3D ( 'NONE', #140, #159, #234 ) ;
#116 = AXIS2_PLACEMENT_3D ( 'NONE', #133, #227, #136 ) ;
#117 = DIRECTION ( 'NONE',  ( -1.224646799147353207E-16, -0.0000000000000000000, -1.000000000000000000 ) ) ;
#118 = DIRECTION ( 'NONE',  ( -0.1736481776669311916, 2.126576849575783316E-17, 0.9848077530122080203 ) ) ;
#119 = CLOSED_SHELL ( 'NONE', ( #51, #268, #53, #7, #164, #24, #214, #81, #207, #237 ) ) ;
#120 = EDGE_CURVE ( 'NONE', #282, #222, #63, .T. ) ;
#121 = CIRCLE ( 'NONE', #93, 0.1181100000000000066 ) ;
#122 = CIRCLE ( 'NONE', #141, 0.1181100000000000066 ) ;
#123 = ORIENTED_EDGE ( 'NONE', *, *, #186, .T. ) ;
#124 = EDGE_CURVE ( 'NONE', #55, #27, #212, .T. ) ;
#125 = ORIENTED_EDGE ( 'NONE', *, *, #279, .F. ) ;
#126 = VECTOR ( 'NONE', #46, 39.37007874015748854 ) ;
#127 = VERTEX_POINT ( 'NONE', #15 ) ;
#128 = ORIENTED_EDGE ( 'NONE', *, *, #235, .T. ) ;
#129 = ORIENTED_EDGE ( 'NONE', *, *, #134, .T. ) ;
#130 = CARTESIAN_POINT ( 'NONE',  ( 0.0000000000000000000, 0.0000000000000000000, 0.0000000000000000000 ) ) ;
#131 = DIRECTION ( 'NONE',  ( -0.0000000000000000000, -0.0000000000000000000, -1.000000000000000000 ) ) ;
#132 = APPLICATION_CONTEXT ( 'automotive_design' ) ;
#133 = CARTESIAN_POINT ( 'NONE',  ( 1.179729942015078748E-33, 0.0000000000000000000, 9.633226027589770864E-18 ) ) ;
#134 = EDGE_CURVE ( 'NONE', #127, #148, #111, .T. ) ;
#135 = CARTESIAN_POINT ( 'NONE',  ( 0.0000000000000000000, 0.0000000000000000000, 0.0000000000000000000 ) ) ;
#136 = DIRECTION ( 'NONE',  ( -1.000000000000000000, 0.0000000000000000000, 1.224646799147352961E-16 ) ) ;
#137 = DIRECTION ( 'NONE',  ( -1.224646799147353207E-16, -0.0000000000000000000, -1.000000000000000000 ) ) ;
#138 = CARTESIAN_POINT ( 'NONE',  ( 0.0000000000000000000, 0.0000000000000000000, 2.937755999999999368 ) ) ;
#139 = DIRECTION ( 'NONE',  ( -1.224646799147353207E-16, -0.0000000000000000000, -1.000000000000000000 ) ) ;
#140 = CARTESIAN_POINT ( 'NONE',  ( 0.0000000000000000000, 0.0000000000000000000, 2.952755999999999936 ) ) ;
#141 = AXIS2_PLACEMENT_3D ( 'NONE', #152, #248, #225 ) ;
#142 = CONICAL_SURFACE ( 'NONE', #3, 0.07866125999999996898, 0.1745329251994338915 ) ;
#143 = CARTESIAN_POINT ( 'NONE',  ( 0.0000000000000000000, 0.0000000000000000000, 2.952755999999999936 ) ) ;
#144 = AXIS2_PLACEMENT_3D ( 'NONE', #198, #131, #11 ) ;
#145 = EDGE_LOOP ( 'NONE', ( #260, #281, #28, #30 ) ) ;
#146 = ORIENTED_EDGE ( 'NONE', *, *, #120, .T. ) ;
#147 = PRESENTATION_LAYER_ASSIGNMENT (  '', '', ( #25 ) ) ;
#148 = VERTEX_POINT ( 'NONE', #151 ) ;
#149 = CONICAL_SURFACE ( 'NONE', #257, 0.07866125999999996898, 0.1745329251994338915 ) ;
#150 = ORIENTED_EDGE ( 'NONE', *, *, #270, .T. ) ;
#151 = CARTESIAN_POINT ( 'NONE',  ( 0.1181100000000001454, 1.446430334472940625E-17, 1.011126921968825032 ) ) ;
#152 = CARTESIAN_POINT ( 'NONE',  ( 1.238273348520836934E-16, 0.0000000000000000000, 1.011126921968825032 ) ) ;
#153 = AXIS2_PLACEMENT_3D ( 'NONE', #130, #20, #40 ) ;
#154 = SURFACE_SIDE_STYLE ('',( #285 ) ) ;
#155 = FACE_OUTER_BOUND ( 'NONE', #145, .T. ) ;
#156 = FACE_OUTER_BOUND ( 'NONE', #259, .T. ) ;
#157 = CARTESIAN_POINT ( 'NONE',  ( 0.07866125999999996898, 9.633226027589769323E-18, -9.633226027589769323E-18 ) ) ;
#158 = COLOUR_RGB ( '',0.7921568627450980005, 0.8196078431372548767, 0.9333333333333333481 ) ;
#159 = DIRECTION ( 'NONE',  ( 0.0000000000000000000, 0.0000000000000000000, -1.000000000000000000 ) ) ;
#160 = LINE ( 'NONE', #157, #254 ) ;
#161 = AXIS2_PLACEMENT_3D ( 'NONE', #143, #295, #23 ) ;
#162 = PRODUCT_RELATED_PRODUCT_CATEGORY ( 'part', '', ( #201 ) ) ;
#163 = DIRECTION ( 'NONE',  ( -1.000000000000000000, 0.0000000000000000000, 0.0000000000000000000 ) ) ;
#164 = ADVANCED_FACE ( 'NONE', ( #19 ), #33, .T. ) ;
#165 = ORIENTED_EDGE ( 'NONE', *, *, #235, .F. ) ;
#166 = VERTEX_POINT ( 'NONE', #286 ) ;
#167 = ORIENTED_EDGE ( 'NONE', *, *, #297, .F. ) ;
#168 = ORIENTED_EDGE ( 'NONE', *, *, #219, .T. ) ;
#169 =( NAMED_UNIT ( * ) PLANE_ANGLE_UNIT ( ) SI_UNIT ( $, .RADIAN. ) );
#170 = LINE ( 'NONE', #199, #36 ) ;
#171 = SURFACE_STYLE_USAGE ( .BOTH. , #154 ) ;
#172 = EDGE_CURVE ( 'NONE', #1, #282, #87, .T. ) ;
#173 = FACE_OUTER_BOUND ( 'NONE', #218, .T. ) ;
#174 = CIRCLE ( 'NONE', #211, 0.1181100000000000066 ) ;
#175 = DIRECTION ( 'NONE',  ( 0.0000000000000000000, 0.0000000000000000000, 1.000000000000000000 ) ) ;
#176 =( LENGTH_UNIT ( ) NAMED_UNIT ( * ) SI_UNIT ( $, .METRE. ) );
#177 = APPLICATION_PROTOCOL_DEFINITION ( 'draft international standard', 'automotive_design', 1998, #245 ) ;
#178 = DIRECTION ( 'NONE',  ( -1.000000000000000000, 0.0000000000000000000, 0.0000000000000000000 ) ) ;
#179 = DIRECTION ( 'NONE',  ( -1.000000000000000000, 0.0000000000000000000, 1.224646799147353207E-16 ) ) ;
#180 = SURFACE_STYLE_FILL_AREA ( #232 ) ;
#181 = DIRECTION ( 'NONE',  ( -1.000000000000000000, 0.0000000000000000000, 0.0000000000000000000 ) ) ;
#182 = COLOUR_RGB ( '',0.7921568627450980005, 0.8196078431372548767, 0.9333333333333333481 ) ;
#183 = CONICAL_SURFACE ( 'NONE', #115, 0.1031099999999991607, 0.7853981633974500554 ) ;
#184 = DIRECTION ( 'NONE',  ( -1.224646799147353207E-16, -0.0000000000000000000, -1.000000000000000000 ) ) ;
#185 = CARTESIAN_POINT ( 'NONE',  ( 9.642893389422242582E-17, 0.0000000000000000000, 0.7874019999999999353 ) ) ;
#186 = EDGE_CURVE ( 'NONE', #222, #148, #122, .T. ) ;
#187 = CARTESIAN_POINT ( 'NONE',  ( 1.238273348520836934E-16, 0.0000000000000000000, 1.011126921968825032 ) ) ;
#188 =( GEOMETRIC_REPRESENTATION_CONTEXT ( 3 ) GLOBAL_UNCERTAINTY_ASSIGNED_CONTEXT ( ( #189 ) ) GLOBAL_UNIT_ASSIGNED_CONTEXT ( ( #96, #169, #293 ) ) REPRESENTATION_CONTEXT ( 'NONE', 'WORKASPACE' ) );
#189 = UNCERTAINTY_MEASURE_WITH_UNIT (LENGTH_MEASURE( 1.000000000000000082E-05 ), #96, 'distance_accuracy_value', 'NONE');
#190 = EDGE_CURVE ( 'NONE', #280, #98, #216, .T. ) ;
#191 = PRESENTATION_LAYER_ASSIGNMENT (  '', '', ( #247 ) ) ;
#192 = ORIENTED_EDGE ( 'NONE', *, *, #190, .F. ) ;
#193 = ORIENTED_EDGE ( 'NONE', *, *, #270, .F. ) ;
#194 = ORIENTED_EDGE ( 'NONE', *, *, #172, .F. ) ;
#195 = ORIENTED_EDGE ( 'NONE', *, *, #251, .F. ) ;
#196 = PRESENTATION_STYLE_ASSIGNMENT (( #208 ) ) ;
#197 = CARTESIAN_POINT ( 'NONE',  ( 9.642893389422242582E-17, 0.0000000000000000000, 0.7874019999999999353 ) ) ;
#198 = CARTESIAN_POINT ( 'NONE',  ( 0.0000000000000000000, 0.0000000000000000000, 2.952755999999999936 ) ) ;
#199 = CARTESIAN_POINT ( 'NONE',  ( -0.07866125999999996898, 0.0000000000000000000, 9.633226027589769323E-18 ) ) ;
#200 = DIRECTION ( 'NONE',  ( 1.000000000000000000, 0.0000000000000000000, -0.0000000000000000000 ) ) ;
#201 = PRODUCT ( 'Micro_AELM-040-2X', 'Micro_AELM-040-2X', '', ( #112 ) ) ;
#202 = FILL_AREA_STYLE_COLOUR ( '', #182 ) ;
#203 = AXIS2_PLACEMENT_3D ( 'NONE', #185, #139, #181 ) ;
#204 = CARTESIAN_POINT ( 'NONE',  ( 0.07866125999999999674, 9.633226027589770864E-18, 1.895600338963814870E-33 ) ) ;
#205 = APPLICATION_PROTOCOL_DEFINITION ( 'draft international standard', 'automotive_design', 1998, #132 ) ;
#206 = CYLINDRICAL_SURFACE ( 'NONE', #9, 0.07866125999999996898 ) ;
#207 = ADVANCED_FACE ( 'NONE', ( #253 ), #206, .T. ) ;
#208 = SURFACE_STYLE_USAGE ( .BOTH. , #102 ) ;
#209 = DIRECTION ( 'NONE',  ( 1.224646799147353207E-16, 0.0000000000000000000, 1.000000000000000000 ) ) ;
#210 = AXIS2_PLACEMENT_3D ( 'NONE', #107, #64, #200 ) ;
#211 = AXIS2_PLACEMENT_3D ( 'NONE', #292, #231, #22 ) ;
#212 = CIRCLE ( 'NONE', #116, 0.07866125999999999674 ) ;
#213 = CARTESIAN_POINT ( 'NONE',  ( 9.642893389422242582E-17, 0.0000000000000000000, 0.7874019999999999353 ) ) ;
#214 = ADVANCED_FACE ( 'NONE', ( #272 ), #183, .T. ) ;
#215 = DIRECTION ( 'NONE',  ( 1.000000000000000000, 0.0000000000000000000, -0.0000000000000000000 ) ) ;
#216 = CIRCLE ( 'NONE', #84, 0.07866125999999996898 ) ;
#217 = ORIENTED_EDGE ( 'NONE', *, *, #246, .T. ) ;
#218 = EDGE_LOOP ( 'NONE', ( #193, #125, #261, #240 ) ) ;
#219 = EDGE_CURVE ( 'NONE', #127, #282, #29, .T. ) ;
#220 = ORIENTED_EDGE ( 'NONE', *, *, #134, .F. ) ;
#221 = EDGE_CURVE ( 'NONE', #166, #127, #48, .T. ) ;
#222 = VERTEX_POINT ( 'NONE', #273 ) ;
#223 = VECTOR ( 'NONE', #118, 39.37007874015747433 ) ;
#224 = DIRECTION ( 'NONE',  ( 1.224646799147353207E-16, 0.0000000000000000000, 1.000000000000000000 ) ) ;
#225 = DIRECTION ( 'NONE',  ( 1.000000000000000000, 0.0000000000000000000, 0.0000000000000000000 ) ) ;
#226 = CYLINDRICAL_SURFACE ( 'NONE', #34, 0.1181100000000000066 ) ;
#227 = DIRECTION ( 'NONE',  ( -1.224646799147353207E-16, -0.0000000000000000000, -1.000000000000000000 ) ) ;
#228 = DIRECTION ( 'NONE',  ( -1.000000000000000000, 0.0000000000000000000, 0.0000000000000000000 ) ) ;
#229 =( NAMED_UNIT ( * ) PLANE_ANGLE_UNIT ( ) SI_UNIT ( $, .RADIAN. ) );
#230 = PLANE ( 'NONE',  #210 ) ;
#231 = DIRECTION ( 'NONE',  ( 0.0000000000000000000, 0.0000000000000000000, -1.000000000000000000 ) ) ;
#232 = FILL_AREA_STYLE ('',( #43 ) ) ;
#233 = CARTESIAN_POINT ( 'NONE',  ( 0.0000000000000000000, 0.0000000000000000000, 0.0000000000000000000 ) ) ;
#234 = DIRECTION ( 'NONE',  ( -1.000000000000000000, 0.0000000000000000000, 0.0000000000000000000 ) ) ;
#235 = EDGE_CURVE ( 'NONE', #1, #166, #289, .T. ) ;
#236 = CONICAL_SURFACE ( 'NONE', #262, 0.1031099999999991607, 0.7853981633974500554 ) ;
#237 = ADVANCED_FACE ( 'NONE', ( #21 ), #69, .F. ) ;
#238 = PRODUCT_DEFINITION_SHAPE ( 'NONE', 'NONE',  #277 ) ;
#239 = EDGE_LOOP ( 'NONE', ( #54, #258 ) ) ;
#240 = ORIENTED_EDGE ( 'NONE', *, *, #297, .T. ) ;
#241 = AXIS2_PLACEMENT_3D ( 'NONE', #8, #86, #108 ) ;
#242 = PRODUCT_DEFINITION_FORMATION_WITH_SPECIFIED_SOURCE ( 'ANY', '', #201, .NOT_KNOWN. ) ;
#243 = ORIENTED_EDGE ( 'NONE', *, *, #71, .F. ) ;
#244 = ORIENTED_EDGE ( 'NONE', *, *, #13, .F. ) ;
#245 = APPLICATION_CONTEXT ( 'automotive_design' ) ;
#246 = EDGE_CURVE ( 'NONE', #282, #127, #174, .T. ) ;
#247 = STYLED_ITEM ( 'NONE', ( #196 ), #103 ) ;
#248 = DIRECTION ( 'NONE',  ( -1.224646799147353207E-16, -0.0000000000000000000, -1.000000000000000000 ) ) ;
#249 = DIRECTION ( 'NONE',  ( -0.0000000000000000000, -0.0000000000000000000, -1.000000000000000000 ) ) ;
#250 = FACE_OUTER_BOUND ( 'NONE', #2, .T. ) ;
#251 = EDGE_CURVE ( 'NONE', #98, #27, #160, .T. ) ;
#252 = LINE ( 'NONE', #288, #104 ) ;
#253 = FACE_OUTER_BOUND ( 'NONE', #99, .T. ) ;
#254 = VECTOR ( 'NONE', #117, 39.37007874015748143 ) ;
#255 = DIRECTION ( 'NONE',  ( 0.0000000000000000000, 0.0000000000000000000, 1.000000000000000000 ) ) ;
#256 = CARTESIAN_POINT ( 'NONE',  ( -0.1181100000000000066, 0.0000000000000000000, 2.937755999999999368 ) ) ;
#257 = AXIS2_PLACEMENT_3D ( 'NONE', #213, #209, #294 ) ;
#258 = ORIENTED_EDGE ( 'NONE', *, *, #71, .T. ) ;
#259 = EDGE_LOOP ( 'NONE', ( #128, #299 ) ) ;
#260 = ORIENTED_EDGE ( 'NONE', *, *, #190, .T. ) ;
#261 = ORIENTED_EDGE ( 'NONE', *, *, #57, .T. ) ;
#262 = AXIS2_PLACEMENT_3D ( 'NONE', #16, #90, #178 ) ;
#263 =( NAMED_UNIT ( * ) SI_UNIT ( $, .STERADIAN. ) SOLID_ANGLE_UNIT ( ) );
#264 = CARTESIAN_POINT ( 'NONE',  ( -0.1181100000000000066, 0.0000000000000000000, 2.952755999999999936 ) ) ;
#265 = CARTESIAN_POINT ( 'NONE',  ( -0.1031099999999991607, 0.0000000000000000000, 2.952755999999999936 ) ) ;
#266 = VECTOR ( 'NONE', #62, 39.37007874015748854 ) ;
#267 = CYLINDRICAL_SURFACE ( 'NONE', #76, 0.07866125999999996898 ) ;
#268 = ADVANCED_FACE ( 'NONE', ( #47 ), #149, .T. ) ;
#269 = LENGTH_MEASURE_WITH_UNIT ( LENGTH_MEASURE( 0.02539999999999999897 ), #176 );
#270 = EDGE_CURVE ( 'NONE', #280, #222, #94, .T. ) ;
#271 = FACE_OUTER_BOUND ( 'NONE', #26, .T. ) ;
#272 = FACE_OUTER_BOUND ( 'NONE', #31, .T. ) ;
#273 = CARTESIAN_POINT ( 'NONE',  ( -0.1181099999999998956, 0.0000000000000000000, 1.011126921968825032 ) ) ;
#274 = DIRECTION ( 'NONE',  ( 1.000000000000000000, 0.0000000000000000000, 0.0000000000000000000 ) ) ;
#275 = DIRECTION ( 'NONE',  ( -1.224646799147353207E-16, -0.0000000000000000000, -1.000000000000000000 ) ) ;
#276 = DIRECTION ( 'NONE',  ( -1.224646799147353207E-16, -0.0000000000000000000, -1.000000000000000000 ) ) ;
#277 = PRODUCT_DEFINITION ( 'UNKNOWN', '', #242, #52 ) ;
#278 =( GEOMETRIC_REPRESENTATION_CONTEXT ( 3 ) GLOBAL_UNCERTAINTY_ASSIGNED_CONTEXT ( ( #75 ) ) GLOBAL_UNIT_ASSIGNED_CONTEXT ( ( #109, #85, #263 ) ) REPRESENTATION_CONTEXT ( 'NONE', 'WORKASPACE' ) );
#279 = EDGE_CURVE ( 'NONE', #98, #280, #18, .T. ) ;
#280 = VERTEX_POINT ( 'NONE', #70 ) ;
#281 = ORIENTED_EDGE ( 'NONE', *, *, #251, .T. ) ;
#282 = VERTEX_POINT ( 'NONE', #256 ) ;
#283 = ORIENTED_EDGE ( 'NONE', *, *, #246, .F. ) ;
#284 = AXIS2_PLACEMENT_3D ( 'NONE', #14, #175, #110 ) ;
#285 = SURFACE_STYLE_FILL_AREA ( #37 ) ;
#286 = CARTESIAN_POINT ( 'NONE',  ( 0.1031099999999991607, 1.354581824536882251E-17, 2.952755999999999936 ) ) ;
#287 = DIMENSIONAL_EXPONENTS ( 1.000000000000000000, 0.0000000000000000000, 0.0000000000000000000, 0.0000000000000000000, 0.0000000000000000000, 0.0000000000000000000, 0.0000000000000000000 ) ;
#288 = CARTESIAN_POINT ( 'NONE',  ( 0.07866126000000008001, 0.0000000000000000000, 0.7874019999999999353 ) ) ;
#289 = CIRCLE ( 'NONE', #161, 0.1031099999999991607 ) ;
#290 = CARTESIAN_POINT ( 'NONE',  ( 0.07866126000000008001, 0.0000000000000000000, 0.7874019999999999353 ) ) ;
#291 = DIRECTION ( 'NONE',  ( -0.0000000000000000000, -0.0000000000000000000, -1.000000000000000000 ) ) ;
#292 = CARTESIAN_POINT ( 'NONE',  ( 0.0000000000000000000, 0.0000000000000000000, 2.937755999999999368 ) ) ;
#293 =( NAMED_UNIT ( * ) SI_UNIT ( $, .STERADIAN. ) SOLID_ANGLE_UNIT ( ) );
#294 = DIRECTION ( 'NONE',  ( 1.000000000000000000, 0.0000000000000000000, 0.0000000000000000000 ) ) ;
#295 = DIRECTION ( 'NONE',  ( 0.0000000000000000000, 0.0000000000000000000, 1.000000000000000000 ) ) ;
#296 = LENGTH_MEASURE_WITH_UNIT ( LENGTH_MEASURE( 0.02539999999999999897 ), #49 );
#297 = EDGE_CURVE ( 'NONE', #148, #222, #121, .T. ) ;
#298 = UNCERTAINTY_MEASURE_WITH_UNIT (LENGTH_MEASURE( 1.000000000000000082E-05 ), #12, 'distance_accuracy_value', 'NONE');
#299 = ORIENTED_EDGE ( 'NONE', *, *, #13, .T. ) ;
ENDSEC;
END-ISO-10303-21;
