ISO-10303-21;
HEADER;
FILE_DESCRIPTION (( 'STEP AP214' ),
    '1' );
FILE_NAME ('44447W.STEP',
    '2023-06-22T20:42:21',
    ( '' ),
    ( '' ),
    'SwSTEP 2.0',
    'SolidWorks 2023',
    '' );
FILE_SCHEMA (( 'AUTOMOTIVE_DESIGN' ));
ENDSEC;

DATA;
#1 = PRESENTATION_LAYER_ASSIGNMENT (  '', '', ( #199 ) ) ;
#2 =( GEOMETRIC_REPRESENTATION_CONTEXT ( 3 ) GLOBAL_UNCERTAINTY_ASSIGNED_CONTEXT ( ( #95 ) ) GLOBAL_UNIT_ASSIGNED_CONTEXT ( ( #294, #79, #253 ) ) REPRESENTATION_CONTEXT ( 'NONE', 'WORKASPACE' ) );
#3 =( NAMED_UNIT ( * ) SI_UNIT ( $, .STERADIAN. ) SOLID_ANGLE_UNIT ( ) );
#4 = DIRECTION ( 'NONE',  ( 0.000000000000000000, 0.000000000000000000, -1.000000000000000000 ) ) ;
#5 = PRESENTATION_STYLE_ASSIGNMENT (( #228 ) ) ;
#6 = COLOUR_RGB ( '',1.000000000000000000, 0.000000000000000000, 0.000000000000000000 ) ;
#7 =( NAMED_UNIT ( * ) PLANE_ANGLE_UNIT ( ) SI_UNIT ( $, .RADIAN. ) );
#8 =( NAMED_UNIT ( * ) SI_UNIT ( $, .STERADIAN. ) SOLID_ANGLE_UNIT ( ) );
#9 = CARTESIAN_POINT ( 'NONE',  ( 0.000000000000000000, 0.000000000000000000, 0.000000000000000000 ) ) ;
#10 = DIRECTION ( 'NONE',  ( -4.453261087808552747E-17, 1.000000000000000000, -0.000000000000000000 ) ) ;
#11 = VECTOR ( 'NONE', #286, 39.37007874015748143 ) ;
#12 = ORIENTED_EDGE ( 'NONE', *, *, #258, .T. ) ;
#13 = SURFACE_STYLE_USAGE ( .BOTH. , #84 ) ;
#14 = ORIENTED_EDGE ( 'NONE', *, *, #165, .T. ) ;
#15 = ORIENTED_EDGE ( 'NONE', *, *, #288, .F. ) ;
#16 =( NAMED_UNIT ( * ) SI_UNIT ( $, .STERADIAN. ) SOLID_ANGLE_UNIT ( ) );
#17 = ADVANCED_FACE ( 'NONE', ( #39 ), #162, .F. ) ;
#18 = STYLED_ITEM ( 'NONE', ( #123 ), #137 ) ;
#19 = CIRCLE ( 'NONE', #308, 0.5000000000000000000 ) ;
#20 = DIRECTION ( 'NONE',  ( -1.000000000000000000, 0.000000000000000000, 0.000000000000000000 ) ) ;
#21 = DIMENSIONAL_EXPONENTS ( 1.000000000000000000, 0.000000000000000000, 0.000000000000000000, 0.000000000000000000, 0.000000000000000000, 0.000000000000000000, 0.000000000000000000 ) ;
#22 = PRESENTATION_STYLE_ASSIGNMENT (( #167 ) ) ;
#23 = ORIENTED_EDGE ( 'NONE', *, *, #258, .F. ) ;
#24 = PRODUCT_DEFINITION_FORMATION_WITH_SPECIFIED_SOURCE ( 'ANY', '', #125, .NOT_KNOWN. ) ;
#25 = CARTESIAN_POINT ( 'NONE',  ( 0.000000000000000000, 0.000000000000000000, 0.000000000000000000 ) ) ;
#26 = PLANE ( 'NONE',  #141 ) ;
#27 = EDGE_CURVE ( 'NONE', #302, #235, #88, .T. ) ;
#28 = UNCERTAINTY_MEASURE_WITH_UNIT (LENGTH_MEASURE( 1.000000000000000082E-05 ), #65, 'distance_accuracy_value', 'NONE');
#29 =( LENGTH_UNIT ( ) NAMED_UNIT ( * ) SI_UNIT ( $, .METRE. ) );
#30 =( LENGTH_UNIT ( ) NAMED_UNIT ( * ) SI_UNIT ( $, .METRE. ) );
#31 = SURFACE_SIDE_STYLE ('',( #247 ) ) ;
#32 = COLOUR_RGB ( '',0.7921568627450980005, 0.8196078431372548767, 0.9333333333333333481 ) ;
#33 = EDGE_CURVE ( 'NONE', #133, #67, #160, .T. ) ;
#34 = COLOUR_RGB ( '',1.000000000000000000, 0.000000000000000000, 0.000000000000000000 ) ;
#35 = CARTESIAN_POINT ( 'NONE',  ( 4.957883579047453271E-34, 4.250000000000000000, 0.000000000000000000 ) ) ;
#36 = SURFACE_STYLE_FILL_AREA ( #251 ) ;
#37 = LINE ( 'NONE', #234, #307 ) ;
#38 = AXIS2_PLACEMENT_3D ( 'NONE', #9, #188, #257 ) ;
#39 = FACE_OUTER_BOUND ( 'NONE', #278, .T. ) ;
#40 = SURFACE_STYLE_USAGE ( .BOTH. , #90 ) ;
#41 = DIRECTION ( 'NONE',  ( -1.000000000000000000, 0.000000000000000000, 0.000000000000000000 ) ) ;
#42 = EDGE_CURVE ( 'NONE', #171, #280, #70, .T. ) ;
#43 = DIMENSIONAL_EXPONENTS ( 1.000000000000000000, 0.000000000000000000, 0.000000000000000000, 0.000000000000000000, 0.000000000000000000, 0.000000000000000000, 0.000000000000000000 ) ;
#44 = PRESENTATION_LAYER_ASSIGNMENT (  '', '', ( #128 ) ) ;
#45 = LENGTH_MEASURE_WITH_UNIT ( LENGTH_MEASURE( 0.02539999999999999897 ), #114 );
#46 = ORIENTED_EDGE ( 'NONE', *, *, #33, .T. ) ;
#47 =( NAMED_UNIT ( * ) PLANE_ANGLE_UNIT ( ) SI_UNIT ( $, .RADIAN. ) );
#48 =( NAMED_UNIT ( * ) PLANE_ANGLE_UNIT ( ) SI_UNIT ( $, .RADIAN. ) );
#49 = DIRECTION ( 'NONE',  ( 1.000000000000000000, 0.000000000000000000, 0.000000000000000000 ) ) ;
#50 = FILL_AREA_STYLE ('',( #69 ) ) ;
#51 = DIRECTION ( 'NONE',  ( -4.453261087808552747E-17, 1.000000000000000000, -0.000000000000000000 ) ) ;
#52 = SURFACE_STYLE_FILL_AREA ( #72 ) ;
#53 = SURFACE_STYLE_USAGE ( .BOTH. , #173 ) ;
#54 = FILL_AREA_STYLE ('',( #270 ) ) ;
#55 = FACE_OUTER_BOUND ( 'NONE', #209, .T. ) ;
#56 = CARTESIAN_POINT ( 'NONE',  ( 0.5000000000000000000, 7.000000000000000000, 0.000000000000000000 ) ) ;
#57 =( GEOMETRIC_REPRESENTATION_CONTEXT ( 3 ) GLOBAL_UNCERTAINTY_ASSIGNED_CONTEXT ( ( #83 ) ) GLOBAL_UNIT_ASSIGNED_CONTEXT ( ( #181, #7, #8 ) ) REPRESENTATION_CONTEXT ( 'NONE', 'WORKASPACE' ) );
#58 = CARTESIAN_POINT ( 'NONE',  ( 0.000000000000000000, 0.000000000000000000, 0.000000000000000000 ) ) ;
#59 = CARTESIAN_POINT ( 'NONE',  ( 0.5000000000000000000, 7.000000000000000000, 6.123233995736767268E-17 ) ) ;
#60 = ORIENTED_EDGE ( 'NONE', *, *, #33, .F. ) ;
#61 =( LENGTH_UNIT ( ) NAMED_UNIT ( * ) SI_UNIT ( $, .METRE. ) );
#62 = COLOUR_RGB ( '',1.000000000000000000, 0.000000000000000000, 0.000000000000000000 ) ;
#63 = VECTOR ( 'NONE', #51, 39.37007874015748143 ) ;
#64 = DIRECTION ( 'NONE',  ( -1.000000000000000000, -4.453261087808552747E-17, 0.000000000000000000 ) ) ;
#65 =( CONVERSION_BASED_UNIT ( 'INCH', #306 ) LENGTH_UNIT ( ) NAMED_UNIT ( #282 ) );
#66 = CARTESIAN_POINT ( 'NONE',  ( 0.4999999999999999445, 7.000000000000000000, 6.123233995736767268E-17 ) ) ;
#67 = VERTEX_POINT ( 'NONE', #59 ) ;
#68 = EDGE_LOOP ( 'NONE', ( #193, #185 ) ) ;
#69 = FILL_AREA_STYLE_COLOUR ( '', #32 ) ;
#70 = CIRCLE ( 'NONE', #268, 0.5000000000000000000 ) ;
#71 = PRESENTATION_LAYER_ASSIGNMENT (  '', '', ( #219 ) ) ;
#72 = FILL_AREA_STYLE ('',( #281 ) ) ;
#73 = EDGE_CURVE ( 'NONE', #87, #196, #155, .T. ) ;
#74 = CARTESIAN_POINT ( 'NONE',  ( 0.5000000000000000000, 4.250000000000000000, 6.123233995736767268E-17 ) ) ;
#75 = CARTESIAN_POINT ( 'NONE',  ( -0.5000000000000002220, 7.000000000000000000, 0.000000000000000000 ) ) ;
#76 =( GEOMETRIC_REPRESENTATION_CONTEXT ( 3 ) GLOBAL_UNCERTAINTY_ASSIGNED_CONTEXT ( ( #250 ) ) GLOBAL_UNIT_ASSIGNED_CONTEXT ( ( #227, #48, #175 ) ) REPRESENTATION_CONTEXT ( 'NONE', 'WORKASPACE' ) );
#77 = UNCERTAINTY_MEASURE_WITH_UNIT (LENGTH_MEASURE( 1.000000000000000082E-05 ), #266, 'distance_accuracy_value', 'NONE');
#78 = LENGTH_MEASURE_WITH_UNIT ( LENGTH_MEASURE( 0.02539999999999999897 ), #29 );
#79 =( NAMED_UNIT ( * ) PLANE_ANGLE_UNIT ( ) SI_UNIT ( $, .RADIAN. ) );
#80 = FACE_OUTER_BOUND ( 'NONE', #242, .T. ) ;
#81 =( GEOMETRIC_REPRESENTATION_CONTEXT ( 3 ) GLOBAL_UNCERTAINTY_ASSIGNED_CONTEXT ( ( #295 ) ) GLOBAL_UNIT_ASSIGNED_CONTEXT ( ( #240, #169, #16 ) ) REPRESENTATION_CONTEXT ( 'NONE', 'WORKASPACE' ) );
#82 = DIRECTION ( 'NONE',  ( -1.000000000000000000, 0.000000000000000000, 0.000000000000000000 ) ) ;
#83 = UNCERTAINTY_MEASURE_WITH_UNIT (LENGTH_MEASURE( 1.000000000000000082E-05 ), #181, 'distance_accuracy_value', 'NONE');
#84 = SURFACE_SIDE_STYLE ('',( #36 ) ) ;
#85 = LINE ( 'NONE', #267, #179 ) ;
#86 = DIRECTION ( 'NONE',  ( 0.000000000000000000, 1.000000000000000000, 0.000000000000000000 ) ) ;
#87 = VERTEX_POINT ( 'NONE', #111 ) ;
#88 = CIRCLE ( 'NONE', #38, 0.5000000000000000000 ) ;
#89 = ORIENTED_EDGE ( 'NONE', *, *, #149, .T. ) ;
#90 = SURFACE_SIDE_STYLE ('',( #304 ) ) ;
#91 = CARTESIAN_POINT ( 'NONE',  ( -0.5000000000000000000, 4.250000000000000000, 0.000000000000000000 ) ) ;
#92 = SURFACE_STYLE_FILL_AREA ( #115 ) ;
#93 = AXIS2_PLACEMENT_3D ( 'NONE', #186, #297, #41 ) ;
#94 = AXIS2_PLACEMENT_3D ( 'NONE', #256, #86, #164 ) ;
#95 = UNCERTAINTY_MEASURE_WITH_UNIT (LENGTH_MEASURE( 1.000000000000000082E-05 ), #294, 'distance_accuracy_value', 'NONE');
#96 = ORIENTED_EDGE ( 'NONE', *, *, #27, .F. ) ;
#97 = CARTESIAN_POINT ( 'NONE',  ( 6.123233995736766036E-17, 0.000000000000000000, 0.5000000000000000000 ) ) ;
#98 = SURFACE_SIDE_STYLE ('',( #52 ) ) ;
#99 = CARTESIAN_POINT ( 'NONE',  ( 0.000000000000000000, 4.250000000000000000, 0.000000000000000000 ) ) ;
#100 = PRESENTATION_LAYER_ASSIGNMENT (  '', '', ( #18 ) ) ;
#101 = LINE ( 'NONE', #202, #11 ) ;
#102 =( CONVERSION_BASED_UNIT ( 'INCH', #224 ) LENGTH_UNIT ( ) NAMED_UNIT ( #203 ) );
#103 = APPLICATION_CONTEXT ( 'automotive_design' ) ;
#104 =( GEOMETRIC_REPRESENTATION_CONTEXT ( 3 ) GLOBAL_UNCERTAINTY_ASSIGNED_CONTEXT ( ( #28 ) ) GLOBAL_UNIT_ASSIGNED_CONTEXT ( ( #65, #261, #166 ) ) REPRESENTATION_CONTEXT ( 'NONE', 'WORKASPACE' ) );
#105 = EDGE_CURVE ( 'NONE', #280, #133, #37, .T. ) ;
#106 = DIRECTION ( 'NONE',  ( 4.453261087808552747E-17, -1.000000000000000000, 0.000000000000000000 ) ) ;
#107 = CARTESIAN_POINT ( 'NONE',  ( 0.000000000000000000, 4.250000000000000000, 0.000000000000000000 ) ) ;
#108 = CARTESIAN_POINT ( 'NONE',  ( 0.000000000000000000, 4.250000000000000000, 0.000000000000000000 ) ) ;
#109 = DIRECTION ( 'NONE',  ( -4.453261087808552747E-17, 1.000000000000000000, -0.000000000000000000 ) ) ;
#110 = ORIENTED_EDGE ( 'NONE', *, *, #42, .T. ) ;
#111 = CARTESIAN_POINT ( 'NONE',  ( 6.123233995736766036E-17, 4.250000000000000000, 0.5000000000000000000 ) ) ;
#112 = FACE_OUTER_BOUND ( 'NONE', #68, .T. ) ;
#113 = PRESENTATION_LAYER_ASSIGNMENT (  '', '', ( #249 ) ) ;
#114 =( LENGTH_UNIT ( ) NAMED_UNIT ( * ) SI_UNIT ( $, .METRE. ) );
#115 = FILL_AREA_STYLE ('',( #241 ) ) ;
#116 = DIRECTION ( 'NONE',  ( 0.000000000000000000, 0.000000000000000000, -1.000000000000000000 ) ) ;
#117 = ORIENTED_EDGE ( 'NONE', *, *, #130, .F. ) ;
#118 =( GEOMETRIC_REPRESENTATION_CONTEXT ( 3 ) GLOBAL_UNCERTAINTY_ASSIGNED_CONTEXT ( ( #212 ) ) GLOBAL_UNIT_ASSIGNED_CONTEXT ( ( #102, #263, #150 ) ) REPRESENTATION_CONTEXT ( 'NONE', 'WORKASPACE' ) );
#119 = AXIS2_PLACEMENT_3D ( 'NONE', #144, #305, #20 ) ;
#120 =( LENGTH_UNIT ( ) NAMED_UNIT ( * ) SI_UNIT ( $, .METRE. ) );
#121 = DIRECTION ( 'NONE',  ( 0.000000000000000000, 0.000000000000000000, -1.000000000000000000 ) ) ;
#122 = STYLED_ITEM ( 'NONE', ( #276 ), #248 ) ;
#123 = PRESENTATION_STYLE_ASSIGNMENT (( #205 ) ) ;
#124 = CARTESIAN_POINT ( 'NONE',  ( 0.000000000000000000, 0.000000000000000000, 0.000000000000000000 ) ) ;
#125 = PRODUCT ( '44447W', '44447W', '', ( #243 ) ) ;
#126 = MECHANICAL_DESIGN_GEOMETRIC_PRESENTATION_REPRESENTATION (  '', ( #18 ), #76 ) ;
#127 = PRODUCT_DEFINITION_CONTEXT ( 'detailed design', #103, 'design' ) ;
#128 = STYLED_ITEM ( 'NONE', ( #22 ), #245 ) ;
#129 =( LENGTH_UNIT ( ) NAMED_UNIT ( * ) SI_UNIT ( $, .METRE. ) );
#130 = EDGE_CURVE ( 'NONE', #87, #302, #85, .T. ) ;
#131 = APPLICATION_CONTEXT ( 'automotive_design' ) ;
#132 = FACE_OUTER_BOUND ( 'NONE', #309, .T. ) ;
#133 = VERTEX_POINT ( 'NONE', #75 ) ;
#134 = AXIS2_PLACEMENT_3D ( 'NONE', #236, #158, #252 ) ;
#135 = COLOUR_RGB ( '',0.7921568627450980005, 0.8196078431372548767, 0.9333333333333333481 ) ;
#136 = ORIENTED_EDGE ( 'NONE', *, *, #288, .T. ) ;
#137 = ADVANCED_FACE ( 'NONE', ( #246 ), #26, .T. ) ;
#138 = EDGE_LOOP ( 'NONE', ( #12, #262 ) ) ;
#139 = FACE_OUTER_BOUND ( 'NONE', #223, .T. ) ;
#140 = DIRECTION ( 'NONE',  ( 0.000000000000000000, 0.000000000000000000, -1.000000000000000000 ) ) ;
#141 = AXIS2_PLACEMENT_3D ( 'NONE', #25, #198, #4 ) ;
#142 = AXIS2_PLACEMENT_3D ( 'NONE', #58, #300, #180 ) ;
#143 = EDGE_CURVE ( 'NONE', #67, #133, #283, .T. ) ;
#144 = CARTESIAN_POINT ( 'NONE',  ( -1.224646799147351975E-16, 7.000000000000000000, 0.000000000000000000 ) ) ;
#145 = MANIFOLD_SOLID_BREP ( 'Revolve - Cutting Edge', #152 ) ;
#146 = CARTESIAN_POINT ( 'NONE',  ( 0.000000000000000000, 0.000000000000000000, 0.000000000000000000 ) ) ;
#147 = ORIENTED_EDGE ( 'NONE', *, *, #207, .T. ) ;
#148 = MECHANICAL_DESIGN_GEOMETRIC_PRESENTATION_REPRESENTATION (  '', ( #128 ), #81 ) ;
#149 = EDGE_CURVE ( 'NONE', #196, #87, #255, .T. ) ;
#150 =( NAMED_UNIT ( * ) SI_UNIT ( $, .STERADIAN. ) SOLID_ANGLE_UNIT ( ) );
#151 = APPLICATION_PROTOCOL_DEFINITION ( 'draft international standard', 'automotive_design', 1998, #103 ) ;
#152 = CLOSED_SHELL ( 'NONE', ( #213, #248, #225, #137 ) ) ;
#153 = PRESENTATION_STYLE_ASSIGNMENT (( #53 ) ) ;
#154 = PLANE ( 'NONE',  #174 ) ;
#155 = CIRCLE ( 'NONE', #134, 0.5000000000000000000 ) ;
#156 = AXIS2_PLACEMENT_3D ( 'NONE', #214, #10, #296 ) ;
#157 = DIRECTION ( 'NONE',  ( -4.453261087808552747E-17, 1.000000000000000000, -0.000000000000000000 ) ) ;
#158 = DIRECTION ( 'NONE',  ( -0.000000000000000000, -1.000000000000000000, -0.000000000000000000 ) ) ;
#159 = ORIENTED_EDGE ( 'NONE', *, *, #130, .T. ) ;
#160 = CIRCLE ( 'NONE', #93, 0.5000000000000001110 ) ;
#161 = AXIS2_PLACEMENT_3D ( 'NONE', #124, #178, #49 ) ;
#162 = PLANE ( 'NONE',  #233 ) ;
#163 = PRODUCT_RELATED_PRODUCT_CATEGORY ( 'part', '', ( #125 ) ) ;
#164 = DIRECTION ( 'NONE',  ( 0.000000000000000000, -0.000000000000000000, 1.000000000000000000 ) ) ;
#165 = EDGE_CURVE ( 'NONE', #196, #235, #101, .T. ) ;
#166 =( NAMED_UNIT ( * ) SI_UNIT ( $, .STERADIAN. ) SOLID_ANGLE_UNIT ( ) );
#167 = SURFACE_STYLE_USAGE ( .BOTH. , #187 ) ;
#168 = AXIS2_PLACEMENT_3D ( 'NONE', #146, #237, #116 ) ;
#169 =( NAMED_UNIT ( * ) PLANE_ANGLE_UNIT ( ) SI_UNIT ( $, .RADIAN. ) );
#170 = ORIENTED_EDGE ( 'NONE', *, *, #165, .F. ) ;
#171 = VERTEX_POINT ( 'NONE', #74 ) ;
#172 = LENGTH_MEASURE_WITH_UNIT ( LENGTH_MEASURE( 0.02539999999999999897 ), #120 );
#173 = SURFACE_SIDE_STYLE ('',( #289 ) ) ;
#174 = AXIS2_PLACEMENT_3D ( 'NONE', #56, #106, #292 ) ;
#175 =( NAMED_UNIT ( * ) SI_UNIT ( $, .STERADIAN. ) SOLID_ANGLE_UNIT ( ) );
#176 = CARTESIAN_POINT ( 'NONE',  ( 0.000000000000000000, 4.250000000000000000, -0.5000000000000000000 ) ) ;
#177 = DIMENSIONAL_EXPONENTS ( 1.000000000000000000, 0.000000000000000000, 0.000000000000000000, 0.000000000000000000, 0.000000000000000000, 0.000000000000000000, 0.000000000000000000 ) ;
#178 = DIRECTION ( 'NONE',  ( 0.000000000000000000, 0.000000000000000000, 1.000000000000000000 ) ) ;
#179 = VECTOR ( 'NONE', #290, 39.37007874015748143 ) ;
#180 = DIRECTION ( 'NONE',  ( 0.000000000000000000, 0.000000000000000000, -1.000000000000000000 ) ) ;
#181 =( CONVERSION_BASED_UNIT ( 'INCH', #229 ) LENGTH_UNIT ( ) NAMED_UNIT ( #21 ) );
#182 = MECHANICAL_DESIGN_GEOMETRIC_PRESENTATION_REPRESENTATION (  '', ( #199 ), #118 ) ;
#183 = MECHANICAL_DESIGN_GEOMETRIC_PRESENTATION_REPRESENTATION (  '', ( #249 ), #2 ) ;
#184 = DIRECTION ( 'NONE',  ( -1.000000000000000000, 0.000000000000000000, 0.000000000000000000 ) ) ;
#185 = ORIENTED_EDGE ( 'NONE', *, *, #73, .F. ) ;
#186 = CARTESIAN_POINT ( 'NONE',  ( -1.224646799147351975E-16, 7.000000000000000000, 0.000000000000000000 ) ) ;
#187 = SURFACE_SIDE_STYLE ('',( #92 ) ) ;
#188 = DIRECTION ( 'NONE',  ( -0.000000000000000000, -1.000000000000000000, -0.000000000000000000 ) ) ;
#189 = AXIS2_PLACEMENT_3D ( 'NONE', #265, #244, #269 ) ;
#190 = PRESENTATION_LAYER_ASSIGNMENT (  '', '', ( #122 ) ) ;
#191 = FILL_AREA_STYLE_COLOUR ( '', #6 ) ;
#192 = ADVANCED_BREP_SHAPE_REPRESENTATION ( '44447W', ( #145, #245, #161 ), #291 ) ;
#193 = ORIENTED_EDGE ( 'NONE', *, *, #149, .F. ) ;
#194 = CARTESIAN_POINT ( 'NONE',  ( 0.000000000000000000, 0.000000000000000000, -0.5000000000000000000 ) ) ;
#195 = LINE ( 'NONE', #66, #63 ) ;
#196 = VERTEX_POINT ( 'NONE', #176 ) ;
#197 = ADVANCED_FACE ( 'NONE', ( #132 ), #232, .T. ) ;
#198 = DIRECTION ( 'NONE',  ( 0.000000000000000000, -1.000000000000000000, -0.000000000000000000 ) ) ;
#199 = STYLED_ITEM ( 'NONE', ( #153 ), #145 ) ;
#200 = MECHANICAL_DESIGN_GEOMETRIC_PRESENTATION_REPRESENTATION (  '', ( #219 ), #57 ) ;
#201 = ADVANCED_FACE ( 'NONE', ( #298 ), #154, .F. ) ;
#202 = CARTESIAN_POINT ( 'NONE',  ( 0.000000000000000000, 0.000000000000000000, -0.5000000000000000000 ) ) ;
#203 = DIMENSIONAL_EXPONENTS ( 1.000000000000000000, 0.000000000000000000, 0.000000000000000000, 0.000000000000000000, 0.000000000000000000, 0.000000000000000000, 0.000000000000000000 ) ;
#204 = PRODUCT_DEFINITION ( 'UNKNOWN', '', #24, #127 ) ;
#205 = SURFACE_STYLE_USAGE ( .BOTH. , #98 ) ;
#206 = CYLINDRICAL_SURFACE ( 'NONE', #168, 0.5000000000000000000 ) ;
#207 = EDGE_CURVE ( 'NONE', #280, #171, #19, .T. ) ;
#208 = LENGTH_MEASURE_WITH_UNIT ( LENGTH_MEASURE( 0.02539999999999999897 ), #274 );
#209 = EDGE_LOOP ( 'NONE', ( #89, #159, #23, #170 ) ) ;
#210 = CLOSED_SHELL ( 'NONE', ( #272, #17, #197, #201 ) ) ;
#211 = AXIS2_PLACEMENT_3D ( 'NONE', #259, #260, #140 ) ;
#212 = UNCERTAINTY_MEASURE_WITH_UNIT (LENGTH_MEASURE( 1.000000000000000082E-05 ), #102, 'distance_accuracy_value', 'NONE');
#213 = ADVANCED_FACE ( 'NONE', ( #55 ), #216, .T. ) ;
#214 = CARTESIAN_POINT ( 'NONE',  ( -1.224646799147351975E-16, 7.000000000000000000, 0.000000000000000000 ) ) ;
#215 = ORIENTED_EDGE ( 'NONE', *, *, #73, .T. ) ;
#216 = CYLINDRICAL_SURFACE ( 'NONE', #142, 0.5000000000000000000 ) ;
#217 = ORIENTED_EDGE ( 'NONE', *, *, #105, .F. ) ;
#218 = DIRECTION ( 'NONE',  ( -4.453261087808552747E-17, 1.000000000000000000, -0.000000000000000000 ) ) ;
#219 = STYLED_ITEM ( 'NONE', ( #5 ), #225 ) ;
#220 = FILL_AREA_STYLE ('',( #191 ) ) ;
#221 = DIMENSIONAL_EXPONENTS ( 1.000000000000000000, 0.000000000000000000, 0.000000000000000000, 0.000000000000000000, 0.000000000000000000, 0.000000000000000000, 0.000000000000000000 ) ;
#222 = COLOUR_RGB ( '',1.000000000000000000, 0.000000000000000000, 0.000000000000000000 ) ;
#223 = EDGE_LOOP ( 'NONE', ( #147, #136, #60, #217 ) ) ;
#224 = LENGTH_MEASURE_WITH_UNIT ( LENGTH_MEASURE( 0.02539999999999999897 ), #30 );
#225 = ADVANCED_FACE ( 'NONE', ( #80 ), #206, .T. ) ;
#226 = SHAPE_DEFINITION_REPRESENTATION ( #293, #192 ) ;
#227 =( CONVERSION_BASED_UNIT ( 'INCH', #78 ) LENGTH_UNIT ( ) NAMED_UNIT ( #177 ) );
#228 = SURFACE_STYLE_USAGE ( .BOTH. , #31 ) ;
#229 = LENGTH_MEASURE_WITH_UNIT ( LENGTH_MEASURE( 0.02539999999999999897 ), #129 );
#230 = FILL_AREA_STYLE_COLOUR ( '', #34 ) ;
#231 = EDGE_LOOP ( 'NONE', ( #46, #254 ) ) ;
#232 = CYLINDRICAL_SURFACE ( 'NONE', #156, 0.5000000000000001110 ) ;
#233 = AXIS2_PLACEMENT_3D ( 'NONE', #35, #299, #64 ) ;
#234 = CARTESIAN_POINT ( 'NONE',  ( -0.5000000000000002220, 7.000000000000000000, 0.000000000000000000 ) ) ;
#235 = VERTEX_POINT ( 'NONE', #194 ) ;
#236 = CARTESIAN_POINT ( 'NONE',  ( 0.000000000000000000, 4.250000000000000000, 0.000000000000000000 ) ) ;
#237 = DIRECTION ( 'NONE',  ( -0.000000000000000000, -1.000000000000000000, -0.000000000000000000 ) ) ;
#238 = CIRCLE ( 'NONE', #211, 0.5000000000000000000 ) ;
#239 = CYLINDRICAL_SURFACE ( 'NONE', #119, 0.5000000000000001110 ) ;
#240 =( CONVERSION_BASED_UNIT ( 'INCH', #45 ) LENGTH_UNIT ( ) NAMED_UNIT ( #221 ) );
#241 = FILL_AREA_STYLE_COLOUR ( '', #135 ) ;
#242 = EDGE_LOOP ( 'NONE', ( #117, #215, #14, #96 ) ) ;
#243 = PRODUCT_CONTEXT ( 'NONE', #131, 'mechanical' ) ;
#244 = DIRECTION ( 'NONE',  ( -4.453261087808552747E-17, 1.000000000000000000, -0.000000000000000000 ) ) ;
#245 = MANIFOLD_SOLID_BREP ( 'Revolve - Tool Body (Straight Shanked)', #210 ) ;
#246 = FACE_OUTER_BOUND ( 'NONE', #138, .T. ) ;
#247 = SURFACE_STYLE_FILL_AREA ( #54 ) ;
#248 = ADVANCED_FACE ( 'NONE', ( #112 ), #279, .T. ) ;
#249 = STYLED_ITEM ( 'NONE', ( #271 ), #213 ) ;
#250 = UNCERTAINTY_MEASURE_WITH_UNIT (LENGTH_MEASURE( 1.000000000000000082E-05 ), #227, 'distance_accuracy_value', 'NONE');
#251 = FILL_AREA_STYLE ('',( #230 ) ) ;
#252 = DIRECTION ( 'NONE',  ( 0.000000000000000000, 0.000000000000000000, -1.000000000000000000 ) ) ;
#253 =( NAMED_UNIT ( * ) SI_UNIT ( $, .STERADIAN. ) SOLID_ANGLE_UNIT ( ) );
#254 = ORIENTED_EDGE ( 'NONE', *, *, #143, .T. ) ;
#255 = CIRCLE ( 'NONE', #303, 0.5000000000000000000 ) ;
#256 = CARTESIAN_POINT ( 'NONE',  ( 0.000000000000000000, 4.250000000000000000, 0.000000000000000000 ) ) ;
#257 = DIRECTION ( 'NONE',  ( 0.000000000000000000, 0.000000000000000000, -1.000000000000000000 ) ) ;
#258 = EDGE_CURVE ( 'NONE', #235, #302, #238, .T. ) ;
#259 = CARTESIAN_POINT ( 'NONE',  ( 0.000000000000000000, 0.000000000000000000, 0.000000000000000000 ) ) ;
#260 = DIRECTION ( 'NONE',  ( -0.000000000000000000, -1.000000000000000000, -0.000000000000000000 ) ) ;
#261 =( NAMED_UNIT ( * ) PLANE_ANGLE_UNIT ( ) SI_UNIT ( $, .RADIAN. ) );
#262 = ORIENTED_EDGE ( 'NONE', *, *, #27, .T. ) ;
#263 =( NAMED_UNIT ( * ) PLANE_ANGLE_UNIT ( ) SI_UNIT ( $, .RADIAN. ) );
#264 = APPLICATION_PROTOCOL_DEFINITION ( 'draft international standard', 'automotive_design', 1998, #131 ) ;
#265 = CARTESIAN_POINT ( 'NONE',  ( -1.224646799147351975E-16, 7.000000000000000000, 0.000000000000000000 ) ) ;
#266 =( CONVERSION_BASED_UNIT ( 'INCH', #172 ) LENGTH_UNIT ( ) NAMED_UNIT ( #43 ) );
#267 = CARTESIAN_POINT ( 'NONE',  ( 6.123233995736766036E-17, 0.000000000000000000, 0.5000000000000000000 ) ) ;
#268 = AXIS2_PLACEMENT_3D ( 'NONE', #107, #109, #82 ) ;
#269 = DIRECTION ( 'NONE',  ( -1.000000000000000000, 0.000000000000000000, 0.000000000000000000 ) ) ;
#270 = FILL_AREA_STYLE_COLOUR ( '', #222 ) ;
#271 = PRESENTATION_STYLE_ASSIGNMENT (( #13 ) ) ;
#272 = ADVANCED_FACE ( 'NONE', ( #139 ), #239, .T. ) ;
#273 = ORIENTED_EDGE ( 'NONE', *, *, #105, .T. ) ;
#274 =( LENGTH_UNIT ( ) NAMED_UNIT ( * ) SI_UNIT ( $, .METRE. ) );
#275 = ORIENTED_EDGE ( 'NONE', *, *, #143, .F. ) ;
#276 = PRESENTATION_STYLE_ASSIGNMENT (( #40 ) ) ;
#277 = ORIENTED_EDGE ( 'NONE', *, *, #42, .F. ) ;
#278 = EDGE_LOOP ( 'NONE', ( #301, #277 ) ) ;
#279 = PLANE ( 'NONE',  #94 ) ;
#280 = VERTEX_POINT ( 'NONE', #91 ) ;
#281 = FILL_AREA_STYLE_COLOUR ( '', #62 ) ;
#282 = DIMENSIONAL_EXPONENTS ( 1.000000000000000000, 0.000000000000000000, 0.000000000000000000, 0.000000000000000000, 0.000000000000000000, 0.000000000000000000, 0.000000000000000000 ) ;
#283 = CIRCLE ( 'NONE', #189, 0.5000000000000001110 ) ;
#284 = MECHANICAL_DESIGN_GEOMETRIC_PRESENTATION_REPRESENTATION (  '', ( #122 ), #104 ) ;
#285 = DIRECTION ( 'NONE',  ( -0.000000000000000000, -1.000000000000000000, -0.000000000000000000 ) ) ;
#286 = DIRECTION ( 'NONE',  ( -0.000000000000000000, -1.000000000000000000, -0.000000000000000000 ) ) ;
#287 = DIMENSIONAL_EXPONENTS ( 1.000000000000000000, 0.000000000000000000, 0.000000000000000000, 0.000000000000000000, 0.000000000000000000, 0.000000000000000000, 0.000000000000000000 ) ;
#288 = EDGE_CURVE ( 'NONE', #171, #67, #195, .T. ) ;
#289 = SURFACE_STYLE_FILL_AREA ( #50 ) ;
#290 = DIRECTION ( 'NONE',  ( -0.000000000000000000, -1.000000000000000000, -0.000000000000000000 ) ) ;
#291 =( GEOMETRIC_REPRESENTATION_CONTEXT ( 3 ) GLOBAL_UNCERTAINTY_ASSIGNED_CONTEXT ( ( #77 ) ) GLOBAL_UNIT_ASSIGNED_CONTEXT ( ( #266, #47, #3 ) ) REPRESENTATION_CONTEXT ( 'NONE', 'WORKASPACE' ) );
#292 = DIRECTION ( 'NONE',  ( 1.000000000000000000, 4.453261087808552747E-17, 0.000000000000000000 ) ) ;
#293 = PRODUCT_DEFINITION_SHAPE ( 'NONE', 'NONE',  #204 ) ;
#294 =( CONVERSION_BASED_UNIT ( 'INCH', #208 ) LENGTH_UNIT ( ) NAMED_UNIT ( #287 ) );
#295 = UNCERTAINTY_MEASURE_WITH_UNIT (LENGTH_MEASURE( 1.000000000000000082E-05 ), #240, 'distance_accuracy_value', 'NONE');
#296 = DIRECTION ( 'NONE',  ( -1.000000000000000000, 0.000000000000000000, 0.000000000000000000 ) ) ;
#297 = DIRECTION ( 'NONE',  ( -4.453261087808552747E-17, 1.000000000000000000, -0.000000000000000000 ) ) ;
#298 = FACE_OUTER_BOUND ( 'NONE', #231, .T. ) ;
#299 = DIRECTION ( 'NONE',  ( -4.453261087808552747E-17, 1.000000000000000000, 0.000000000000000000 ) ) ;
#300 = DIRECTION ( 'NONE',  ( -0.000000000000000000, -1.000000000000000000, -0.000000000000000000 ) ) ;
#301 = ORIENTED_EDGE ( 'NONE', *, *, #207, .F. ) ;
#302 = VERTEX_POINT ( 'NONE', #97 ) ;
#303 = AXIS2_PLACEMENT_3D ( 'NONE', #99, #285, #121 ) ;
#304 = SURFACE_STYLE_FILL_AREA ( #220 ) ;
#305 = DIRECTION ( 'NONE',  ( -4.453261087808552747E-17, 1.000000000000000000, -0.000000000000000000 ) ) ;
#306 = LENGTH_MEASURE_WITH_UNIT ( LENGTH_MEASURE( 0.02539999999999999897 ), #61 );
#307 = VECTOR ( 'NONE', #218, 39.37007874015748143 ) ;
#308 = AXIS2_PLACEMENT_3D ( 'NONE', #108, #157, #184 ) ;
#309 = EDGE_LOOP ( 'NONE', ( #15, #110, #273, #275 ) ) ;
ENDSEC;
END-ISO-10303-21;
