ISO-10303-21;
HEADER;
FILE_DESCRIPTION (( 'STEP AP214' ),
    '1' );
FILE_NAME ('84053.STEP',
    '2023-06-23T11:14:25',
    ( '' ),
    ( '' ),
    'SwSTEP 2.0',
    'SolidWorks 2023',
    '' );
FILE_SCHEMA (( 'AUTOMOTIVE_DESIGN' ));
ENDSEC;

DATA;
#1 = CARTESIAN_POINT ( 'NONE',  ( -0.09375000000000001388, 0.3125000000000000000, 0.000000000000000000 ) ) ;
#2 = PRESENTATION_LAYER_ASSIGNMENT (  '', '', ( #244 ) ) ;
#3 = PRESENTATION_LAYER_ASSIGNMENT (  '', '', ( #284 ) ) ;
#4 = ORIENTED_EDGE ( 'NONE', *, *, #341, .T. ) ;
#5 = PLANE ( 'NONE',  #271 ) ;
#6 = PRODUCT_RELATED_PRODUCT_CATEGORY ( 'part', '', ( #143 ) ) ;
#7 = LINE ( 'NONE', #111, #14 ) ;
#8 = FACE_OUTER_BOUND ( 'NONE', #223, .T. ) ;
#9 = FILL_AREA_STYLE_COLOUR ( '', #90 ) ;
#10 = STYLED_ITEM ( 'NONE', ( #152 ), #208 ) ;
#11 = DIRECTION ( 'NONE',  ( -1.000000000000000000, 0.000000000000000000, 0.000000000000000000 ) ) ;
#12 = SURFACE_STYLE_USAGE ( .BOTH. , #258 ) ;
#13 = FILL_AREA_STYLE_COLOUR ( '', #204 ) ;
#14 = VECTOR ( 'NONE', #174, 39.37007874015748143 ) ;
#15 = CIRCLE ( 'NONE', #19, 0.09375000000000001388 ) ;
#16 = CARTESIAN_POINT ( 'NONE',  ( 3.672881100396386749E-35, 0.3125000000000000000, 0.000000000000000000 ) ) ;
#17 =( LENGTH_UNIT ( ) NAMED_UNIT ( * ) SI_UNIT ( $, .METRE. ) );
#18 = AXIS2_PLACEMENT_3D ( 'NONE', #358, #216, #71 ) ;
#19 = AXIS2_PLACEMENT_3D ( 'NONE', #41, #265, #61 ) ;
#20 = CARTESIAN_POINT ( 'NONE',  ( -0.1250000000000000000, 0.4291265877365269543, 0.000000000000000000 ) ) ;
#21 = CARTESIAN_POINT ( 'NONE',  ( 0.000000000000000000, 0.000000000000000000, 0.000000000000000000 ) ) ;
#22 = PRESENTATION_STYLE_ASSIGNMENT (( #219 ) ) ;
#23 = ADVANCED_FACE ( 'NONE', ( #8 ), #24, .T. ) ;
#24 = CONICAL_SURFACE ( 'NONE', #97, 0.09375000000000001388, 0.2617993877991504625 ) ;
#25 = FILL_AREA_STYLE ('',( #161 ) ) ;
#26 =( GEOMETRIC_REPRESENTATION_CONTEXT ( 3 ) GLOBAL_UNCERTAINTY_ASSIGNED_CONTEXT ( ( #238 ) ) GLOBAL_UNIT_ASSIGNED_CONTEXT ( ( #243, #78, #276 ) ) REPRESENTATION_CONTEXT ( 'NONE', 'WORKASPACE' ) );
#27 = CARTESIAN_POINT ( 'NONE',  ( -3.264602911246068467E-18, 0.4291265877365269543, 0.000000000000000000 ) ) ;
#28 = ORIENTED_EDGE ( 'NONE', *, *, #32, .T. ) ;
#29 =( NAMED_UNIT ( * ) SI_UNIT ( $, .STERADIAN. ) SOLID_ANGLE_UNIT ( ) );
#30 = FILL_AREA_STYLE ('',( #277 ) ) ;
#31 = ORIENTED_EDGE ( 'NONE', *, *, #157, .F. ) ;
#32 = EDGE_CURVE ( 'NONE', #114, #49, #63, .T. ) ;
#33 = DIRECTION ( 'NONE',  ( -2.799192683765378812E-17, 1.000000000000000000, -0.000000000000000000 ) ) ;
#34 = ORIENTED_EDGE ( 'NONE', *, *, #196, .T. ) ;
#35 = COLOUR_RGB ( '',1.000000000000000000, 0.000000000000000000, 0.000000000000000000 ) ;
#36 = DIRECTION ( 'NONE',  ( 0.000000000000000000, 0.000000000000000000, -1.000000000000000000 ) ) ;
#37 = EDGE_CURVE ( 'NONE', #108, #250, #7, .T. ) ;
#38 = ORIENTED_EDGE ( 'NONE', *, *, #88, .T. ) ;
#39 = AXIS2_PLACEMENT_3D ( 'NONE', #124, #293, #93 ) ;
#40 = CARTESIAN_POINT ( 'NONE',  ( 0.000000000000000000, 0.000000000000000000, -0.09375000000000001388 ) ) ;
#41 = CARTESIAN_POINT ( 'NONE',  ( 7.582401355855259480E-33, 0.3125000000000000000, 0.000000000000000000 ) ) ;
#42 = PRESENTATION_LAYER_ASSIGNMENT (  '', '', ( #203 ) ) ;
#43 = MECHANICAL_DESIGN_GEOMETRIC_PRESENTATION_REPRESENTATION (  '', ( #340 ), #26 ) ;
#44 = ORIENTED_EDGE ( 'NONE', *, *, #196, .F. ) ;
#45 = CARTESIAN_POINT ( 'NONE',  ( 7.582401355855259480E-33, 0.3125000000000000000, 0.000000000000000000 ) ) ;
#46 = ORIENTED_EDGE ( 'NONE', *, *, #325, .F. ) ;
#47 = CIRCLE ( 'NONE', #66, 0.09375000000000001388 ) ;
#48 = DIRECTION ( 'NONE',  ( -1.000000000000000000, 0.000000000000000000, 0.000000000000000000 ) ) ;
#49 = VERTEX_POINT ( 'NONE', #225 ) ;
#50 = DIRECTION ( 'NONE',  ( -2.799192683765378812E-17, 1.000000000000000000, -0.000000000000000000 ) ) ;
#51 = SURFACE_STYLE_USAGE ( .BOTH. , #305 ) ;
#52 = ORIENTED_EDGE ( 'NONE', *, *, #234, .F. ) ;
#53 = ADVANCED_FACE ( 'NONE', ( #198 ), #135, .T. ) ;
#54 = DIRECTION ( 'NONE',  ( 0.000000000000000000, 1.000000000000000000, 0.000000000000000000 ) ) ;
#55 = ORIENTED_EDGE ( 'NONE', *, *, #218, .T. ) ;
#56 =( LENGTH_UNIT ( ) NAMED_UNIT ( * ) SI_UNIT ( $, .METRE. ) );
#57 = AXIS2_PLACEMENT_3D ( 'NONE', #122, #348, #213 ) ;
#58 = MECHANICAL_DESIGN_GEOMETRIC_PRESENTATION_REPRESENTATION (  '', ( #284 ), #264 ) ;
#59 = ADVANCED_FACE ( 'NONE', ( #79 ), #239, .T. ) ;
#60 = AXIS2_PLACEMENT_3D ( 'NONE', #45, #332, #70 ) ;
#61 = DIRECTION ( 'NONE',  ( -1.000000000000000000, 0.000000000000000000, 0.000000000000000000 ) ) ;
#62 = DIRECTION ( 'NONE',  ( -1.000000000000000000, 0.000000000000000000, 0.000000000000000000 ) ) ;
#63 = CIRCLE ( 'NONE', #83, 0.09375000000000001388 ) ;
#64 = CLOSED_SHELL ( 'NONE', ( #330, #59, #201, #23, #89, #110 ) ) ;
#65 = UNCERTAINTY_MEASURE_WITH_UNIT (LENGTH_MEASURE( 1.000000000000000082E-05 ), #288, 'distance_accuracy_value', 'NONE');
#66 = AXIS2_PLACEMENT_3D ( 'NONE', #112, #343, #260 ) ;
#67 = DIRECTION ( 'NONE',  ( -0.2588190451025217387, 0.9659258262890679791, 0.000000000000000000 ) ) ;
#68 =( CONVERSION_BASED_UNIT ( 'INCH', #101 ) LENGTH_UNIT ( ) NAMED_UNIT ( #142 ) );
#69 = ORIENTED_EDGE ( 'NONE', *, *, #218, .F. ) ;
#70 = DIRECTION ( 'NONE',  ( -1.000000000000000000, 0.000000000000000000, 0.000000000000000000 ) ) ;
#71 = DIRECTION ( 'NONE',  ( -1.000000000000000000, 0.000000000000000000, 0.000000000000000000 ) ) ;
#72 = ORIENTED_EDGE ( 'NONE', *, *, #32, .F. ) ;
#73 = AXIS2_PLACEMENT_3D ( 'NONE', #303, #338, #48 ) ;
#74 = DIRECTION ( 'NONE',  ( 0.2588190451025217387, 0.9659258262890679791, 3.169619151431776651E-17 ) ) ;
#75 = PRESENTATION_LAYER_ASSIGNMENT (  '', '', ( #340 ) ) ;
#76 = FILL_AREA_STYLE_COLOUR ( '', #210 ) ;
#77 = DIMENSIONAL_EXPONENTS ( 1.000000000000000000, 0.000000000000000000, 0.000000000000000000, 0.000000000000000000, 0.000000000000000000, 0.000000000000000000, 0.000000000000000000 ) ;
#78 =( NAMED_UNIT ( * ) PLANE_ANGLE_UNIT ( ) SI_UNIT ( $, .RADIAN. ) );
#79 = FACE_OUTER_BOUND ( 'NONE', #86, .T. ) ;
#80 = ORIENTED_EDGE ( 'NONE', *, *, #229, .T. ) ;
#81 = FILL_AREA_STYLE ('',( #76 ) ) ;
#82 = CARTESIAN_POINT ( 'NONE',  ( 7.582401355855259480E-33, 0.3125000000000000000, 0.000000000000000000 ) ) ;
#83 = AXIS2_PLACEMENT_3D ( 'NONE', #172, #283, #36 ) ;
#84 = DIMENSIONAL_EXPONENTS ( 1.000000000000000000, 0.000000000000000000, 0.000000000000000000, 0.000000000000000000, 0.000000000000000000, 0.000000000000000000, 0.000000000000000000 ) ;
#85 = COLOUR_RGB ( '',0.7921568627450980005, 0.8196078431372548767, 0.9333333333333333481 ) ;
#86 = EDGE_LOOP ( 'NONE', ( #34, #133, #52, #69 ) ) ;
#87 = LENGTH_MEASURE_WITH_UNIT ( LENGTH_MEASURE( 0.02539999999999999897 ), #56 );
#88 = EDGE_CURVE ( 'NONE', #108, #155, #126, .T. ) ;
#89 = ADVANCED_FACE ( 'NONE', ( #169 ), #188, .T. ) ;
#90 = COLOUR_RGB ( '',0.7921568627450980005, 0.8196078431372548767, 0.9333333333333333481 ) ;
#91 = CIRCLE ( 'NONE', #231, 0.09375000000000001388 ) ;
#92 = APPLICATION_PROTOCOL_DEFINITION ( 'draft international standard', 'automotive_design', 1998, #160 ) ;
#93 = DIRECTION ( 'NONE',  ( -1.000000000000000000, 0.000000000000000000, 0.000000000000000000 ) ) ;
#94 = ADVANCED_FACE ( 'NONE', ( #166 ), #5, .T. ) ;
#95 = PRODUCT_DEFINITION ( 'UNKNOWN', '', #98, #207 ) ;
#96 = UNCERTAINTY_MEASURE_WITH_UNIT (LENGTH_MEASURE( 1.000000000000000082E-05 ), #68, 'distance_accuracy_value', 'NONE');
#97 = AXIS2_PLACEMENT_3D ( 'NONE', #82, #256, #257 ) ;
#98 = PRODUCT_DEFINITION_FORMATION_WITH_SPECIFIED_SOURCE ( 'ANY', '', #143, .NOT_KNOWN. ) ;
#99 = CARTESIAN_POINT ( 'NONE',  ( 1.148106374200643863E-17, 0.000000000000000000, 0.09375000000000001388 ) ) ;
#100 =( NAMED_UNIT ( * ) PLANE_ANGLE_UNIT ( ) SI_UNIT ( $, .RADIAN. ) );
#101 = LENGTH_MEASURE_WITH_UNIT ( LENGTH_MEASURE( 0.02539999999999999897 ), #300 );
#102 = ORIENTED_EDGE ( 'NONE', *, *, #266, .T. ) ;
#103 = DIRECTION ( 'NONE',  ( -0.000000000000000000, -1.000000000000000000, -0.000000000000000000 ) ) ;
#104 = UNCERTAINTY_MEASURE_WITH_UNIT (LENGTH_MEASURE( 1.000000000000000082E-05 ), #240, 'distance_accuracy_value', 'NONE');
#105 = FACE_OUTER_BOUND ( 'NONE', #304, .T. ) ;
#106 = ORIENTED_EDGE ( 'NONE', *, *, #150, .F. ) ;
#107 =( LENGTH_UNIT ( ) NAMED_UNIT ( * ) SI_UNIT ( $, .METRE. ) );
#108 = VERTEX_POINT ( 'NONE', #233 ) ;
#109 = CARTESIAN_POINT ( 'NONE',  ( 0.000000000000000000, 0.000000000000000000, 0.000000000000000000 ) ) ;
#110 = ADVANCED_FACE ( 'NONE', ( #346 ), #173, .F. ) ;
#111 = CARTESIAN_POINT ( 'NONE',  ( 0.1249999999999999584, 2.500000000000000000, 1.530808498934191817E-17 ) ) ;
#112 = CARTESIAN_POINT ( 'NONE',  ( 0.000000000000000000, 0.000000000000000000, 0.000000000000000000 ) ) ;
#113 = DIRECTION ( 'NONE',  ( 2.799192683765378812E-17, -1.000000000000000000, 0.000000000000000000 ) ) ;
#114 = VERTEX_POINT ( 'NONE', #227 ) ;
#115 = MANIFOLD_SOLID_BREP ( 'Revolve - Tool Body (Reduced Cut Diameter)', #64 ) ;
#116 = AXIS2_PLACEMENT_3D ( 'NONE', #192, #138, #302 ) ;
#117 = PRESENTATION_STYLE_ASSIGNMENT (( #12 ) ) ;
#118 =( LENGTH_UNIT ( ) NAMED_UNIT ( * ) SI_UNIT ( $, .METRE. ) );
#119 =( GEOMETRIC_REPRESENTATION_CONTEXT ( 3 ) GLOBAL_UNCERTAINTY_ASSIGNED_CONTEXT ( ( #96 ) ) GLOBAL_UNIT_ASSIGNED_CONTEXT ( ( #68, #355, #187 ) ) REPRESENTATION_CONTEXT ( 'NONE', 'WORKASPACE' ) );
#120 = AXIS2_PLACEMENT_3D ( 'NONE', #21, #328, #251 ) ;
#121 = AXIS2_PLACEMENT_3D ( 'NONE', #16, #181, #319 ) ;
#122 = CARTESIAN_POINT ( 'NONE',  ( 0.000000000000000000, 0.000000000000000000, 0.000000000000000000 ) ) ;
#123 = UNCERTAINTY_MEASURE_WITH_UNIT (LENGTH_MEASURE( 1.000000000000000082E-05 ), #308, 'distance_accuracy_value', 'NONE');
#124 = CARTESIAN_POINT ( 'NONE',  ( -6.123233995736766036E-17, 2.500000000000000000, 0.000000000000000000 ) ) ;
#125 =( NAMED_UNIT ( * ) SI_UNIT ( $, .STERADIAN. ) SOLID_ANGLE_UNIT ( ) );
#126 = CIRCLE ( 'NONE', #163, 0.1250000000000000278 ) ;
#127 =( GEOMETRIC_REPRESENTATION_CONTEXT ( 3 ) GLOBAL_UNCERTAINTY_ASSIGNED_CONTEXT ( ( #176 ) ) GLOBAL_UNIT_ASSIGNED_CONTEXT ( ( #292, #269, #262 ) ) REPRESENTATION_CONTEXT ( 'NONE', 'WORKASPACE' ) );
#128 = UNCERTAINTY_MEASURE_WITH_UNIT (LENGTH_MEASURE( 1.000000000000000082E-05 ), #149, 'distance_accuracy_value', 'NONE');
#129 = ORIENTED_EDGE ( 'NONE', *, *, #266, .F. ) ;
#130 =( NAMED_UNIT ( * ) PLANE_ANGLE_UNIT ( ) SI_UNIT ( $, .RADIAN. ) );
#131 = VECTOR ( 'NONE', #272, 39.37007874015748143 ) ;
#132 = DIRECTION ( 'NONE',  ( -1.000000000000000000, 0.000000000000000000, 0.000000000000000000 ) ) ;
#133 = ORIENTED_EDGE ( 'NONE', *, *, #325, .T. ) ;
#134 = LINE ( 'NONE', #248, #322 ) ;
#135 = PLANE ( 'NONE',  #144 ) ;
#136 = ORIENTED_EDGE ( 'NONE', *, *, #341, .F. ) ;
#137 = ORIENTED_EDGE ( 'NONE', *, *, #88, .F. ) ;
#138 = DIRECTION ( 'NONE',  ( -0.000000000000000000, -1.000000000000000000, -0.000000000000000000 ) ) ;
#139 = EDGE_LOOP ( 'NONE', ( #298, #38, #80, #228 ) ) ;
#140 = ADVANCED_FACE ( 'NONE', ( #344 ), #146, .T. ) ;
#141 = ORIENTED_EDGE ( 'NONE', *, *, #263, .F. ) ;
#142 = DIMENSIONAL_EXPONENTS ( 1.000000000000000000, 0.000000000000000000, 0.000000000000000000, 0.000000000000000000, 0.000000000000000000, 0.000000000000000000, 0.000000000000000000 ) ;
#143 = PRODUCT ( '84053', '84053', '', ( #326 ) ) ;
#144 = AXIS2_PLACEMENT_3D ( 'NONE', #224, #54, #274 ) ;
#145 = CARTESIAN_POINT ( 'NONE',  ( 0.1250000000000000000, 2.500000000000000000, 0.000000000000000000 ) ) ;
#146 = CYLINDRICAL_SURFACE ( 'NONE', #180, 0.09375000000000001388 ) ;
#147 = CARTESIAN_POINT ( 'NONE',  ( -6.123233995736766036E-17, 2.500000000000000000, 0.000000000000000000 ) ) ;
#148 = CIRCLE ( 'NONE', #164, 0.1250000000000000555 ) ;
#149 =( CONVERSION_BASED_UNIT ( 'INCH', #241 ) LENGTH_UNIT ( ) NAMED_UNIT ( #77 ) );
#150 = EDGE_CURVE ( 'NONE', #356, #250, #148, .T. ) ;
#151 = FACE_OUTER_BOUND ( 'NONE', #359, .T. ) ;
#152 = PRESENTATION_STYLE_ASSIGNMENT (( #178 ) ) ;
#153 = VECTOR ( 'NONE', #50, 39.37007874015748143 ) ;
#154 = CARTESIAN_POINT ( 'NONE',  ( 0.000000000000000000, 0.000000000000000000, 0.000000000000000000 ) ) ;
#155 = VERTEX_POINT ( 'NONE', #20 ) ;
#156 = DIRECTION ( 'NONE',  ( -1.000000000000000000, 0.000000000000000000, 0.000000000000000000 ) ) ;
#157 = EDGE_CURVE ( 'NONE', #114, #162, #321, .T. ) ;
#158 = SURFACE_STYLE_FILL_AREA ( #30 ) ;
#159 = ORIENTED_EDGE ( 'NONE', *, *, #263, .T. ) ;
#160 = APPLICATION_CONTEXT ( 'automotive_design' ) ;
#161 = FILL_AREA_STYLE_COLOUR ( '', #85 ) ;
#162 = VERTEX_POINT ( 'NONE', #323 ) ;
#163 = AXIS2_PLACEMENT_3D ( 'NONE', #27, #246, #132 ) ;
#164 = AXIS2_PLACEMENT_3D ( 'NONE', #147, #209, #62 ) ;
#165 = DIRECTION ( 'NONE',  ( -0.000000000000000000, -1.000000000000000000, -0.000000000000000000 ) ) ;
#166 = FACE_OUTER_BOUND ( 'NONE', #253, .T. ) ;
#167 = EDGE_LOOP ( 'NONE', ( #306, #334, #141, #301 ) ) ;
#168 = CYLINDRICAL_SURFACE ( 'NONE', #211, 0.1250000000000000278 ) ;
#169 = FACE_OUTER_BOUND ( 'NONE', #139, .T. ) ;
#170 = ORIENTED_EDGE ( 'NONE', *, *, #37, .T. ) ;
#171 = CARTESIAN_POINT ( 'NONE',  ( -3.264602911246068467E-18, 0.4291265877365269543, 0.000000000000000000 ) ) ;
#172 = CARTESIAN_POINT ( 'NONE',  ( 0.000000000000000000, 0.3125000000000000000, 0.000000000000000000 ) ) ;
#173 = PLANE ( 'NONE',  #254 ) ;
#174 = DIRECTION ( 'NONE',  ( -2.799192683765378812E-17, 1.000000000000000000, -0.000000000000000000 ) ) ;
#175 = PRESENTATION_STYLE_ASSIGNMENT (( #197 ) ) ;
#176 = UNCERTAINTY_MEASURE_WITH_UNIT (LENGTH_MEASURE( 1.000000000000000082E-05 ), #292, 'distance_accuracy_value', 'NONE');
#177 = LENGTH_MEASURE_WITH_UNIT ( LENGTH_MEASURE( 0.02539999999999999897 ), #205 );
#178 = SURFACE_STYLE_USAGE ( .BOTH. , #289 ) ;
#179 = MECHANICAL_DESIGN_GEOMETRIC_PRESENTATION_REPRESENTATION (  '', ( #203 ), #220 ) ;
#180 = AXIS2_PLACEMENT_3D ( 'NONE', #154, #324, #347 ) ;
#181 = DIRECTION ( 'NONE',  ( -2.799192683765378812E-17, 1.000000000000000000, 0.000000000000000000 ) ) ;
#182 = FACE_OUTER_BOUND ( 'NONE', #339, .T. ) ;
#183 = STYLED_ITEM ( 'NONE', ( #175 ), #115 ) ;
#184 = DIRECTION ( 'NONE',  ( -2.799192683765378812E-17, 1.000000000000000000, -0.000000000000000000 ) ) ;
#185 = EDGE_CURVE ( 'NONE', #250, #356, #352, .T. ) ;
#186 = SURFACE_STYLE_FILL_AREA ( #25 ) ;
#187 =( NAMED_UNIT ( * ) SI_UNIT ( $, .STERADIAN. ) SOLID_ANGLE_UNIT ( ) );
#188 = CYLINDRICAL_SURFACE ( 'NONE', #73, 0.1250000000000000278 ) ;
#189 = VERTEX_POINT ( 'NONE', #40 ) ;
#190 = DIMENSIONAL_EXPONENTS ( 1.000000000000000000, 0.000000000000000000, 0.000000000000000000, 0.000000000000000000, 0.000000000000000000, 0.000000000000000000, 0.000000000000000000 ) ;
#191 = CIRCLE ( 'NONE', #116, 0.09375000000000001388 ) ;
#192 = CARTESIAN_POINT ( 'NONE',  ( 0.000000000000000000, 0.3125000000000000000, 0.000000000000000000 ) ) ;
#193 =( LENGTH_UNIT ( ) NAMED_UNIT ( * ) SI_UNIT ( $, .METRE. ) );
#194 = ORIENTED_EDGE ( 'NONE', *, *, #185, .T. ) ;
#195 = DIRECTION ( 'NONE',  ( 0.000000000000000000, 0.000000000000000000, -1.000000000000000000 ) ) ;
#196 = EDGE_CURVE ( 'NONE', #309, #331, #15, .T. ) ;
#197 = SURFACE_STYLE_USAGE ( .BOTH. , #342 ) ;
#198 = FACE_OUTER_BOUND ( 'NONE', #242, .T. ) ;
#199 = CLOSED_SHELL ( 'NONE', ( #140, #53, #208, #94 ) ) ;
#200 = VECTOR ( 'NONE', #67, 39.37007874015748854 ) ;
#201 = ADVANCED_FACE ( 'NONE', ( #182 ), #236, .F. ) ;
#202 = FILL_AREA_STYLE ('',( #9 ) ) ;
#203 = STYLED_ITEM ( 'NONE', ( #22 ), #94 ) ;
#204 = COLOUR_RGB ( '',1.000000000000000000, 0.000000000000000000, 0.000000000000000000 ) ;
#205 =( LENGTH_UNIT ( ) NAMED_UNIT ( * ) SI_UNIT ( $, .METRE. ) );
#206 = FILL_AREA_STYLE_COLOUR ( '', #35 ) ;
#207 = PRODUCT_DEFINITION_CONTEXT ( 'detailed design', #280, 'design' ) ;
#208 = ADVANCED_FACE ( 'NONE', ( #151 ), #349, .T. ) ;
#209 = DIRECTION ( 'NONE',  ( -2.799192683765378812E-17, 1.000000000000000000, -0.000000000000000000 ) ) ;
#210 = COLOUR_RGB ( '',1.000000000000000000, 0.000000000000000000, 0.000000000000000000 ) ;
#211 = AXIS2_PLACEMENT_3D ( 'NONE', #279, #33, #11 ) ;
#212 = LENGTH_MEASURE_WITH_UNIT ( LENGTH_MEASURE( 0.02539999999999999897 ), #118 );
#213 = DIRECTION ( 'NONE',  ( 1.000000000000000000, 0.000000000000000000, 0.000000000000000000 ) ) ;
#214 = FILL_AREA_STYLE ('',( #206 ) ) ;
#215 = ORIENTED_EDGE ( 'NONE', *, *, #320, .F. ) ;
#216 = DIRECTION ( 'NONE',  ( -2.799192683765378812E-17, 1.000000000000000000, -0.000000000000000000 ) ) ;
#217 = LINE ( 'NONE', #299, #153 ) ;
#218 = EDGE_CURVE ( 'NONE', #309, #155, #296, .T. ) ;
#219 = SURFACE_STYLE_USAGE ( .BOTH. , #249 ) ;
#220 =( GEOMETRIC_REPRESENTATION_CONTEXT ( 3 ) GLOBAL_UNCERTAINTY_ASSIGNED_CONTEXT ( ( #123 ) ) GLOBAL_UNIT_ASSIGNED_CONTEXT ( ( #308, #130, #255 ) ) REPRESENTATION_CONTEXT ( 'NONE', 'WORKASPACE' ) );
#221 = CIRCLE ( 'NONE', #291, 0.1250000000000000278 ) ;
#222 = SURFACE_STYLE_USAGE ( .BOTH. , #281 ) ;
#223 = EDGE_LOOP ( 'NONE', ( #46, #102, #55, #137 ) ) ;
#224 = CARTESIAN_POINT ( 'NONE',  ( 0.000000000000000000, 0.3125000000000000000, 0.000000000000000000 ) ) ;
#225 = CARTESIAN_POINT ( 'NONE',  ( 0.000000000000000000, 0.3125000000000000000, -0.09375000000000001388 ) ) ;
#226 = DIMENSIONAL_EXPONENTS ( 1.000000000000000000, 0.000000000000000000, 0.000000000000000000, 0.000000000000000000, 0.000000000000000000, 0.000000000000000000, 0.000000000000000000 ) ;
#227 = CARTESIAN_POINT ( 'NONE',  ( 1.148106374200643863E-17, 0.3125000000000000000, 0.09375000000000001388 ) ) ;
#228 = ORIENTED_EDGE ( 'NONE', *, *, #185, .F. ) ;
#229 = EDGE_CURVE ( 'NONE', #155, #356, #217, .T. ) ;
#230 = DIMENSIONAL_EXPONENTS ( 1.000000000000000000, 0.000000000000000000, 0.000000000000000000, 0.000000000000000000, 0.000000000000000000, 0.000000000000000000, 0.000000000000000000 ) ;
#231 = AXIS2_PLACEMENT_3D ( 'NONE', #333, #103, #195 ) ;
#232 = DIRECTION ( 'NONE',  ( 1.000000000000000000, 2.799192683765378812E-17, 0.000000000000000000 ) ) ;
#233 = CARTESIAN_POINT ( 'NONE',  ( 0.1250000000000000000, 0.4291265877365269543, 1.530808498934191509E-17 ) ) ;
#234 = EDGE_CURVE ( 'NONE', #155, #108, #221, .T. ) ;
#235 = MECHANICAL_DESIGN_GEOMETRIC_PRESENTATION_REPRESENTATION (  '', ( #183 ), #282 ) ;
#236 = PLANE ( 'NONE',  #121 ) ;
#237 = MANIFOLD_SOLID_BREP ( 'Revolve - Cutting Edge', #199 ) ;
#238 = UNCERTAINTY_MEASURE_WITH_UNIT (LENGTH_MEASURE( 1.000000000000000082E-05 ), #243, 'distance_accuracy_value', 'NONE');
#239 = CONICAL_SURFACE ( 'NONE', #18, 0.09375000000000001388, 0.2617993877991504625 ) ;
#240 =( CONVERSION_BASED_UNIT ( 'INCH', #212 ) LENGTH_UNIT ( ) NAMED_UNIT ( #226 ) );
#241 = LENGTH_MEASURE_WITH_UNIT ( LENGTH_MEASURE( 0.02539999999999999897 ), #17 );
#242 = EDGE_LOOP ( 'NONE', ( #215, #72 ) ) ;
#243 =( CONVERSION_BASED_UNIT ( 'INCH', #335 ) LENGTH_UNIT ( ) NAMED_UNIT ( #190 ) );
#244 = STYLED_ITEM ( 'NONE', ( #336 ), #53 ) ;
#245 = PRESENTATION_LAYER_ASSIGNMENT (  '', '', ( #10 ) ) ;
#246 = DIRECTION ( 'NONE',  ( -2.799192683765378812E-17, 1.000000000000000000, -0.000000000000000000 ) ) ;
#247 = ORIENTED_EDGE ( 'NONE', *, *, #268, .T. ) ;
#248 = CARTESIAN_POINT ( 'NONE',  ( 0.09375000000000001388, 0.3125000000000000000, 1.148106374200643863E-17 ) ) ;
#249 = SURFACE_SIDE_STYLE ('',( #158 ) ) ;
#250 = VERTEX_POINT ( 'NONE', #354 ) ;
#251 = DIRECTION ( 'NONE',  ( 0.000000000000000000, 0.000000000000000000, -1.000000000000000000 ) ) ;
#252 = LENGTH_MEASURE_WITH_UNIT ( LENGTH_MEASURE( 0.02539999999999999897 ), #193 );
#253 = EDGE_LOOP ( 'NONE', ( #159, #4 ) ) ;
#254 = AXIS2_PLACEMENT_3D ( 'NONE', #145, #113, #232 ) ;
#255 =( NAMED_UNIT ( * ) SI_UNIT ( $, .STERADIAN. ) SOLID_ANGLE_UNIT ( ) );
#256 = DIRECTION ( 'NONE',  ( -2.799192683765378812E-17, 1.000000000000000000, -0.000000000000000000 ) ) ;
#257 = DIRECTION ( 'NONE',  ( -1.000000000000000000, 0.000000000000000000, 0.000000000000000000 ) ) ;
#258 = SURFACE_SIDE_STYLE ('',( #287 ) ) ;
#259 = DIMENSIONAL_EXPONENTS ( 1.000000000000000000, 0.000000000000000000, 0.000000000000000000, 0.000000000000000000, 0.000000000000000000, 0.000000000000000000, 0.000000000000000000 ) ;
#260 = DIRECTION ( 'NONE',  ( 0.000000000000000000, 0.000000000000000000, -1.000000000000000000 ) ) ;
#261 = FILL_AREA_STYLE ('',( #13 ) ) ;
#262 =( NAMED_UNIT ( * ) SI_UNIT ( $, .STERADIAN. ) SOLID_ANGLE_UNIT ( ) );
#263 = EDGE_CURVE ( 'NONE', #189, #162, #91, .T. ) ;
#264 =( GEOMETRIC_REPRESENTATION_CONTEXT ( 3 ) GLOBAL_UNCERTAINTY_ASSIGNED_CONTEXT ( ( #104 ) ) GLOBAL_UNIT_ASSIGNED_CONTEXT ( ( #240, #270, #125 ) ) REPRESENTATION_CONTEXT ( 'NONE', 'WORKASPACE' ) );
#265 = DIRECTION ( 'NONE',  ( -2.799192683765378812E-17, 1.000000000000000000, -0.000000000000000000 ) ) ;
#266 = EDGE_CURVE ( 'NONE', #331, #309, #329, .T. ) ;
#267 = SHAPE_DEFINITION_REPRESENTATION ( #312, #311 ) ;
#268 = EDGE_CURVE ( 'NONE', #49, #189, #307, .T. ) ;
#269 =( NAMED_UNIT ( * ) PLANE_ANGLE_UNIT ( ) SI_UNIT ( $, .RADIAN. ) );
#270 =( NAMED_UNIT ( * ) PLANE_ANGLE_UNIT ( ) SI_UNIT ( $, .RADIAN. ) );
#271 = AXIS2_PLACEMENT_3D ( 'NONE', #109, #297, #318 ) ;
#272 = DIRECTION ( 'NONE',  ( -0.000000000000000000, -1.000000000000000000, -0.000000000000000000 ) ) ;
#273 = ORIENTED_EDGE ( 'NONE', *, *, #229, .F. ) ;
#274 = DIRECTION ( 'NONE',  ( 0.000000000000000000, -0.000000000000000000, 1.000000000000000000 ) ) ;
#275 =( GEOMETRIC_REPRESENTATION_CONTEXT ( 3 ) GLOBAL_UNCERTAINTY_ASSIGNED_CONTEXT ( ( #128 ) ) GLOBAL_UNIT_ASSIGNED_CONTEXT ( ( #149, #100, #29 ) ) REPRESENTATION_CONTEXT ( 'NONE', 'WORKASPACE' ) );
#276 =( NAMED_UNIT ( * ) SI_UNIT ( $, .STERADIAN. ) SOLID_ANGLE_UNIT ( ) );
#277 = FILL_AREA_STYLE_COLOUR ( '', #286 ) ;
#278 = ORIENTED_EDGE ( 'NONE', *, *, #150, .T. ) ;
#279 = CARTESIAN_POINT ( 'NONE',  ( -6.123233995736766036E-17, 2.500000000000000000, 0.000000000000000000 ) ) ;
#280 = APPLICATION_CONTEXT ( 'automotive_design' ) ;
#281 = SURFACE_SIDE_STYLE ('',( #186 ) ) ;
#282 =( GEOMETRIC_REPRESENTATION_CONTEXT ( 3 ) GLOBAL_UNCERTAINTY_ASSIGNED_CONTEXT ( ( #65 ) ) GLOBAL_UNIT_ASSIGNED_CONTEXT ( ( #288, #317, #316 ) ) REPRESENTATION_CONTEXT ( 'NONE', 'WORKASPACE' ) );
#283 = DIRECTION ( 'NONE',  ( -0.000000000000000000, -1.000000000000000000, -0.000000000000000000 ) ) ;
#284 = STYLED_ITEM ( 'NONE', ( #117 ), #140 ) ;
#285 = CARTESIAN_POINT ( 'NONE',  ( -0.1250000000000001388, 2.500000000000000000, 0.000000000000000000 ) ) ;
#286 = COLOUR_RGB ( '',1.000000000000000000, 0.000000000000000000, 0.000000000000000000 ) ;
#287 = SURFACE_STYLE_FILL_AREA ( #261 ) ;
#288 =( CONVERSION_BASED_UNIT ( 'INCH', #87 ) LENGTH_UNIT ( ) NAMED_UNIT ( #259 ) );
#289 = SURFACE_SIDE_STYLE ('',( #327 ) ) ;
#290 = MECHANICAL_DESIGN_GEOMETRIC_PRESENTATION_REPRESENTATION (  '', ( #244 ), #119 ) ;
#291 = AXIS2_PLACEMENT_3D ( 'NONE', #171, #184, #156 ) ;
#292 =( CONVERSION_BASED_UNIT ( 'INCH', #177 ) LENGTH_UNIT ( ) NAMED_UNIT ( #84 ) );
#293 = DIRECTION ( 'NONE',  ( -2.799192683765378812E-17, 1.000000000000000000, -0.000000000000000000 ) ) ;
#294 = APPLICATION_PROTOCOL_DEFINITION ( 'draft international standard', 'automotive_design', 1998, #280 ) ;
#295 = PRESENTATION_LAYER_ASSIGNMENT (  '', '', ( #183 ) ) ;
#296 = LINE ( 'NONE', #1, #200 ) ;
#297 = DIRECTION ( 'NONE',  ( 0.000000000000000000, -1.000000000000000000, -0.000000000000000000 ) ) ;
#298 = ORIENTED_EDGE ( 'NONE', *, *, #37, .F. ) ;
#299 = CARTESIAN_POINT ( 'NONE',  ( -0.1250000000000001110, 2.500000000000000000, 0.000000000000000000 ) ) ;
#300 =( LENGTH_UNIT ( ) NAMED_UNIT ( * ) SI_UNIT ( $, .METRE. ) );
#301 = ORIENTED_EDGE ( 'NONE', *, *, #268, .F. ) ;
#302 = DIRECTION ( 'NONE',  ( 0.000000000000000000, 0.000000000000000000, -1.000000000000000000 ) ) ;
#303 = CARTESIAN_POINT ( 'NONE',  ( -6.123233995736766036E-17, 2.500000000000000000, 0.000000000000000000 ) ) ;
#304 = EDGE_LOOP ( 'NONE', ( #337, #170, #106, #273 ) ) ;
#305 = SURFACE_SIDE_STYLE ('',( #353 ) ) ;
#306 = ORIENTED_EDGE ( 'NONE', *, *, #320, .T. ) ;
#307 = LINE ( 'NONE', #357, #345 ) ;
#308 =( CONVERSION_BASED_UNIT ( 'INCH', #252 ) LENGTH_UNIT ( ) NAMED_UNIT ( #230 ) );
#309 = VERTEX_POINT ( 'NONE', #350 ) ;
#310 = CARTESIAN_POINT ( 'NONE',  ( 0.09375000000000001388, 0.3125000000000000000, 1.339457436567417686E-17 ) ) ;
#311 = ADVANCED_BREP_SHAPE_REPRESENTATION ( '84053', ( #237, #115, #57 ), #127 ) ;
#312 = PRODUCT_DEFINITION_SHAPE ( 'NONE', 'NONE',  #95 ) ;
#313 = EDGE_LOOP ( 'NONE', ( #278, #194 ) ) ;
#314 = MECHANICAL_DESIGN_GEOMETRIC_PRESENTATION_REPRESENTATION (  '', ( #10 ), #275 ) ;
#315 = SURFACE_STYLE_FILL_AREA ( #202 ) ;
#316 =( NAMED_UNIT ( * ) SI_UNIT ( $, .STERADIAN. ) SOLID_ANGLE_UNIT ( ) );
#317 =( NAMED_UNIT ( * ) PLANE_ANGLE_UNIT ( ) SI_UNIT ( $, .RADIAN. ) );
#318 = DIRECTION ( 'NONE',  ( 0.000000000000000000, 0.000000000000000000, -1.000000000000000000 ) ) ;
#319 = DIRECTION ( 'NONE',  ( -1.000000000000000000, -2.799192683765378812E-17, 0.000000000000000000 ) ) ;
#320 = EDGE_CURVE ( 'NONE', #49, #114, #191, .T. ) ;
#321 = LINE ( 'NONE', #99, #131 ) ;
#322 = VECTOR ( 'NONE', #74, 39.37007874015748854 ) ;
#323 = CARTESIAN_POINT ( 'NONE',  ( 1.148106374200643863E-17, 0.000000000000000000, 0.09375000000000001388 ) ) ;
#324 = DIRECTION ( 'NONE',  ( -0.000000000000000000, -1.000000000000000000, -0.000000000000000000 ) ) ;
#325 = EDGE_CURVE ( 'NONE', #331, #108, #134, .T. ) ;
#326 = PRODUCT_CONTEXT ( 'NONE', #160, 'mechanical' ) ;
#327 = SURFACE_STYLE_FILL_AREA ( #214 ) ;
#328 = DIRECTION ( 'NONE',  ( -0.000000000000000000, -1.000000000000000000, -0.000000000000000000 ) ) ;
#329 = CIRCLE ( 'NONE', #60, 0.09375000000000001388 ) ;
#330 = ADVANCED_FACE ( 'NONE', ( #105 ), #168, .T. ) ;
#331 = VERTEX_POINT ( 'NONE', #310 ) ;
#332 = DIRECTION ( 'NONE',  ( -2.799192683765378812E-17, 1.000000000000000000, -0.000000000000000000 ) ) ;
#333 = CARTESIAN_POINT ( 'NONE',  ( 0.000000000000000000, 0.000000000000000000, 0.000000000000000000 ) ) ;
#334 = ORIENTED_EDGE ( 'NONE', *, *, #157, .T. ) ;
#335 = LENGTH_MEASURE_WITH_UNIT ( LENGTH_MEASURE( 0.02539999999999999897 ), #107 );
#336 = PRESENTATION_STYLE_ASSIGNMENT (( #51 ) ) ;
#337 = ORIENTED_EDGE ( 'NONE', *, *, #234, .T. ) ;
#338 = DIRECTION ( 'NONE',  ( -2.799192683765378812E-17, 1.000000000000000000, -0.000000000000000000 ) ) ;
#339 = EDGE_LOOP ( 'NONE', ( #44, #129 ) ) ;
#340 = STYLED_ITEM ( 'NONE', ( #351 ), #237 ) ;
#341 = EDGE_CURVE ( 'NONE', #162, #189, #47, .T. ) ;
#342 = SURFACE_SIDE_STYLE ('',( #315 ) ) ;
#343 = DIRECTION ( 'NONE',  ( -0.000000000000000000, -1.000000000000000000, -0.000000000000000000 ) ) ;
#344 = FACE_OUTER_BOUND ( 'NONE', #167, .T. ) ;
#345 = VECTOR ( 'NONE', #165, 39.37007874015748143 ) ;
#346 = FACE_OUTER_BOUND ( 'NONE', #313, .T. ) ;
#347 = DIRECTION ( 'NONE',  ( 0.000000000000000000, 0.000000000000000000, -1.000000000000000000 ) ) ;
#348 = DIRECTION ( 'NONE',  ( 0.000000000000000000, 0.000000000000000000, 1.000000000000000000 ) ) ;
#349 = CYLINDRICAL_SURFACE ( 'NONE', #120, 0.09375000000000001388 ) ;
#350 = CARTESIAN_POINT ( 'NONE',  ( -0.09375000000000001388, 0.3125000000000000000, 0.000000000000000000 ) ) ;
#351 = PRESENTATION_STYLE_ASSIGNMENT (( #222 ) ) ;
#352 = CIRCLE ( 'NONE', #39, 0.1250000000000000555 ) ;
#353 = SURFACE_STYLE_FILL_AREA ( #81 ) ;
#354 = CARTESIAN_POINT ( 'NONE',  ( 0.1250000000000000278, 2.500000000000000000, 1.530808498934192125E-17 ) ) ;
#355 =( NAMED_UNIT ( * ) PLANE_ANGLE_UNIT ( ) SI_UNIT ( $, .RADIAN. ) );
#356 = VERTEX_POINT ( 'NONE', #285 ) ;
#357 = CARTESIAN_POINT ( 'NONE',  ( 0.000000000000000000, 0.000000000000000000, -0.09375000000000001388 ) ) ;
#358 = CARTESIAN_POINT ( 'NONE',  ( 7.582401355855259480E-33, 0.3125000000000000000, 0.000000000000000000 ) ) ;
#359 = EDGE_LOOP ( 'NONE', ( #31, #28, #247, #136 ) ) ;
ENDSEC;
END-ISO-10303-21;
