ISO-10303-21;
HEADER;
FILE_DESCRIPTION (( 'STEP AP214' ),
    '1' );
FILE_NAME ('59946.STEP',
    '2023-06-23T00:15:49',
    ( '' ),
    ( '' ),
    'SwSTEP 2.0',
    'SolidWorks 2023',
    '' );
FILE_SCHEMA (( 'AUTOMOTIVE_DESIGN' ));
ENDSEC;

DATA;
#1 = DIRECTION ( 'NONE',  ( 0.000000000000000000, 0.000000000000000000, -1.000000000000000000 ) ) ;
#2 = SURFACE_STYLE_USAGE ( .BOTH. , #58 ) ;
#3 = LINE ( 'NONE', #138, #165 ) ;
#4 = CIRCLE ( 'NONE', #244, 0.2500000000000000000 ) ;
#5 = FILL_AREA_STYLE_COLOUR ( '', #190 ) ;
#6 = DIRECTION ( 'NONE',  ( 0.000000000000000000, 0.000000000000000000, 1.000000000000000000 ) ) ;
#7 = PLANE ( 'NONE',  #297 ) ;
#8 = EDGE_LOOP ( 'NONE', ( #154, #307, #259, #265 ) ) ;
#9 = LENGTH_MEASURE_WITH_UNIT ( LENGTH_MEASURE( 0.02539999999999999897 ), #299 );
#10 =( GEOMETRIC_REPRESENTATION_CONTEXT ( 3 ) GLOBAL_UNCERTAINTY_ASSIGNED_CONTEXT ( ( #242 ) ) GLOBAL_UNIT_ASSIGNED_CONTEXT ( ( #231, #298, #117 ) ) REPRESENTATION_CONTEXT ( 'NONE', 'WORKASPACE' ) );
#11 = CARTESIAN_POINT ( 'NONE',  ( 1.171687330204578608E-34, 1.000000000000000000, 0.000000000000000000 ) ) ;
#12 = ORIENTED_EDGE ( 'NONE', *, *, #98, .F. ) ;
#13 = CARTESIAN_POINT ( 'NONE',  ( 7.582401355855259480E-33, 1.000000000000000000, 0.000000000000000000 ) ) ;
#14 = VERTEX_POINT ( 'NONE', #127 ) ;
#15 = SURFACE_STYLE_FILL_AREA ( #241 ) ;
#16 = STYLED_ITEM ( 'NONE', ( #93 ), #27 ) ;
#17 = MANIFOLD_SOLID_BREP ( 'Revolve - Tool Body (Straight Shanked)', #33 ) ;
#18 = FACE_OUTER_BOUND ( 'NONE', #192, .T. ) ;
#19 = DIRECTION ( 'NONE',  ( -0.000000000000000000, -1.000000000000000000, -0.000000000000000000 ) ) ;
#20 = ORIENTED_EDGE ( 'NONE', *, *, #98, .T. ) ;
#21 = ORIENTED_EDGE ( 'NONE', *, *, #160, .F. ) ;
#22 = CARTESIAN_POINT ( 'NONE',  ( -6.123233995736772199E-17, 3.000000000000000444, 0.000000000000000000 ) ) ;
#23 = CARTESIAN_POINT ( 'NONE',  ( 0.000000000000000000, 0.000000000000000000, -0.2500000000000000000 ) ) ;
#24 =( NAMED_UNIT ( * ) PLANE_ANGLE_UNIT ( ) SI_UNIT ( $, .RADIAN. ) );
#25 = AXIS2_PLACEMENT_3D ( 'NONE', #163, #181, #31 ) ;
#26 = AXIS2_PLACEMENT_3D ( 'NONE', #65, #106, #35 ) ;
#27 = ADVANCED_FACE ( 'NONE', ( #18 ), #304, .T. ) ;
#28 =( CONVERSION_BASED_UNIT ( 'INCH', #280 ) LENGTH_UNIT ( ) NAMED_UNIT ( #248 ) );
#29 = SURFACE_STYLE_FILL_AREA ( #155 ) ;
#30 = DIRECTION ( 'NONE',  ( -0.000000000000000000, -1.000000000000000000, -0.000000000000000000 ) ) ;
#31 = DIRECTION ( 'NONE',  ( -1.000000000000000000, 0.000000000000000000, 0.000000000000000000 ) ) ;
#32 =( NAMED_UNIT ( * ) PLANE_ANGLE_UNIT ( ) SI_UNIT ( $, .RADIAN. ) );
#33 = CLOSED_SHELL ( 'NONE', ( #42, #99, #113, #191 ) ) ;
#34 = VERTEX_POINT ( 'NONE', #107 ) ;
#35 = DIRECTION ( 'NONE',  ( 0.000000000000000000, -0.000000000000000000, 1.000000000000000000 ) ) ;
#36 = CARTESIAN_POINT ( 'NONE',  ( 0.000000000000000000, 0.000000000000000000, 0.000000000000000000 ) ) ;
#37 =( GEOMETRIC_REPRESENTATION_CONTEXT ( 3 ) GLOBAL_UNCERTAINTY_ASSIGNED_CONTEXT ( ( #48 ) ) GLOBAL_UNIT_ASSIGNED_CONTEXT ( ( #177, #24, #77 ) ) REPRESENTATION_CONTEXT ( 'NONE', 'WORKASPACE' ) );
#38 = DIRECTION ( 'NONE',  ( -1.000000000000000000, -3.061616997868386099E-17, 0.000000000000000000 ) ) ;
#39 = FACE_OUTER_BOUND ( 'NONE', #213, .T. ) ;
#40 = VERTEX_POINT ( 'NONE', #23 ) ;
#41 = CARTESIAN_POINT ( 'NONE',  ( 0.2499999999999999722, 3.000000000000000444, 3.061616997868383634E-17 ) ) ;
#42 = ADVANCED_FACE ( 'NONE', ( #78 ), #50, .T. ) ;
#43 = SURFACE_SIDE_STYLE ('',( #282 ) ) ;
#44 = AXIS2_PLACEMENT_3D ( 'NONE', #161, #6, #296 ) ;
#45 = ADVANCED_FACE ( 'NONE', ( #53 ), #56, .T. ) ;
#46 =( CONVERSION_BASED_UNIT ( 'INCH', #217 ) LENGTH_UNIT ( ) NAMED_UNIT ( #201 ) );
#47 = ORIENTED_EDGE ( 'NONE', *, *, #246, .F. ) ;
#48 = UNCERTAINTY_MEASURE_WITH_UNIT (LENGTH_MEASURE( 1.000000000000000082E-05 ), #177, 'distance_accuracy_value', 'NONE');
#49 = EDGE_LOOP ( 'NONE', ( #89, #47 ) ) ;
#50 = CYLINDRICAL_SURFACE ( 'NONE', #142, 0.2500000000000000555 ) ;
#51 = PRESENTATION_LAYER_ASSIGNMENT (  '', '', ( #249 ) ) ;
#52 = CIRCLE ( 'NONE', #169, 0.2500000000000000000 ) ;
#53 = FACE_OUTER_BOUND ( 'NONE', #8, .T. ) ;
#54 = FILL_AREA_STYLE_COLOUR ( '', #245 ) ;
#55 = DIRECTION ( 'NONE',  ( 0.000000000000000000, 0.000000000000000000, -1.000000000000000000 ) ) ;
#56 = CYLINDRICAL_SURFACE ( 'NONE', #225, 0.2500000000000000000 ) ;
#57 = STYLED_ITEM ( 'NONE', ( #193 ), #17 ) ;
#58 = SURFACE_SIDE_STYLE ('',( #29 ) ) ;
#59 =( LENGTH_UNIT ( ) NAMED_UNIT ( * ) SI_UNIT ( $, .METRE. ) );
#60 = CARTESIAN_POINT ( 'NONE',  ( -6.123233995736772199E-17, 3.000000000000000444, 0.000000000000000000 ) ) ;
#61 = SURFACE_SIDE_STYLE ('',( #183 ) ) ;
#62 = EDGE_CURVE ( 'NONE', #34, #14, #4, .T. ) ;
#63 = DIRECTION ( 'NONE',  ( 0.000000000000000000, 0.000000000000000000, -1.000000000000000000 ) ) ;
#64 = AXIS2_PLACEMENT_3D ( 'NONE', #36, #256, #279 ) ;
#65 = CARTESIAN_POINT ( 'NONE',  ( 0.000000000000000000, 1.000000000000000000, 0.000000000000000000 ) ) ;
#66 =( NAMED_UNIT ( * ) SI_UNIT ( $, .STERADIAN. ) SOLID_ANGLE_UNIT ( ) );
#67 =( CONVERSION_BASED_UNIT ( 'INCH', #285 ) LENGTH_UNIT ( ) NAMED_UNIT ( #140 ) );
#68 = PLANE ( 'NONE',  #150 ) ;
#69 = ORIENTED_EDGE ( 'NONE', *, *, #266, .F. ) ;
#70 = SURFACE_SIDE_STYLE ('',( #15 ) ) ;
#71 = CIRCLE ( 'NONE', #305, 0.2500000000000000555 ) ;
#72 = EDGE_LOOP ( 'NONE', ( #21, #139, #92, #141 ) ) ;
#73 =( NAMED_UNIT ( * ) SI_UNIT ( $, .STERADIAN. ) SOLID_ANGLE_UNIT ( ) );
#74 = VECTOR ( 'NONE', #19, 39.37007874015748143 ) ;
#75 = DIRECTION ( 'NONE',  ( 1.000000000000000000, 3.061616997868386099E-17, 0.000000000000000000 ) ) ;
#76 = CARTESIAN_POINT ( 'NONE',  ( 0.000000000000000000, 1.000000000000000000, -0.2500000000000000000 ) ) ;
#77 =( NAMED_UNIT ( * ) SI_UNIT ( $, .STERADIAN. ) SOLID_ANGLE_UNIT ( ) );
#78 = FACE_OUTER_BOUND ( 'NONE', #184, .T. ) ;
#79 = PRESENTATION_LAYER_ASSIGNMENT (  '', '', ( #57 ) ) ;
#80 = FACE_OUTER_BOUND ( 'NONE', #72, .T. ) ;
#81 = CARTESIAN_POINT ( 'NONE',  ( 0.2500000000000000000, 3.000000000000000444, 3.061616997868383634E-17 ) ) ;
#82 = COLOUR_RGB ( '',1.000000000000000000, 0.000000000000000000, 0.000000000000000000 ) ;
#83 = CYLINDRICAL_SURFACE ( 'NONE', #25, 0.2500000000000000555 ) ;
#84 = UNCERTAINTY_MEASURE_WITH_UNIT (LENGTH_MEASURE( 1.000000000000000082E-05 ), #195, 'distance_accuracy_value', 'NONE');
#85 = VERTEX_POINT ( 'NONE', #81 ) ;
#86 = CARTESIAN_POINT ( 'NONE',  ( 0.2500000000000000000, 3.000000000000000444, 0.000000000000000000 ) ) ;
#87 = ORIENTED_EDGE ( 'NONE', *, *, #62, .T. ) ;
#88 = AXIS2_PLACEMENT_3D ( 'NONE', #276, #294, #204 ) ;
#89 = ORIENTED_EDGE ( 'NONE', *, *, #62, .F. ) ;
#90 = LINE ( 'NONE', #41, #136 ) ;
#91 = EDGE_CURVE ( 'NONE', #111, #40, #262, .T. ) ;
#92 = ORIENTED_EDGE ( 'NONE', *, *, #224, .T. ) ;
#93 = PRESENTATION_STYLE_ASSIGNMENT (( #240 ) ) ;
#94 = MECHANICAL_DESIGN_GEOMETRIC_PRESENTATION_REPRESENTATION (  '', ( #57 ), #221 ) ;
#95 = CIRCLE ( 'NONE', #88, 0.2500000000000000000 ) ;
#96 = SURFACE_STYLE_FILL_AREA ( #286 ) ;
#97 = ORIENTED_EDGE ( 'NONE', *, *, #149, .T. ) ;
#98 = EDGE_CURVE ( 'NONE', #216, #264, #131, .T. ) ;
#99 = ADVANCED_FACE ( 'NONE', ( #206 ), #7, .F. ) ;
#100 = DIRECTION ( 'NONE',  ( -3.061616997868386099E-17, 1.000000000000000000, -0.000000000000000000 ) ) ;
#101 = DIMENSIONAL_EXPONENTS ( 1.000000000000000000, 0.000000000000000000, 0.000000000000000000, 0.000000000000000000, 0.000000000000000000, 0.000000000000000000, 0.000000000000000000 ) ;
#102 =( GEOMETRIC_REPRESENTATION_CONTEXT ( 3 ) GLOBAL_UNCERTAINTY_ASSIGNED_CONTEXT ( ( #293 ) ) GLOBAL_UNIT_ASSIGNED_CONTEXT ( ( #198, #270, #166 ) ) REPRESENTATION_CONTEXT ( 'NONE', 'WORKASPACE' ) );
#103 = CARTESIAN_POINT ( 'NONE',  ( 7.582401355855259480E-33, 1.000000000000000000, 0.000000000000000000 ) ) ;
#104 = UNCERTAINTY_MEASURE_WITH_UNIT (LENGTH_MEASURE( 1.000000000000000082E-05 ), #67, 'distance_accuracy_value', 'NONE');
#105 = DIMENSIONAL_EXPONENTS ( 1.000000000000000000, 0.000000000000000000, 0.000000000000000000, 0.000000000000000000, 0.000000000000000000, 0.000000000000000000, 0.000000000000000000 ) ;
#106 = DIRECTION ( 'NONE',  ( 0.000000000000000000, 1.000000000000000000, 0.000000000000000000 ) ) ;
#107 = CARTESIAN_POINT ( 'NONE',  ( -0.2500000000000000000, 1.000000000000000000, 0.000000000000000000 ) ) ;
#108 = STYLED_ITEM ( 'NONE', ( #133 ), #45 ) ;
#109 = CARTESIAN_POINT ( 'NONE',  ( 3.061616997868383018E-17, 1.000000000000000000, 0.2500000000000000000 ) ) ;
#110 = FILL_AREA_STYLE ('',( #5 ) ) ;
#111 = VERTEX_POINT ( 'NONE', #251 ) ;
#112 = DIRECTION ( 'NONE',  ( 0.000000000000000000, 0.000000000000000000, -1.000000000000000000 ) ) ;
#113 = ADVANCED_FACE ( 'NONE', ( #80 ), #83, .T. ) ;
#114 = ORIENTED_EDGE ( 'NONE', *, *, #91, .T. ) ;
#115 = DIRECTION ( 'NONE',  ( -1.000000000000000000, 0.000000000000000000, 0.000000000000000000 ) ) ;
#116 = MECHANICAL_DESIGN_GEOMETRIC_PRESENTATION_REPRESENTATION (  '', ( #249 ), #10 ) ;
#117 =( NAMED_UNIT ( * ) SI_UNIT ( $, .STERADIAN. ) SOLID_ANGLE_UNIT ( ) );
#118 = UNCERTAINTY_MEASURE_WITH_UNIT (LENGTH_MEASURE( 1.000000000000000082E-05 ), #46, 'distance_accuracy_value', 'NONE');
#119 = FILL_AREA_STYLE_COLOUR ( '', #126 ) ;
#120 = EDGE_CURVE ( 'NONE', #239, #85, #71, .T. ) ;
#121 = PRESENTATION_LAYER_ASSIGNMENT (  '', '', ( #253 ) ) ;
#122 = DIRECTION ( 'NONE',  ( -1.000000000000000000, 0.000000000000000000, 0.000000000000000000 ) ) ;
#123 = FILL_AREA_STYLE_COLOUR ( '', #82 ) ;
#124 = DIRECTION ( 'NONE',  ( 0.000000000000000000, 0.000000000000000000, -1.000000000000000000 ) ) ;
#125 =( LENGTH_UNIT ( ) NAMED_UNIT ( * ) SI_UNIT ( $, .METRE. ) );
#126 = COLOUR_RGB ( '',1.000000000000000000, 0.000000000000000000, 0.000000000000000000 ) ;
#127 = CARTESIAN_POINT ( 'NONE',  ( 0.2500000000000000000, 1.000000000000000000, 3.061616997868383634E-17 ) ) ;
#128 = MANIFOLD_SOLID_BREP ( 'Revolve - Cutting Edge', #308 ) ;
#129 = FILL_AREA_STYLE_COLOUR ( '', #203 ) ;
#130 = DIMENSIONAL_EXPONENTS ( 1.000000000000000000, 0.000000000000000000, 0.000000000000000000, 0.000000000000000000, 0.000000000000000000, 0.000000000000000000, 0.000000000000000000 ) ;
#131 = CIRCLE ( 'NONE', #267, 0.2500000000000000000 ) ;
#132 = DIRECTION ( 'NONE',  ( -3.061616997868386099E-17, 1.000000000000000000, -0.000000000000000000 ) ) ;
#133 = PRESENTATION_STYLE_ASSIGNMENT (( #2 ) ) ;
#134 = PRODUCT_CONTEXT ( 'NONE', #199, 'mechanical' ) ;
#135 = DIRECTION ( 'NONE',  ( -3.061616997868386099E-17, 1.000000000000000000, -0.000000000000000000 ) ) ;
#136 = VECTOR ( 'NONE', #300, 39.37007874015748143 ) ;
#137 = VECTOR ( 'NONE', #180, 39.37007874015748143 ) ;
#138 = CARTESIAN_POINT ( 'NONE',  ( -0.2500000000000001110, 3.000000000000000444, 0.000000000000000000 ) ) ;
#139 = ORIENTED_EDGE ( 'NONE', *, *, #246, .T. ) ;
#140 = DIMENSIONAL_EXPONENTS ( 1.000000000000000000, 0.000000000000000000, 0.000000000000000000, 0.000000000000000000, 0.000000000000000000, 0.000000000000000000, 0.000000000000000000 ) ;
#141 = ORIENTED_EDGE ( 'NONE', *, *, #157, .F. ) ;
#142 = AXIS2_PLACEMENT_3D ( 'NONE', #22, #175, #269 ) ;
#143 = STYLED_ITEM ( 'NONE', ( #247 ), #212 ) ;
#144 = DIRECTION ( 'NONE',  ( -1.000000000000000000, 0.000000000000000000, 0.000000000000000000 ) ) ;
#145 = PRODUCT_DEFINITION_CONTEXT ( 'detailed design', #215, 'design' ) ;
#146 = SURFACE_STYLE_USAGE ( .BOTH. , #43 ) ;
#147 = SURFACE_SIDE_STYLE ('',( #288 ) ) ;
#148 = ORIENTED_EDGE ( 'NONE', *, *, #255, .F. ) ;
#149 = EDGE_CURVE ( 'NONE', #264, #111, #229, .T. ) ;
#150 = AXIS2_PLACEMENT_3D ( 'NONE', #86, #189, #75 ) ;
#151 = SURFACE_SIDE_STYLE ('',( #96 ) ) ;
#152 = PLANE ( 'NONE',  #26 ) ;
#153 =( LENGTH_UNIT ( ) NAMED_UNIT ( * ) SI_UNIT ( $, .METRE. ) );
#154 = ORIENTED_EDGE ( 'NONE', *, *, #149, .F. ) ;
#155 = FILL_AREA_STYLE ('',( #129 ) ) ;
#156 = PRODUCT_DEFINITION_SHAPE ( 'NONE', 'NONE',  #277 ) ;
#157 = EDGE_CURVE ( 'NONE', #85, #239, #173, .T. ) ;
#158 = FILL_AREA_STYLE ('',( #54 ) ) ;
#159 = DIRECTION ( 'NONE',  ( -3.061616997868386099E-17, 1.000000000000000000, -0.000000000000000000 ) ) ;
#160 = EDGE_CURVE ( 'NONE', #14, #85, #90, .T. ) ;
#161 = CARTESIAN_POINT ( 'NONE',  ( 0.000000000000000000, 0.000000000000000000, 0.000000000000000000 ) ) ;
#162 = PRESENTATION_STYLE_ASSIGNMENT (( #186 ) ) ;
#163 = CARTESIAN_POINT ( 'NONE',  ( -6.123233995736772199E-17, 3.000000000000000444, 0.000000000000000000 ) ) ;
#164 = ORIENTED_EDGE ( 'NONE', *, *, #157, .T. ) ;
#165 = VECTOR ( 'NONE', #159, 39.37007874015748143 ) ;
#166 =( NAMED_UNIT ( * ) SI_UNIT ( $, .STERADIAN. ) SOLID_ANGLE_UNIT ( ) );
#167 = PRESENTATION_STYLE_ASSIGNMENT (( #260 ) ) ;
#168 = ADVANCED_FACE ( 'NONE', ( #219 ), #258, .T. ) ;
#169 = AXIS2_PLACEMENT_3D ( 'NONE', #252, #30, #112 ) ;
#170 = LENGTH_MEASURE_WITH_UNIT ( LENGTH_MEASURE( 0.02539999999999999897 ), #125 );
#171 =( NAMED_UNIT ( * ) PLANE_ANGLE_UNIT ( ) SI_UNIT ( $, .RADIAN. ) );
#172 = EDGE_LOOP ( 'NONE', ( #12, #302 ) ) ;
#173 = CIRCLE ( 'NONE', #214, 0.2500000000000000555 ) ;
#174 = CIRCLE ( 'NONE', #306, 0.2500000000000000000 ) ;
#175 = DIRECTION ( 'NONE',  ( -3.061616997868386099E-17, 1.000000000000000000, -0.000000000000000000 ) ) ;
#176 = LENGTH_MEASURE_WITH_UNIT ( LENGTH_MEASURE( 0.02539999999999999897 ), #223 );
#177 =( CONVERSION_BASED_UNIT ( 'INCH', #176 ) LENGTH_UNIT ( ) NAMED_UNIT ( #272 ) );
#178 = CARTESIAN_POINT ( 'NONE',  ( 0.000000000000000000, 0.000000000000000000, 0.000000000000000000 ) ) ;
#179 = PRESENTATION_LAYER_ASSIGNMENT (  '', '', ( #16 ) ) ;
#180 = DIRECTION ( 'NONE',  ( -0.000000000000000000, -1.000000000000000000, -0.000000000000000000 ) ) ;
#181 = DIRECTION ( 'NONE',  ( -3.061616997868386099E-17, 1.000000000000000000, -0.000000000000000000 ) ) ;
#182 = APPLICATION_PROTOCOL_DEFINITION ( 'draft international standard', 'automotive_design', 1998, #199 ) ;
#183 = SURFACE_STYLE_FILL_AREA ( #110 ) ;
#184 = EDGE_LOOP ( 'NONE', ( #87, #254, #188, #211 ) ) ;
#185 = APPLICATION_PROTOCOL_DEFINITION ( 'draft international standard', 'automotive_design', 1998, #215 ) ;
#186 = SURFACE_STYLE_USAGE ( .BOTH. , #61 ) ;
#187 = DIRECTION ( 'NONE',  ( -3.061616997868386099E-17, 1.000000000000000000, 0.000000000000000000 ) ) ;
#188 = ORIENTED_EDGE ( 'NONE', *, *, #120, .F. ) ;
#189 = DIRECTION ( 'NONE',  ( 3.061616997868386099E-17, -1.000000000000000000, 0.000000000000000000 ) ) ;
#190 = COLOUR_RGB ( '',0.7921568627450980005, 0.8196078431372548767, 0.9333333333333333481 ) ;
#191 = ADVANCED_FACE ( 'NONE', ( #39 ), #68, .F. ) ;
#192 = EDGE_LOOP ( 'NONE', ( #234, #114 ) ) ;
#193 = PRESENTATION_STYLE_ASSIGNMENT (( #237 ) ) ;
#194 = PRESENTATION_LAYER_ASSIGNMENT (  '', '', ( #108 ) ) ;
#195 =( CONVERSION_BASED_UNIT ( 'INCH', #220 ) LENGTH_UNIT ( ) NAMED_UNIT ( #105 ) );
#196 = FILL_AREA_STYLE ('',( #222 ) ) ;
#197 = PRODUCT ( '59946', '59946', '', ( #134 ) ) ;
#198 =( CONVERSION_BASED_UNIT ( 'INCH', #170 ) LENGTH_UNIT ( ) NAMED_UNIT ( #130 ) );
#199 = APPLICATION_CONTEXT ( 'automotive_design' ) ;
#200 = DIRECTION ( 'NONE',  ( -0.000000000000000000, -1.000000000000000000, -0.000000000000000000 ) ) ;
#201 = DIMENSIONAL_EXPONENTS ( 1.000000000000000000, 0.000000000000000000, 0.000000000000000000, 0.000000000000000000, 0.000000000000000000, 0.000000000000000000, 0.000000000000000000 ) ;
#202 = SHAPE_DEFINITION_REPRESENTATION ( #156, #228 ) ;
#203 = COLOUR_RGB ( '',1.000000000000000000, 0.000000000000000000, 0.000000000000000000 ) ;
#204 = DIRECTION ( 'NONE',  ( 0.000000000000000000, 0.000000000000000000, -1.000000000000000000 ) ) ;
#205 = ORIENTED_EDGE ( 'NONE', *, *, #120, .T. ) ;
#206 = FACE_OUTER_BOUND ( 'NONE', #49, .T. ) ;
#207 = COLOUR_RGB ( '',0.7921568627450980005, 0.8196078431372548767, 0.9333333333333333481 ) ;
#208 =( GEOMETRIC_REPRESENTATION_CONTEXT ( 3 ) GLOBAL_UNCERTAINTY_ASSIGNED_CONTEXT ( ( #227 ) ) GLOBAL_UNIT_ASSIGNED_CONTEXT ( ( #28, #32, #278 ) ) REPRESENTATION_CONTEXT ( 'NONE', 'WORKASPACE' ) );
#209 = CARTESIAN_POINT ( 'NONE',  ( 3.061616997868383018E-17, 0.000000000000000000, 0.2500000000000000000 ) ) ;
#210 = DIRECTION ( 'NONE',  ( -0.000000000000000000, -1.000000000000000000, -0.000000000000000000 ) ) ;
#211 = ORIENTED_EDGE ( 'NONE', *, *, #224, .F. ) ;
#212 = ADVANCED_FACE ( 'NONE', ( #303 ), #152, .T. ) ;
#213 = EDGE_LOOP ( 'NONE', ( #205, #164 ) ) ;
#214 = AXIS2_PLACEMENT_3D ( 'NONE', #238, #100, #122 ) ;
#215 = APPLICATION_CONTEXT ( 'automotive_design' ) ;
#216 = VERTEX_POINT ( 'NONE', #76 ) ;
#217 = LENGTH_MEASURE_WITH_UNIT ( LENGTH_MEASURE( 0.02539999999999999897 ), #236 );
#218 =( LENGTH_UNIT ( ) NAMED_UNIT ( * ) SI_UNIT ( $, .METRE. ) );
#219 = FACE_OUTER_BOUND ( 'NONE', #243, .T. ) ;
#220 = LENGTH_MEASURE_WITH_UNIT ( LENGTH_MEASURE( 0.02539999999999999897 ), #153 );
#221 =( GEOMETRIC_REPRESENTATION_CONTEXT ( 3 ) GLOBAL_UNCERTAINTY_ASSIGNED_CONTEXT ( ( #104 ) ) GLOBAL_UNIT_ASSIGNED_CONTEXT ( ( #67, #171, #261 ) ) REPRESENTATION_CONTEXT ( 'NONE', 'WORKASPACE' ) );
#222 = FILL_AREA_STYLE_COLOUR ( '', #207 ) ;
#223 =( LENGTH_UNIT ( ) NAMED_UNIT ( * ) SI_UNIT ( $, .METRE. ) );
#224 = EDGE_CURVE ( 'NONE', #34, #239, #3, .T. ) ;
#225 = AXIS2_PLACEMENT_3D ( 'NONE', #250, #200, #1 ) ;
#226 = MECHANICAL_DESIGN_GEOMETRIC_PRESENTATION_REPRESENTATION (  '', ( #143 ), #301 ) ;
#227 = UNCERTAINTY_MEASURE_WITH_UNIT (LENGTH_MEASURE( 1.000000000000000082E-05 ), #28, 'distance_accuracy_value', 'NONE');
#228 = ADVANCED_BREP_SHAPE_REPRESENTATION ( '59946', ( #128, #17, #44 ), #208 ) ;
#229 = LINE ( 'NONE', #209, #74 ) ;
#230 = CARTESIAN_POINT ( 'NONE',  ( 0.000000000000000000, 0.000000000000000000, -0.2500000000000000000 ) ) ;
#231 =( CONVERSION_BASED_UNIT ( 'INCH', #9 ) LENGTH_UNIT ( ) NAMED_UNIT ( #101 ) );
#232 = PRODUCT_RELATED_PRODUCT_CATEGORY ( 'part', '', ( #197 ) ) ;
#233 = MECHANICAL_DESIGN_GEOMETRIC_PRESENTATION_REPRESENTATION (  '', ( #16 ), #273 ) ;
#234 = ORIENTED_EDGE ( 'NONE', *, *, #266, .T. ) ;
#235 = AXIS2_PLACEMENT_3D ( 'NONE', #291, #263, #124 ) ;
#236 =( LENGTH_UNIT ( ) NAMED_UNIT ( * ) SI_UNIT ( $, .METRE. ) );
#237 = SURFACE_STYLE_USAGE ( .BOTH. , #147 ) ;
#238 = CARTESIAN_POINT ( 'NONE',  ( -6.123233995736772199E-17, 3.000000000000000444, 0.000000000000000000 ) ) ;
#239 = VERTEX_POINT ( 'NONE', #271 ) ;
#240 = SURFACE_STYLE_USAGE ( .BOTH. , #151 ) ;
#241 = FILL_AREA_STYLE ('',( #119 ) ) ;
#242 = UNCERTAINTY_MEASURE_WITH_UNIT (LENGTH_MEASURE( 1.000000000000000082E-05 ), #231, 'distance_accuracy_value', 'NONE');
#243 = EDGE_LOOP ( 'NONE', ( #20, #97, #69, #148 ) ) ;
#244 = AXIS2_PLACEMENT_3D ( 'NONE', #13, #281, #115 ) ;
#245 = COLOUR_RGB ( '',1.000000000000000000, 0.000000000000000000, 0.000000000000000000 ) ;
#246 = EDGE_CURVE ( 'NONE', #14, #34, #174, .T. ) ;
#247 = PRESENTATION_STYLE_ASSIGNMENT (( #146 ) ) ;
#248 = DIMENSIONAL_EXPONENTS ( 1.000000000000000000, 0.000000000000000000, 0.000000000000000000, 0.000000000000000000, 0.000000000000000000, 0.000000000000000000, 0.000000000000000000 ) ;
#249 = STYLED_ITEM ( 'NONE', ( #162 ), #128 ) ;
#250 = CARTESIAN_POINT ( 'NONE',  ( 0.000000000000000000, 0.000000000000000000, 0.000000000000000000 ) ) ;
#251 = CARTESIAN_POINT ( 'NONE',  ( 3.061616997868383018E-17, 0.000000000000000000, 0.2500000000000000000 ) ) ;
#252 = CARTESIAN_POINT ( 'NONE',  ( 0.000000000000000000, 0.000000000000000000, 0.000000000000000000 ) ) ;
#253 = STYLED_ITEM ( 'NONE', ( #167 ), #168 ) ;
#254 = ORIENTED_EDGE ( 'NONE', *, *, #160, .T. ) ;
#255 = EDGE_CURVE ( 'NONE', #216, #40, #309, .T. ) ;
#256 = DIRECTION ( 'NONE',  ( -0.000000000000000000, -1.000000000000000000, -0.000000000000000000 ) ) ;
#257 = CARTESIAN_POINT ( 'NONE',  ( 0.000000000000000000, 1.000000000000000000, 0.000000000000000000 ) ) ;
#258 = CYLINDRICAL_SURFACE ( 'NONE', #235, 0.2500000000000000000 ) ;
#259 = ORIENTED_EDGE ( 'NONE', *, *, #255, .T. ) ;
#260 = SURFACE_STYLE_USAGE ( .BOTH. , #70 ) ;
#261 =( NAMED_UNIT ( * ) SI_UNIT ( $, .STERADIAN. ) SOLID_ANGLE_UNIT ( ) );
#262 = CIRCLE ( 'NONE', #64, 0.2500000000000000000 ) ;
#263 = DIRECTION ( 'NONE',  ( -0.000000000000000000, -1.000000000000000000, -0.000000000000000000 ) ) ;
#264 = VERTEX_POINT ( 'NONE', #109 ) ;
#265 = ORIENTED_EDGE ( 'NONE', *, *, #91, .F. ) ;
#266 = EDGE_CURVE ( 'NONE', #40, #111, #52, .T. ) ;
#267 = AXIS2_PLACEMENT_3D ( 'NONE', #257, #210, #63 ) ;
#268 = PRESENTATION_LAYER_ASSIGNMENT (  '', '', ( #143 ) ) ;
#269 = DIRECTION ( 'NONE',  ( -1.000000000000000000, 0.000000000000000000, 0.000000000000000000 ) ) ;
#270 =( NAMED_UNIT ( * ) PLANE_ANGLE_UNIT ( ) SI_UNIT ( $, .RADIAN. ) );
#271 = CARTESIAN_POINT ( 'NONE',  ( -0.2500000000000001110, 3.000000000000000444, 0.000000000000000000 ) ) ;
#272 = DIMENSIONAL_EXPONENTS ( 1.000000000000000000, 0.000000000000000000, 0.000000000000000000, 0.000000000000000000, 0.000000000000000000, 0.000000000000000000, 0.000000000000000000 ) ;
#273 =( GEOMETRIC_REPRESENTATION_CONTEXT ( 3 ) GLOBAL_UNCERTAINTY_ASSIGNED_CONTEXT ( ( #84 ) ) GLOBAL_UNIT_ASSIGNED_CONTEXT ( ( #195, #289, #73 ) ) REPRESENTATION_CONTEXT ( 'NONE', 'WORKASPACE' ) );
#274 = PRODUCT_DEFINITION_FORMATION_WITH_SPECIFIED_SOURCE ( 'ANY', '', #197, .NOT_KNOWN. ) ;
#275 = DIRECTION ( 'NONE',  ( 0.000000000000000000, -1.000000000000000000, -0.000000000000000000 ) ) ;
#276 = CARTESIAN_POINT ( 'NONE',  ( 0.000000000000000000, 1.000000000000000000, 0.000000000000000000 ) ) ;
#277 = PRODUCT_DEFINITION ( 'UNKNOWN', '', #274, #145 ) ;
#278 =( NAMED_UNIT ( * ) SI_UNIT ( $, .STERADIAN. ) SOLID_ANGLE_UNIT ( ) );
#279 = DIRECTION ( 'NONE',  ( 0.000000000000000000, 0.000000000000000000, -1.000000000000000000 ) ) ;
#280 = LENGTH_MEASURE_WITH_UNIT ( LENGTH_MEASURE( 0.02539999999999999897 ), #59 );
#281 = DIRECTION ( 'NONE',  ( -3.061616997868386099E-17, 1.000000000000000000, -0.000000000000000000 ) ) ;
#282 = SURFACE_STYLE_FILL_AREA ( #158 ) ;
#283 = MECHANICAL_DESIGN_GEOMETRIC_PRESENTATION_REPRESENTATION (  '', ( #108 ), #37 ) ;
#284 =( NAMED_UNIT ( * ) PLANE_ANGLE_UNIT ( ) SI_UNIT ( $, .RADIAN. ) );
#285 = LENGTH_MEASURE_WITH_UNIT ( LENGTH_MEASURE( 0.02539999999999999897 ), #218 );
#286 = FILL_AREA_STYLE ('',( #123 ) ) ;
#287 = AXIS2_PLACEMENT_3D ( 'NONE', #178, #275, #55 ) ;
#288 = SURFACE_STYLE_FILL_AREA ( #196 ) ;
#289 =( NAMED_UNIT ( * ) PLANE_ANGLE_UNIT ( ) SI_UNIT ( $, .RADIAN. ) );
#290 = MECHANICAL_DESIGN_GEOMETRIC_PRESENTATION_REPRESENTATION (  '', ( #253 ), #102 ) ;
#291 = CARTESIAN_POINT ( 'NONE',  ( 0.000000000000000000, 0.000000000000000000, 0.000000000000000000 ) ) ;
#292 = DIRECTION ( 'NONE',  ( -1.000000000000000000, 0.000000000000000000, 0.000000000000000000 ) ) ;
#293 = UNCERTAINTY_MEASURE_WITH_UNIT (LENGTH_MEASURE( 1.000000000000000082E-05 ), #198, 'distance_accuracy_value', 'NONE');
#294 = DIRECTION ( 'NONE',  ( -0.000000000000000000, -1.000000000000000000, -0.000000000000000000 ) ) ;
#295 = EDGE_CURVE ( 'NONE', #264, #216, #95, .T. ) ;
#296 = DIRECTION ( 'NONE',  ( 1.000000000000000000, 0.000000000000000000, 0.000000000000000000 ) ) ;
#297 = AXIS2_PLACEMENT_3D ( 'NONE', #11, #187, #38 ) ;
#298 =( NAMED_UNIT ( * ) PLANE_ANGLE_UNIT ( ) SI_UNIT ( $, .RADIAN. ) );
#299 =( LENGTH_UNIT ( ) NAMED_UNIT ( * ) SI_UNIT ( $, .METRE. ) );
#300 = DIRECTION ( 'NONE',  ( -3.061616997868386099E-17, 1.000000000000000000, -0.000000000000000000 ) ) ;
#301 =( GEOMETRIC_REPRESENTATION_CONTEXT ( 3 ) GLOBAL_UNCERTAINTY_ASSIGNED_CONTEXT ( ( #118 ) ) GLOBAL_UNIT_ASSIGNED_CONTEXT ( ( #46, #284, #66 ) ) REPRESENTATION_CONTEXT ( 'NONE', 'WORKASPACE' ) );
#302 = ORIENTED_EDGE ( 'NONE', *, *, #295, .F. ) ;
#303 = FACE_OUTER_BOUND ( 'NONE', #172, .T. ) ;
#304 = PLANE ( 'NONE',  #287 ) ;
#305 = AXIS2_PLACEMENT_3D ( 'NONE', #60, #135, #144 ) ;
#306 = AXIS2_PLACEMENT_3D ( 'NONE', #103, #132, #292 ) ;
#307 = ORIENTED_EDGE ( 'NONE', *, *, #295, .T. ) ;
#308 = CLOSED_SHELL ( 'NONE', ( #168, #212, #45, #27 ) ) ;
#309 = LINE ( 'NONE', #230, #137 ) ;
ENDSEC;
END-ISO-10303-21;
