ISO-10303-21;
HEADER;
FILE_DESCRIPTION (( 'STEP AP214' ),
    '1' );
FILE_NAME ('00360.STEP',
    '2023-06-22T14:06:43',
    ( '' ),
    ( '' ),
    'SwSTEP 2.0',
    'SolidWorks 2023',
    '' );
FILE_SCHEMA (( 'AUTOMOTIVE_DESIGN' ));
ENDSEC;

DATA;
#1 = DIRECTION ( 'NONE',  ( 0.000000000000000000, 0.000000000000000000, -1.000000000000000000 ) ) ;
#2 = FILL_AREA_STYLE ('',( #51 ) ) ;
#3 = UNCERTAINTY_MEASURE_WITH_UNIT (LENGTH_MEASURE( 1.000000000000000082E-05 ), #184, 'distance_accuracy_value', 'NONE');
#4 = FACE_OUTER_BOUND ( 'NONE', #8, .T. ) ;
#5 = STYLED_ITEM ( 'NONE', ( #272 ), #186 ) ;
#6 = MECHANICAL_DESIGN_GEOMETRIC_PRESENTATION_REPRESENTATION (  '', ( #193 ), #171 ) ;
#7 = PRESENTATION_STYLE_ASSIGNMENT (( #87 ) ) ;
#8 = EDGE_LOOP ( 'NONE', ( #112, #118, #14, #157 ) ) ;
#9 = DIRECTION ( 'NONE',  ( 0.000000000000000000, 0.000000000000000000, 1.000000000000000000 ) ) ;
#10 = DIMENSIONAL_EXPONENTS ( 1.000000000000000000, 0.000000000000000000, 0.000000000000000000, 0.000000000000000000, 0.000000000000000000, 0.000000000000000000, 0.000000000000000000 ) ;
#11 = EDGE_LOOP ( 'NONE', ( #202, #143 ) ) ;
#12 =( NAMED_UNIT ( * ) PLANE_ANGLE_UNIT ( ) SI_UNIT ( $, .RADIAN. ) );
#13 =( NAMED_UNIT ( * ) PLANE_ANGLE_UNIT ( ) SI_UNIT ( $, .RADIAN. ) );
#14 = ORIENTED_EDGE ( 'NONE', *, *, #173, .T. ) ;
#15 = APPLICATION_PROTOCOL_DEFINITION ( 'draft international standard', 'automotive_design', 1998, #200 ) ;
#16 = ORIENTED_EDGE ( 'NONE', *, *, #295, .T. ) ;
#17 =( LENGTH_UNIT ( ) NAMED_UNIT ( * ) SI_UNIT ( $, .METRE. ) );
#18 = SURFACE_SIDE_STYLE ('',( #164 ) ) ;
#19 = CLOSED_SHELL ( 'NONE', ( #227, #91, #231, #246 ) ) ;
#20 = DIRECTION ( 'NONE',  ( -0.000000000000000000, -1.000000000000000000, -0.000000000000000000 ) ) ;
#21 = PRESENTATION_LAYER_ASSIGNMENT (  '', '', ( #237 ) ) ;
#22 = FACE_OUTER_BOUND ( 'NONE', #11, .T. ) ;
#23 = AXIS2_PLACEMENT_3D ( 'NONE', #172, #266, #152 ) ;
#24 = FILL_AREA_STYLE_COLOUR ( '', #32 ) ;
#25 = EDGE_CURVE ( 'NONE', #175, #68, #67, .T. ) ;
#26 = LINE ( 'NONE', #150, #166 ) ;
#27 =( NAMED_UNIT ( * ) SI_UNIT ( $, .STERADIAN. ) SOLID_ANGLE_UNIT ( ) );
#28 = UNCERTAINTY_MEASURE_WITH_UNIT (LENGTH_MEASURE( 1.000000000000000082E-05 ), #306, 'distance_accuracy_value', 'NONE');
#29 = EDGE_CURVE ( 'NONE', #68, #175, #98, .T. ) ;
#30 = PRODUCT_DEFINITION ( 'UNKNOWN', '', #102, #274 ) ;
#31 = CARTESIAN_POINT ( 'NONE',  ( -6.123233995736759873E-17, 3.500000000000000000, 0.000000000000000000 ) ) ;
#32 = COLOUR_RGB ( '',1.000000000000000000, 0.000000000000000000, 0.000000000000000000 ) ;
#33 = MECHANICAL_DESIGN_GEOMETRIC_PRESENTATION_REPRESENTATION (  '', ( #237 ), #149 ) ;
#34 =( GEOMETRIC_REPRESENTATION_CONTEXT ( 3 ) GLOBAL_UNCERTAINTY_ASSIGNED_CONTEXT ( ( #287 ) ) GLOBAL_UNIT_ASSIGNED_CONTEXT ( ( #126, #107, #27 ) ) REPRESENTATION_CONTEXT ( 'NONE', 'WORKASPACE' ) );
#35 = ORIENTED_EDGE ( 'NONE', *, *, #295, .F. ) ;
#36 = DIMENSIONAL_EXPONENTS ( 1.000000000000000000, 0.000000000000000000, 0.000000000000000000, 0.000000000000000000, 0.000000000000000000, 0.000000000000000000, 0.000000000000000000 ) ;
#37 = ORIENTED_EDGE ( 'NONE', *, *, #25, .T. ) ;
#38 = DIRECTION ( 'NONE',  ( -1.000000000000000000, 0.000000000000000000, 0.000000000000000000 ) ) ;
#39 = ADVANCED_FACE ( 'NONE', ( #22 ), #188, .T. ) ;
#40 =( GEOMETRIC_REPRESENTATION_CONTEXT ( 3 ) GLOBAL_UNCERTAINTY_ASSIGNED_CONTEXT ( ( #58 ) ) GLOBAL_UNIT_ASSIGNED_CONTEXT ( ( #128, #13, #84 ) ) REPRESENTATION_CONTEXT ( 'NONE', 'WORKASPACE' ) );
#41 = FACE_OUTER_BOUND ( 'NONE', #158, .T. ) ;
#42 = AXIS2_PLACEMENT_3D ( 'NONE', #106, #308, #285 ) ;
#43 = SURFACE_STYLE_FILL_AREA ( #298 ) ;
#44 = FILL_AREA_STYLE_COLOUR ( '', #252 ) ;
#45 = EDGE_LOOP ( 'NONE', ( #292, #130 ) ) ;
#46 = AXIS2_PLACEMENT_3D ( 'NONE', #280, #101, #195 ) ;
#47 = AXIS2_PLACEMENT_3D ( 'NONE', #55, #243, #288 ) ;
#48 = FILL_AREA_STYLE ('',( #44 ) ) ;
#49 = LENGTH_MEASURE_WITH_UNIT ( LENGTH_MEASURE( 0.02539999999999999897 ), #100 );
#50 =( NAMED_UNIT ( * ) SI_UNIT ( $, .STERADIAN. ) SOLID_ANGLE_UNIT ( ) );
#51 = FILL_AREA_STYLE_COLOUR ( '', #268 ) ;
#52 = DIRECTION ( 'NONE',  ( -2.721437331438560697E-17, 1.000000000000000000, -0.000000000000000000 ) ) ;
#53 = ADVANCED_FACE ( 'NONE', ( #70 ), #76, .T. ) ;
#54 = COLOUR_RGB ( '',1.000000000000000000, 0.000000000000000000, 0.000000000000000000 ) ;
#55 = CARTESIAN_POINT ( 'NONE',  ( -6.123233995736759873E-17, 3.500000000000000000, 0.000000000000000000 ) ) ;
#56 = PRESENTATION_STYLE_ASSIGNMENT (( #105 ) ) ;
#57 =( GEOMETRIC_REPRESENTATION_CONTEXT ( 3 ) GLOBAL_UNCERTAINTY_ASSIGNED_CONTEXT ( ( #99 ) ) GLOBAL_UNIT_ASSIGNED_CONTEXT ( ( #89, #12, #267 ) ) REPRESENTATION_CONTEXT ( 'NONE', 'WORKASPACE' ) );
#58 = UNCERTAINTY_MEASURE_WITH_UNIT (LENGTH_MEASURE( 1.000000000000000082E-05 ), #128, 'distance_accuracy_value', 'NONE');
#59 = CARTESIAN_POINT ( 'NONE',  ( 6.943332327138218856E-35, 1.250000000000000000, 0.000000000000000000 ) ) ;
#60 = CARTESIAN_POINT ( 'NONE',  ( 0.000000000000000000, 0.000000000000000000, 0.000000000000000000 ) ) ;
#61 = CARTESIAN_POINT ( 'NONE',  ( 2.296212748401287726E-17, 1.250000000000000000, 0.1875000000000000278 ) ) ;
#62 = ORIENTED_EDGE ( 'NONE', *, *, #144, .T. ) ;
#63 = AXIS2_PLACEMENT_3D ( 'NONE', #80, #219, #1 ) ;
#64 = EDGE_CURVE ( 'NONE', #205, #279, #303, .T. ) ;
#65 = DIRECTION ( 'NONE',  ( 0.000000000000000000, 0.000000000000000000, -1.000000000000000000 ) ) ;
#66 = EDGE_CURVE ( 'NONE', #96, #177, #254, .T. ) ;
#67 = CIRCLE ( 'NONE', #97, 0.1875000000000000278 ) ;
#68 = VERTEX_POINT ( 'NONE', #198 ) ;
#69 = PRESENTATION_STYLE_ASSIGNMENT (( #90 ) ) ;
#70 = FACE_OUTER_BOUND ( 'NONE', #294, .T. ) ;
#71 = EDGE_CURVE ( 'NONE', #205, #175, #169, .T. ) ;
#72 = LINE ( 'NONE', #161, #191 ) ;
#73 = DIMENSIONAL_EXPONENTS ( 1.000000000000000000, 0.000000000000000000, 0.000000000000000000, 0.000000000000000000, 0.000000000000000000, 0.000000000000000000, 0.000000000000000000 ) ;
#74 = ORIENTED_EDGE ( 'NONE', *, *, #29, .T. ) ;
#75 = STYLED_ITEM ( 'NONE', ( #7 ), #235 ) ;
#76 = PLANE ( 'NONE',  #147 ) ;
#77 = DIRECTION ( 'NONE',  ( 0.000000000000000000, -1.000000000000000000, -0.000000000000000000 ) ) ;
#78 = COLOUR_RGB ( '',0.7921568627450980005, 0.8196078431372548767, 0.9333333333333333481 ) ;
#79 = CARTESIAN_POINT ( 'NONE',  ( 2.296212748401287726E-17, 0.000000000000000000, 0.1875000000000000278 ) ) ;
#80 = CARTESIAN_POINT ( 'NONE',  ( 0.000000000000000000, 0.000000000000000000, 0.000000000000000000 ) ) ;
#81 = LINE ( 'NONE', #284, #145 ) ;
#82 = FILL_AREA_STYLE ('',( #24 ) ) ;
#83 = PLANE ( 'NONE',  #23 ) ;
#84 =( NAMED_UNIT ( * ) SI_UNIT ( $, .STERADIAN. ) SOLID_ANGLE_UNIT ( ) );
#85 = CYLINDRICAL_SURFACE ( 'NONE', #258, 0.1875000000000000555 ) ;
#86 = ORIENTED_EDGE ( 'NONE', *, *, #66, .T. ) ;
#87 = SURFACE_STYLE_USAGE ( .BOTH. , #110 ) ;
#88 = ORIENTED_EDGE ( 'NONE', *, *, #138, .T. ) ;
#89 =( CONVERSION_BASED_UNIT ( 'INCH', #290 ) LENGTH_UNIT ( ) NAMED_UNIT ( #120 ) );
#90 = SURFACE_STYLE_USAGE ( .BOTH. , #94 ) ;
#91 = ADVANCED_FACE ( 'NONE', ( #167 ), #262, .F. ) ;
#92 = AXIS2_PLACEMENT_3D ( 'NONE', #59, #286, #103 ) ;
#93 = AXIS2_PLACEMENT_3D ( 'NONE', #60, #289, #65 ) ;
#94 = SURFACE_SIDE_STYLE ('',( #43 ) ) ;
#95 = DIMENSIONAL_EXPONENTS ( 1.000000000000000000, 0.000000000000000000, 0.000000000000000000, 0.000000000000000000, 0.000000000000000000, 0.000000000000000000, 0.000000000000000000 ) ;
#96 = VERTEX_POINT ( 'NONE', #240 ) ;
#97 = AXIS2_PLACEMENT_3D ( 'NONE', #214, #160, #304 ) ;
#98 = CIRCLE ( 'NONE', #189, 0.1875000000000000278 ) ;
#99 = UNCERTAINTY_MEASURE_WITH_UNIT (LENGTH_MEASURE( 1.000000000000000082E-05 ), #89, 'distance_accuracy_value', 'NONE');
#100 =( LENGTH_UNIT ( ) NAMED_UNIT ( * ) SI_UNIT ( $, .METRE. ) );
#101 = DIRECTION ( 'NONE',  ( 0.000000000000000000, 1.000000000000000000, 0.000000000000000000 ) ) ;
#102 = PRODUCT_DEFINITION_FORMATION_WITH_SPECIFIED_SOURCE ( 'ANY', '', #119, .NOT_KNOWN. ) ;
#103 = DIRECTION ( 'NONE',  ( -1.000000000000000000, -2.721437331438560697E-17, 0.000000000000000000 ) ) ;
#104 = AXIS2_PLACEMENT_3D ( 'NONE', #264, #196, #239 ) ;
#105 = SURFACE_STYLE_USAGE ( .BOTH. , #125 ) ;
#106 = CARTESIAN_POINT ( 'NONE',  ( 0.000000000000000000, 1.250000000000000000, 0.000000000000000000 ) ) ;
#107 =( NAMED_UNIT ( * ) PLANE_ANGLE_UNIT ( ) SI_UNIT ( $, .RADIAN. ) );
#108 = LENGTH_MEASURE_WITH_UNIT ( LENGTH_MEASURE( 0.02539999999999999897 ), #135 );
#109 = AXIS2_PLACEMENT_3D ( 'NONE', #211, #209, #277 ) ;
#110 = SURFACE_SIDE_STYLE ('',( #293 ) ) ;
#111 = VERTEX_POINT ( 'NONE', #241 ) ;
#112 = ORIENTED_EDGE ( 'NONE', *, *, #71, .F. ) ;
#113 = PRODUCT_CONTEXT ( 'NONE', #244, 'mechanical' ) ;
#114 = PRESENTATION_LAYER_ASSIGNMENT (  '', '', ( #75 ) ) ;
#115 = EDGE_LOOP ( 'NONE', ( #86, #62, #182, #35 ) ) ;
#116 = CARTESIAN_POINT ( 'NONE',  ( 0.000000000000000000, 1.250000000000000000, 0.000000000000000000 ) ) ;
#117 = CARTESIAN_POINT ( 'NONE',  ( 0.000000000000000000, 1.250000000000000000, -0.1875000000000000278 ) ) ;
#118 = ORIENTED_EDGE ( 'NONE', *, *, #64, .T. ) ;
#119 = PRODUCT ( '00360', '00360', '', ( #113 ) ) ;
#120 = DIMENSIONAL_EXPONENTS ( 1.000000000000000000, 0.000000000000000000, 0.000000000000000000, 0.000000000000000000, 0.000000000000000000, 0.000000000000000000, 0.000000000000000000 ) ;
#121 = PRESENTATION_STYLE_ASSIGNMENT (( #256 ) ) ;
#122 = SURFACE_STYLE_USAGE ( .BOTH. , #123 ) ;
#123 = SURFACE_SIDE_STYLE ('',( #236 ) ) ;
#124 = FACE_OUTER_BOUND ( 'NONE', #115, .T. ) ;
#125 = SURFACE_SIDE_STYLE ('',( #148 ) ) ;
#126 =( CONVERSION_BASED_UNIT ( 'INCH', #242 ) LENGTH_UNIT ( ) NAMED_UNIT ( #95 ) );
#127 = UNCERTAINTY_MEASURE_WITH_UNIT (LENGTH_MEASURE( 1.000000000000000082E-05 ), #137, 'distance_accuracy_value', 'NONE');
#128 =( CONVERSION_BASED_UNIT ( 'INCH', #201 ) LENGTH_UNIT ( ) NAMED_UNIT ( #10 ) );
#129 = CIRCLE ( 'NONE', #47, 0.1875000000000000833 ) ;
#130 = ORIENTED_EDGE ( 'NONE', *, *, #305, .F. ) ;
#131 = PRESENTATION_LAYER_ASSIGNMENT (  '', '', ( #170 ) ) ;
#132 = FACE_OUTER_BOUND ( 'NONE', #210, .T. ) ;
#133 = DIMENSIONAL_EXPONENTS ( 1.000000000000000000, 0.000000000000000000, 0.000000000000000000, 0.000000000000000000, 0.000000000000000000, 0.000000000000000000, 0.000000000000000000 ) ;
#134 = ORIENTED_EDGE ( 'NONE', *, *, #305, .T. ) ;
#135 =( LENGTH_UNIT ( ) NAMED_UNIT ( * ) SI_UNIT ( $, .METRE. ) );
#136 = PRESENTATION_LAYER_ASSIGNMENT (  '', '', ( #193 ) ) ;
#137 =( CONVERSION_BASED_UNIT ( 'INCH', #108 ) LENGTH_UNIT ( ) NAMED_UNIT ( #36 ) );
#138 = EDGE_CURVE ( 'NONE', #297, #111, #129, .T. ) ;
#139 = LENGTH_MEASURE_WITH_UNIT ( LENGTH_MEASURE( 0.02539999999999999897 ), #17 );
#140 =( NAMED_UNIT ( * ) PLANE_ANGLE_UNIT ( ) SI_UNIT ( $, .RADIAN. ) );
#141 = FILL_AREA_STYLE ('',( #185 ) ) ;
#142 =( NAMED_UNIT ( * ) SI_UNIT ( $, .STERADIAN. ) SOLID_ANGLE_UNIT ( ) );
#143 = ORIENTED_EDGE ( 'NONE', *, *, #64, .F. ) ;
#144 = EDGE_CURVE ( 'NONE', #177, #111, #26, .T. ) ;
#145 = VECTOR ( 'NONE', #260, 39.37007874015748143 ) ;
#146 =( LENGTH_UNIT ( ) NAMED_UNIT ( * ) SI_UNIT ( $, .METRE. ) );
#147 = AXIS2_PLACEMENT_3D ( 'NONE', #263, #77, #165 ) ;
#148 = SURFACE_STYLE_FILL_AREA ( #82 ) ;
#149 =( GEOMETRIC_REPRESENTATION_CONTEXT ( 3 ) GLOBAL_UNCERTAINTY_ASSIGNED_CONTEXT ( ( #3 ) ) GLOBAL_UNIT_ASSIGNED_CONTEXT ( ( #184, #233, #278 ) ) REPRESENTATION_CONTEXT ( 'NONE', 'WORKASPACE' ) );
#150 = CARTESIAN_POINT ( 'NONE',  ( 0.1874999999999999722, 3.500000000000000000, 2.296212748401288034E-17 ) ) ;
#151 = CIRCLE ( 'NONE', #109, 0.1875000000000000278 ) ;
#152 = DIRECTION ( 'NONE',  ( 1.000000000000000000, 2.721437331438560697E-17, 0.000000000000000000 ) ) ;
#153 = ADVANCED_FACE ( 'NONE', ( #4 ), #222, .T. ) ;
#154 = CARTESIAN_POINT ( 'NONE',  ( -6.123233995736759873E-17, 3.500000000000000000, 0.000000000000000000 ) ) ;
#155 = DIMENSIONAL_EXPONENTS ( 1.000000000000000000, 0.000000000000000000, 0.000000000000000000, 0.000000000000000000, 0.000000000000000000, 0.000000000000000000, 0.000000000000000000 ) ;
#156 = SURFACE_STYLE_USAGE ( .BOTH. , #307 ) ;
#157 = ORIENTED_EDGE ( 'NONE', *, *, #25, .F. ) ;
#158 = EDGE_LOOP ( 'NONE', ( #88, #273 ) ) ;
#159 = MECHANICAL_DESIGN_GEOMETRIC_PRESENTATION_REPRESENTATION (  '', ( #170 ), #34 ) ;
#160 = DIRECTION ( 'NONE',  ( -0.000000000000000000, -1.000000000000000000, -0.000000000000000000 ) ) ;
#161 = CARTESIAN_POINT ( 'NONE',  ( -0.1875000000000001110, 3.500000000000000000, 0.000000000000000000 ) ) ;
#162 = LENGTH_MEASURE_WITH_UNIT ( LENGTH_MEASURE( 0.02539999999999999897 ), #259 );
#163 = CARTESIAN_POINT ( 'NONE',  ( 0.000000000000000000, 0.000000000000000000, 0.000000000000000000 ) ) ;
#164 = SURFACE_STYLE_FILL_AREA ( #48 ) ;
#165 = DIRECTION ( 'NONE',  ( 0.000000000000000000, 0.000000000000000000, -1.000000000000000000 ) ) ;
#166 = VECTOR ( 'NONE', #52, 39.37007874015748143 ) ;
#167 = FACE_OUTER_BOUND ( 'NONE', #45, .T. ) ;
#168 = CARTESIAN_POINT ( 'NONE',  ( 2.296212748401287726E-17, 0.000000000000000000, 0.1875000000000000278 ) ) ;
#169 = LINE ( 'NONE', #79, #178 ) ;
#170 = STYLED_ITEM ( 'NONE', ( #56 ), #153 ) ;
#171 =( GEOMETRIC_REPRESENTATION_CONTEXT ( 3 ) GLOBAL_UNCERTAINTY_ASSIGNED_CONTEXT ( ( #28 ) ) GLOBAL_UNIT_ASSIGNED_CONTEXT ( ( #306, #283, #50 ) ) REPRESENTATION_CONTEXT ( 'NONE', 'WORKASPACE' ) );
#172 = CARTESIAN_POINT ( 'NONE',  ( 0.1875000000000000278, 3.500000000000000000, 0.000000000000000000 ) ) ;
#173 = EDGE_CURVE ( 'NONE', #279, #68, #81, .T. ) ;
#174 = FACE_OUTER_BOUND ( 'NONE', #190, .T. ) ;
#175 = VERTEX_POINT ( 'NONE', #168 ) ;
#176 = CARTESIAN_POINT ( 'NONE',  ( 0.000000000000000000, 0.000000000000000000, 0.000000000000000000 ) ) ;
#177 = VERTEX_POINT ( 'NONE', #220 ) ;
#178 = VECTOR ( 'NONE', #197, 39.37007874015748143 ) ;
#179 =( LENGTH_UNIT ( ) NAMED_UNIT ( * ) SI_UNIT ( $, .METRE. ) );
#180 = APPLICATION_PROTOCOL_DEFINITION ( 'draft international standard', 'automotive_design', 1998, #244 ) ;
#181 = DIRECTION ( 'NONE',  ( -1.000000000000000000, 0.000000000000000000, 0.000000000000000000 ) ) ;
#182 = ORIENTED_EDGE ( 'NONE', *, *, #138, .F. ) ;
#183 = AXIS2_PLACEMENT_3D ( 'NONE', #31, #213, #181 ) ;
#184 =( CONVERSION_BASED_UNIT ( 'INCH', #139 ) LENGTH_UNIT ( ) NAMED_UNIT ( #133 ) );
#185 = FILL_AREA_STYLE_COLOUR ( '', #54 ) ;
#186 = MANIFOLD_SOLID_BREP ( 'Revolve - Tool Body (Straight Shanked)', #19 ) ;
#187 = CARTESIAN_POINT ( 'NONE',  ( -0.1875000000000001388, 3.500000000000000000, 0.000000000000000000 ) ) ;
#188 = PLANE ( 'NONE',  #46 ) ;
#189 = AXIS2_PLACEMENT_3D ( 'NONE', #163, #20, #302 ) ;
#190 = EDGE_LOOP ( 'NONE', ( #230, #245, #207, #299 ) ) ;
#191 = VECTOR ( 'NONE', #257, 39.37007874015748143 ) ;
#192 =( GEOMETRIC_REPRESENTATION_CONTEXT ( 3 ) GLOBAL_UNCERTAINTY_ASSIGNED_CONTEXT ( ( #127 ) ) GLOBAL_UNIT_ASSIGNED_CONTEXT ( ( #137, #251, #291 ) ) REPRESENTATION_CONTEXT ( 'NONE', 'WORKASPACE' ) );
#193 = STYLED_ITEM ( 'NONE', ( #121 ), #53 ) ;
#194 = PRESENTATION_STYLE_ASSIGNMENT (( #122 ) ) ;
#195 = DIRECTION ( 'NONE',  ( 0.000000000000000000, -0.000000000000000000, 1.000000000000000000 ) ) ;
#196 = DIRECTION ( 'NONE',  ( -2.721437331438560389E-17, 1.000000000000000000, -0.000000000000000000 ) ) ;
#197 = DIRECTION ( 'NONE',  ( -0.000000000000000000, -1.000000000000000000, -0.000000000000000000 ) ) ;
#198 = CARTESIAN_POINT ( 'NONE',  ( 0.000000000000000000, 0.000000000000000000, -0.1875000000000000278 ) ) ;
#199 = CYLINDRICAL_SURFACE ( 'NONE', #216, 0.1875000000000000555 ) ;
#200 = APPLICATION_CONTEXT ( 'automotive_design' ) ;
#201 = LENGTH_MEASURE_WITH_UNIT ( LENGTH_MEASURE( 0.02539999999999999897 ), #179 );
#202 = ORIENTED_EDGE ( 'NONE', *, *, #276, .F. ) ;
#203 = SHAPE_DEFINITION_REPRESENTATION ( #271, #265 ) ;
#204 = DIRECTION ( 'NONE',  ( -2.721437331438560389E-17, 1.000000000000000000, -0.000000000000000000 ) ) ;
#205 = VERTEX_POINT ( 'NONE', #61 ) ;
#206 = COLOUR_RGB ( '',1.000000000000000000, 0.000000000000000000, 0.000000000000000000 ) ;
#207 = ORIENTED_EDGE ( 'NONE', *, *, #29, .F. ) ;
#208 = STYLED_ITEM ( 'NONE', ( #194 ), #39 ) ;
#209 = DIRECTION ( 'NONE',  ( -0.000000000000000000, -1.000000000000000000, -0.000000000000000000 ) ) ;
#210 = EDGE_LOOP ( 'NONE', ( #270, #134, #16, #224 ) ) ;
#211 = CARTESIAN_POINT ( 'NONE',  ( 0.000000000000000000, 1.250000000000000000, 0.000000000000000000 ) ) ;
#212 = AXIS2_PLACEMENT_3D ( 'NONE', #176, #9, #250 ) ;
#213 = DIRECTION ( 'NONE',  ( -2.721437331438560389E-17, 1.000000000000000000, -0.000000000000000000 ) ) ;
#214 = CARTESIAN_POINT ( 'NONE',  ( 0.000000000000000000, 0.000000000000000000, 0.000000000000000000 ) ) ;
#215 = CIRCLE ( 'NONE', #247, 0.1875000000000000278 ) ;
#216 = AXIS2_PLACEMENT_3D ( 'NONE', #296, #269, #38 ) ;
#217 = CLOSED_SHELL ( 'NONE', ( #235, #39, #153, #53 ) ) ;
#218 = SURFACE_STYLE_FILL_AREA ( #2 ) ;
#219 = DIRECTION ( 'NONE',  ( -0.000000000000000000, -1.000000000000000000, -0.000000000000000000 ) ) ;
#220 = CARTESIAN_POINT ( 'NONE',  ( 0.1875000000000000278, 1.250000000000000000, 2.296212748401288342E-17 ) ) ;
#221 = PRODUCT_RELATED_PRODUCT_CATEGORY ( 'part', '', ( #119 ) ) ;
#222 = CYLINDRICAL_SURFACE ( 'NONE', #63, 0.1875000000000000278 ) ;
#223 = FILL_AREA_STYLE ('',( #249 ) ) ;
#224 = ORIENTED_EDGE ( 'NONE', *, *, #248, .F. ) ;
#225 = DIRECTION ( 'NONE',  ( -2.721437331438560389E-17, 1.000000000000000000, -0.000000000000000000 ) ) ;
#226 = PRESENTATION_LAYER_ASSIGNMENT (  '', '', ( #208 ) ) ;
#227 = ADVANCED_FACE ( 'NONE', ( #124 ), #85, .T. ) ;
#228 = MECHANICAL_DESIGN_GEOMETRIC_PRESENTATION_REPRESENTATION (  '', ( #5 ), #40 ) ;
#229 = DIRECTION ( 'NONE',  ( -1.000000000000000000, 0.000000000000000000, 0.000000000000000000 ) ) ;
#230 = ORIENTED_EDGE ( 'NONE', *, *, #276, .T. ) ;
#231 = ADVANCED_FACE ( 'NONE', ( #132 ), #199, .T. ) ;
#232 =( LENGTH_UNIT ( ) NAMED_UNIT ( * ) SI_UNIT ( $, .METRE. ) );
#233 =( NAMED_UNIT ( * ) PLANE_ANGLE_UNIT ( ) SI_UNIT ( $, .RADIAN. ) );
#234 =( CONVERSION_BASED_UNIT ( 'INCH', #162 ) LENGTH_UNIT ( ) NAMED_UNIT ( #155 ) );
#235 = ADVANCED_FACE ( 'NONE', ( #174 ), #253, .T. ) ;
#236 = SURFACE_STYLE_FILL_AREA ( #141 ) ;
#237 = STYLED_ITEM ( 'NONE', ( #69 ), #282 ) ;
#238 = PRESENTATION_LAYER_ASSIGNMENT (  '', '', ( #5 ) ) ;
#239 = DIRECTION ( 'NONE',  ( -1.000000000000000000, 0.000000000000000000, 0.000000000000000000 ) ) ;
#240 = CARTESIAN_POINT ( 'NONE',  ( -0.1875000000000000278, 1.250000000000000000, 0.000000000000000000 ) ) ;
#241 = CARTESIAN_POINT ( 'NONE',  ( 0.1875000000000000278, 3.500000000000000000, 2.296212748401288342E-17 ) ) ;
#242 = LENGTH_MEASURE_WITH_UNIT ( LENGTH_MEASURE( 0.02539999999999999897 ), #146 );
#243 = DIRECTION ( 'NONE',  ( -2.721437331438560389E-17, 1.000000000000000000, -0.000000000000000000 ) ) ;
#244 = APPLICATION_CONTEXT ( 'automotive_design' ) ;
#245 = ORIENTED_EDGE ( 'NONE', *, *, #71, .T. ) ;
#246 = ADVANCED_FACE ( 'NONE', ( #41 ), #83, .F. ) ;
#247 = AXIS2_PLACEMENT_3D ( 'NONE', #116, #225, #300 ) ;
#248 = EDGE_CURVE ( 'NONE', #111, #297, #261, .T. ) ;
#249 = FILL_AREA_STYLE_COLOUR ( '', #206 ) ;
#250 = DIRECTION ( 'NONE',  ( 1.000000000000000000, 0.000000000000000000, 0.000000000000000000 ) ) ;
#251 =( NAMED_UNIT ( * ) PLANE_ANGLE_UNIT ( ) SI_UNIT ( $, .RADIAN. ) );
#252 = COLOUR_RGB ( '',1.000000000000000000, 0.000000000000000000, 0.000000000000000000 ) ;
#253 = CYLINDRICAL_SURFACE ( 'NONE', #93, 0.1875000000000000278 ) ;
#254 = CIRCLE ( 'NONE', #104, 0.1875000000000000278 ) ;
#255 = FILL_AREA_STYLE_COLOUR ( '', #78 ) ;
#256 = SURFACE_STYLE_USAGE ( .BOTH. , #18 ) ;
#257 = DIRECTION ( 'NONE',  ( -2.721437331438560697E-17, 1.000000000000000000, -0.000000000000000000 ) ) ;
#258 = AXIS2_PLACEMENT_3D ( 'NONE', #154, #204, #229 ) ;
#259 =( LENGTH_UNIT ( ) NAMED_UNIT ( * ) SI_UNIT ( $, .METRE. ) );
#260 = DIRECTION ( 'NONE',  ( -0.000000000000000000, -1.000000000000000000, -0.000000000000000000 ) ) ;
#261 = CIRCLE ( 'NONE', #183, 0.1875000000000000833 ) ;
#262 = PLANE ( 'NONE',  #92 ) ;
#263 = CARTESIAN_POINT ( 'NONE',  ( 0.000000000000000000, 0.000000000000000000, 0.000000000000000000 ) ) ;
#264 = CARTESIAN_POINT ( 'NONE',  ( 0.000000000000000000, 1.250000000000000000, 0.000000000000000000 ) ) ;
#265 = ADVANCED_BREP_SHAPE_REPRESENTATION ( '00360', ( #282, #186, #212 ), #57 ) ;
#266 = DIRECTION ( 'NONE',  ( 2.721437331438560697E-17, -1.000000000000000000, 0.000000000000000000 ) ) ;
#267 =( NAMED_UNIT ( * ) SI_UNIT ( $, .STERADIAN. ) SOLID_ANGLE_UNIT ( ) );
#268 = COLOUR_RGB ( '',0.7921568627450980005, 0.8196078431372548767, 0.9333333333333333481 ) ;
#269 = DIRECTION ( 'NONE',  ( -2.721437331438560389E-17, 1.000000000000000000, -0.000000000000000000 ) ) ;
#270 = ORIENTED_EDGE ( 'NONE', *, *, #144, .F. ) ;
#271 = PRODUCT_DEFINITION_SHAPE ( 'NONE', 'NONE',  #30 ) ;
#272 = PRESENTATION_STYLE_ASSIGNMENT (( #156 ) ) ;
#273 = ORIENTED_EDGE ( 'NONE', *, *, #248, .T. ) ;
#274 = PRODUCT_DEFINITION_CONTEXT ( 'detailed design', #200, 'design' ) ;
#275 = MECHANICAL_DESIGN_GEOMETRIC_PRESENTATION_REPRESENTATION (  '', ( #208 ), #301 ) ;
#276 = EDGE_CURVE ( 'NONE', #279, #205, #151, .T. ) ;
#277 = DIRECTION ( 'NONE',  ( 0.000000000000000000, 0.000000000000000000, -1.000000000000000000 ) ) ;
#278 =( NAMED_UNIT ( * ) SI_UNIT ( $, .STERADIAN. ) SOLID_ANGLE_UNIT ( ) );
#279 = VERTEX_POINT ( 'NONE', #117 ) ;
#280 = CARTESIAN_POINT ( 'NONE',  ( 0.000000000000000000, 1.250000000000000000, 0.000000000000000000 ) ) ;
#281 = MECHANICAL_DESIGN_GEOMETRIC_PRESENTATION_REPRESENTATION (  '', ( #75 ), #192 ) ;
#282 = MANIFOLD_SOLID_BREP ( 'Revolve - Cutting Edge', #217 ) ;
#283 =( NAMED_UNIT ( * ) PLANE_ANGLE_UNIT ( ) SI_UNIT ( $, .RADIAN. ) );
#284 = CARTESIAN_POINT ( 'NONE',  ( 0.000000000000000000, 0.000000000000000000, -0.1875000000000000278 ) ) ;
#285 = DIRECTION ( 'NONE',  ( 0.000000000000000000, 0.000000000000000000, -1.000000000000000000 ) ) ;
#286 = DIRECTION ( 'NONE',  ( -2.721437331438560697E-17, 1.000000000000000000, 0.000000000000000000 ) ) ;
#287 = UNCERTAINTY_MEASURE_WITH_UNIT (LENGTH_MEASURE( 1.000000000000000082E-05 ), #126, 'distance_accuracy_value', 'NONE');
#288 = DIRECTION ( 'NONE',  ( -1.000000000000000000, 0.000000000000000000, 0.000000000000000000 ) ) ;
#289 = DIRECTION ( 'NONE',  ( -0.000000000000000000, -1.000000000000000000, -0.000000000000000000 ) ) ;
#290 = LENGTH_MEASURE_WITH_UNIT ( LENGTH_MEASURE( 0.02539999999999999897 ), #232 );
#291 =( NAMED_UNIT ( * ) SI_UNIT ( $, .STERADIAN. ) SOLID_ANGLE_UNIT ( ) );
#292 = ORIENTED_EDGE ( 'NONE', *, *, #66, .F. ) ;
#293 = SURFACE_STYLE_FILL_AREA ( #223 ) ;
#294 = EDGE_LOOP ( 'NONE', ( #74, #37 ) ) ;
#295 = EDGE_CURVE ( 'NONE', #96, #297, #72, .T. ) ;
#296 = CARTESIAN_POINT ( 'NONE',  ( -6.123233995736759873E-17, 3.500000000000000000, 0.000000000000000000 ) ) ;
#297 = VERTEX_POINT ( 'NONE', #187 ) ;
#298 = FILL_AREA_STYLE ('',( #255 ) ) ;
#299 = ORIENTED_EDGE ( 'NONE', *, *, #173, .F. ) ;
#300 = DIRECTION ( 'NONE',  ( -1.000000000000000000, 0.000000000000000000, 0.000000000000000000 ) ) ;
#301 =( GEOMETRIC_REPRESENTATION_CONTEXT ( 3 ) GLOBAL_UNCERTAINTY_ASSIGNED_CONTEXT ( ( #309 ) ) GLOBAL_UNIT_ASSIGNED_CONTEXT ( ( #234, #140, #142 ) ) REPRESENTATION_CONTEXT ( 'NONE', 'WORKASPACE' ) );
#302 = DIRECTION ( 'NONE',  ( 0.000000000000000000, 0.000000000000000000, -1.000000000000000000 ) ) ;
#303 = CIRCLE ( 'NONE', #42, 0.1875000000000000278 ) ;
#304 = DIRECTION ( 'NONE',  ( 0.000000000000000000, 0.000000000000000000, -1.000000000000000000 ) ) ;
#305 = EDGE_CURVE ( 'NONE', #177, #96, #215, .T. ) ;
#306 =( CONVERSION_BASED_UNIT ( 'INCH', #49 ) LENGTH_UNIT ( ) NAMED_UNIT ( #73 ) );
#307 = SURFACE_SIDE_STYLE ('',( #218 ) ) ;
#308 = DIRECTION ( 'NONE',  ( -0.000000000000000000, -1.000000000000000000, -0.000000000000000000 ) ) ;
#309 = UNCERTAINTY_MEASURE_WITH_UNIT (LENGTH_MEASURE( 1.000000000000000082E-05 ), #234, 'distance_accuracy_value', 'NONE');
ENDSEC;
END-ISO-10303-21;
