ISO-10303-21;
HEADER;
FILE_DESCRIPTION (( 'STEP AP214' ),
    '1' );
FILE_NAME ('Micro_BMSM-010-4X.STEP',
    '2021-09-03T15:42:45',
    ( '' ),
    ( '' ),
    'SwSTEP 2.0',
    'SolidWorks 2020',
    '' );
FILE_SCHEMA (( 'AUTOMOTIVE_DESIGN' ));
ENDSEC;

DATA;
#1 = EDGE_LOOP ( 'NONE', ( #18, #170, #278 ) ) ;
#2 = EDGE_CURVE ( 'NONE', #173, #4, #70, .T. ) ;
#3 = CARTESIAN_POINT ( 'NONE',  ( 0.01966531499999999225, 2.408306506897442331E-18, -2.408306506897442331E-18 ) ) ;
#4 = VERTEX_POINT ( 'NONE', #177 ) ;
#5 = ORIENTED_EDGE ( 'NONE', *, *, #322, .T. ) ;
#6 = EDGE_CURVE ( 'NONE', #230, #249, #147, .T. ) ;
#7 = DIRECTION ( 'NONE',  ( 1.000000000000000000, 0.0000000000000000000, 0.0000000000000000000 ) ) ;
#8 = EDGE_CURVE ( 'NONE', #293, #249, #175, .T. ) ;
#9 = PRODUCT_DEFINITION_CONTEXT ( 'detailed design', #62, 'design' ) ;
#10 = DIRECTION ( 'NONE',  ( -1.000000000000000000, 0.0000000000000000000, 0.0000000000000000000 ) ) ;
#11 = DIRECTION ( 'NONE',  ( -1.224646799147353207E-16, -0.0000000000000000000, -1.000000000000000000 ) ) ;
#12 = DIRECTION ( 'NONE',  ( 1.000000000000000000, 0.0000000000000000000, 0.0000000000000000000 ) ) ;
#13 = ADVANCED_FACE ( 'NONE', ( #252 ), #227, .T. ) ;
#14 = UNCERTAINTY_MEASURE_WITH_UNIT (LENGTH_MEASURE( 1.000000000000000082E-05 ), #68, 'distance_accuracy_value', 'NONE');
#15 = DIRECTION ( 'NONE',  ( 0.0000000000000000000, 1.000000000000000000, 0.0000000000000000000 ) ) ;
#16 = DIRECTION ( 'NONE',  ( -1.000000000000000000, 0.0000000000000000000, 2.170579261049422841E-16 ) ) ;
#17 = CARTESIAN_POINT ( 'NONE',  ( 2.408306506897442716E-18, 0.0000000000000000000, 0.01966531499999999918 ) ) ;
#18 = ORIENTED_EDGE ( 'NONE', *, *, #92, .F. ) ;
#19 =( GEOMETRIC_REPRESENTATION_CONTEXT ( 3 ) GLOBAL_UNCERTAINTY_ASSIGNED_CONTEXT ( ( #308 ) ) GLOBAL_UNIT_ASSIGNED_CONTEXT ( ( #52, #121, #140 ) ) REPRESENTATION_CONTEXT ( 'NONE', 'WORKASPACE' ) );
#20 = CARTESIAN_POINT ( 'NONE',  ( 2.408306506897442716E-18, 0.0000000000000000000, 0.01966531499999999918 ) ) ;
#21 = EDGE_LOOP ( 'NONE', ( #228, #198, #256, #320 ) ) ;
#22 = ORIENTED_EDGE ( 'NONE', *, *, #276, .T. ) ;
#23 = APPLICATION_PROTOCOL_DEFINITION ( 'draft international standard', 'automotive_design', 1998, #62 ) ;
#24 = ORIENTED_EDGE ( 'NONE', *, *, #103, .F. ) ;
#25 = AXIS2_PLACEMENT_3D ( 'NONE', #34, #208, #82 ) ;
#26 = PRODUCT_DEFINITION_FORMATION_WITH_SPECIFIED_SOURCE ( 'ANY', '', #145, .NOT_KNOWN. ) ;
#27 = ORIENTED_EDGE ( 'NONE', *, *, #6, .F. ) ;
#28 = ORIENTED_EDGE ( 'NONE', *, *, #2, .T. ) ;
#29 = ORIENTED_EDGE ( 'NONE', *, *, #92, .T. ) ;
#30 = VECTOR ( 'NONE', #104, 39.37007874015748143 ) ;
#31 = DIRECTION ( 'NONE',  ( -1.000000000000000000, 0.0000000000000000000, 0.0000000000000000000 ) ) ;
#32 = SURFACE_STYLE_FILL_AREA ( #106 ) ;
#33 = AXIS2_PLACEMENT_3D ( 'NONE', #17, #15, #319 ) ;
#34 = CARTESIAN_POINT ( 'NONE',  ( 2.408306506897442716E-18, 0.0000000000000000000, 0.01966531499999999918 ) ) ;
#35 = ADVANCED_FACE ( 'NONE', ( #199 ), #59, .T. ) ;
#36 = DIRECTION ( 'NONE',  ( -1.000000000000000000, 0.0000000000000000000, 1.224646799147353207E-16 ) ) ;
#37 = DIRECTION ( 'NONE',  ( -0.7071067811865482389, 0.0000000000000000000, -0.7071067811865469066 ) ) ;
#38 = AXIS2_PLACEMENT_3D ( 'NONE', #80, #83, #36 ) ;
#39 = FACE_OUTER_BOUND ( 'NONE', #1, .T. ) ;
#40 = EDGE_CURVE ( 'NONE', #181, #173, #142, .T. ) ;
#41 = LINE ( 'NONE', #86, #262 ) ;
#42 = ORIENTED_EDGE ( 'NONE', *, *, #276, .F. ) ;
#43 = CARTESIAN_POINT ( 'NONE',  ( -0.01966531499999998531, 2.408306506897442331E-18, 0.05905500000000000332 ) ) ;
#44 = VECTOR ( 'NONE', #90, 39.37007874015748143 ) ;
#45 = CIRCLE ( 'NONE', #137, 0.05905500000000000332 ) ;
#46 = LENGTH_MEASURE_WITH_UNIT ( LENGTH_MEASURE( 0.02539999999999999897 ), #200 );
#47 = DIRECTION ( 'NONE',  ( -0.0000000000000000000, -0.0000000000000000000, -1.000000000000000000 ) ) ;
#48 = VERTEX_POINT ( 'NONE', #77 ) ;
#49 = AXIS2_PLACEMENT_3D ( 'NONE', #171, #223, #197 ) ;
#50 = PRODUCT_CONTEXT ( 'NONE', #54, 'mechanical' ) ;
#51 = EDGE_LOOP ( 'NONE', ( #143, #123, #75, #205 ) ) ;
#52 =( CONVERSION_BASED_UNIT ( 'INCH', #96 ) LENGTH_UNIT ( ) NAMED_UNIT ( #79 ) );
#53 = ORIENTED_EDGE ( 'NONE', *, *, #8, .F. ) ;
#54 = APPLICATION_CONTEXT ( 'automotive_design' ) ;
#55 = ADVANCED_FACE ( 'NONE', ( #315 ), #310, .T. ) ;
#56 = CARTESIAN_POINT ( 'NONE',  ( 0.0000000000000000000, 0.0000000000000000000, 1.496062999999999921 ) ) ;
#57 = CIRCLE ( 'NONE', #217, 0.05905500000000000332 ) ;
#58 = CIRCLE ( 'NONE', #167, 0.04405499999999973326 ) ;
#59 = CYLINDRICAL_SURFACE ( 'NONE', #202, 0.05905500000000000332 ) ;
#60 = CARTESIAN_POINT ( 'NONE',  ( 0.05905500000000000332, 7.232151672364695422E-18, 1.496062999999999921 ) ) ;
#61 = DIRECTION ( 'NONE',  ( 0.0000000000000000000, 0.0000000000000000000, -1.000000000000000000 ) ) ;
#62 = APPLICATION_CONTEXT ( 'automotive_design' ) ;
#63 = AXIS2_PLACEMENT_3D ( 'NONE', #20, #132, #136 ) ;
#64 = DIRECTION ( 'NONE',  ( -1.000000000000000000, 0.0000000000000000000, 0.0000000000000000000 ) ) ;
#65 = DIRECTION ( 'NONE',  ( 1.000000000000000000, 0.0000000000000000000, -0.0000000000000000000 ) ) ;
#66 = FACE_OUTER_BOUND ( 'NONE', #232, .T. ) ;
#67 = AXIS2_PLACEMENT_3D ( 'NONE', #263, #11, #130 ) ;
#68 =( CONVERSION_BASED_UNIT ( 'INCH', #127 ) LENGTH_UNIT ( ) NAMED_UNIT ( #214 ) );
#69 = CARTESIAN_POINT ( 'NONE',  ( -0.04405499999999973326, 0.0000000000000000000, 1.496062999999999921 ) ) ;
#70 = LINE ( 'NONE', #3, #237 ) ;
#71 = EDGE_LOOP ( 'NONE', ( #95, #117, #291, #53 ) ) ;
#72 = ORIENTED_EDGE ( 'NONE', *, *, #294, .F. ) ;
#73 = AXIS2_PLACEMENT_3D ( 'NONE', #210, #187, #12 ) ;
#74 = VECTOR ( 'NONE', #159, 39.37007874015748143 ) ;
#75 = ORIENTED_EDGE ( 'NONE', *, *, #236, .T. ) ;
#76 = VERTEX_POINT ( 'NONE', #311 ) ;
#77 = CARTESIAN_POINT ( 'NONE',  ( -0.01966531499999998878, 0.0000000000000000000, 0.01966531500000000265 ) ) ;
#78 = STYLED_ITEM ( 'NONE', ( #152 ), #172 ) ;
#79 = DIMENSIONAL_EXPONENTS ( 1.000000000000000000, 0.0000000000000000000, 0.0000000000000000000, 0.0000000000000000000, 0.0000000000000000000, 0.0000000000000000000, 0.0000000000000000000 ) ;
#80 = CARTESIAN_POINT ( 'NONE',  ( 0.0000000000000000000, 0.0000000000000000000, 0.0000000000000000000 ) ) ;
#81 = SURFACE_STYLE_USAGE ( .BOTH. , #241 ) ;
#82 = DIRECTION ( 'NONE',  ( -1.000000000000000000, 1.224646799147352961E-16, 0.0000000000000000000 ) ) ;
#83 = DIRECTION ( 'NONE',  ( -1.224646799147353207E-16, -0.0000000000000000000, -1.000000000000000000 ) ) ;
#84 = CARTESIAN_POINT ( 'NONE',  ( 0.04405499999999973326, 5.395181473643630390E-18, 1.496062999999999921 ) ) ;
#85 = DIMENSIONAL_EXPONENTS ( 1.000000000000000000, 0.0000000000000000000, 0.0000000000000000000, 0.0000000000000000000, 0.0000000000000000000, 0.0000000000000000000, 0.0000000000000000000 ) ;
#86 = CARTESIAN_POINT ( 'NONE',  ( -0.04405499999999973326, 0.0000000000000000000, 1.496062999999999921 ) ) ;
#87 =( NAMED_UNIT ( * ) SI_UNIT ( $, .STERADIAN. ) SOLID_ANGLE_UNIT ( ) );
#88 = ADVANCED_FACE ( 'NONE', ( #240 ), #324, .T. ) ;
#89 = ORIENTED_EDGE ( 'NONE', *, *, #40, .T. ) ;
#90 = DIRECTION ( 'NONE',  ( -1.224646799147353207E-16, -0.0000000000000000000, -1.000000000000000000 ) ) ;
#91 = CARTESIAN_POINT ( 'NONE',  ( 0.0000000000000000000, 0.0000000000000000000, 1.496062999999999921 ) ) ;
#92 = EDGE_CURVE ( 'NONE', #76, #48, #250, .T. ) ;
#93 = SURFACE_SIDE_STYLE ('',( #176 ) ) ;
#94 = STYLED_ITEM ( 'NONE', ( #194 ), #298 ) ;
#95 = ORIENTED_EDGE ( 'NONE', *, *, #149, .F. ) ;
#96 = LENGTH_MEASURE_WITH_UNIT ( LENGTH_MEASURE( 0.02539999999999999897 ), #295 );
#97 = VERTEX_POINT ( 'NONE', #182 ) ;
#98 = ORIENTED_EDGE ( 'NONE', *, *, #294, .T. ) ;
#99 = ORIENTED_EDGE ( 'NONE', *, *, #269, .F. ) ;
#100 = ADVANCED_FACE ( 'NONE', ( #259 ), #131, .T. ) ;
#101 = VERTEX_POINT ( 'NONE', #312 ) ;
#102 = DIRECTION ( 'NONE',  ( -1.000000000000000000, 0.0000000000000000000, 0.0000000000000000000 ) ) ;
#103 = EDGE_CURVE ( 'NONE', #230, #97, #225, .T. ) ;
#104 = DIRECTION ( 'NONE',  ( -0.0000000000000000000, -0.0000000000000000000, -1.000000000000000000 ) ) ;
#105 = AXIS2_PLACEMENT_3D ( 'NONE', #125, #61, #102 ) ;
#106 = FILL_AREA_STYLE ('',( #157 ) ) ;
#107 = CARTESIAN_POINT ( 'NONE',  ( 2.408306506897442716E-18, 0.0000000000000000000, 0.01966531499999999918 ) ) ;
#108 = DIRECTION ( 'NONE',  ( -1.224646799147353207E-16, -0.0000000000000000000, -1.000000000000000000 ) ) ;
#109 = CONICAL_SURFACE ( 'NONE', #73, 0.01966531499999999225, 0.1745329251994338915 ) ;
#110 = CARTESIAN_POINT ( 'NONE',  ( 0.05905500000000004496, 7.232151672364700045E-18, 0.2824450044209672606 ) ) ;
#111 = ADVANCED_FACE ( 'NONE', ( #235 ), #109, .T. ) ;
#112 = CARTESIAN_POINT ( 'NONE',  ( -0.05905500000000000332, 0.0000000000000000000, 1.481062999999999574 ) ) ;
#113 = MECHANICAL_DESIGN_GEOMETRIC_PRESENTATION_REPRESENTATION (  '', ( #78 ), #273 ) ;
#114 = CIRCLE ( 'NONE', #304, 0.01966531499999999225 ) ;
#115 = LINE ( 'NONE', #84, #190 ) ;
#116 = EDGE_LOOP ( 'NONE', ( #220, #119, #134, #302 ) ) ;
#117 = ORIENTED_EDGE ( 'NONE', *, *, #168, .T. ) ;
#118 = CIRCLE ( 'NONE', #286, 0.04405499999999973326 ) ;
#119 = ORIENTED_EDGE ( 'NONE', *, *, #162, .T. ) ;
#120 = EDGE_LOOP ( 'NONE', ( #301, #29, #72 ) ) ;
#121 =( NAMED_UNIT ( * ) PLANE_ANGLE_UNIT ( ) SI_UNIT ( $, .RADIAN. ) );
#122 = ORIENTED_EDGE ( 'NONE', *, *, #222, .T. ) ;
#123 = ORIENTED_EDGE ( 'NONE', *, *, #162, .F. ) ;
#124 = CYLINDRICAL_SURFACE ( 'NONE', #67, 0.01966531499999999225 ) ;
#125 = CARTESIAN_POINT ( 'NONE',  ( 0.0000000000000000000, 0.0000000000000000000, 1.496062999999999921 ) ) ;
#126 = PRODUCT_DEFINITION ( 'UNKNOWN', '', #26, #9 ) ;
#127 = LENGTH_MEASURE_WITH_UNIT ( LENGTH_MEASURE( 0.02539999999999999897 ), #284 );
#128 = AXIS2_PLACEMENT_3D ( 'NONE', #206, #258, #31 ) ;
#129 = PRESENTATION_LAYER_ASSIGNMENT (  '', '', ( #94 ) ) ;
#130 = DIRECTION ( 'NONE',  ( -1.000000000000000000, 0.0000000000000000000, 1.224646799147353207E-16 ) ) ;
#131 = CYLINDRICAL_SURFACE ( 'NONE', #38, 0.01966531499999999225 ) ;
#132 = DIRECTION ( 'NONE',  ( 0.0000000000000000000, 1.000000000000000000, 0.0000000000000000000 ) ) ;
#133 = SPHERICAL_SURFACE ( 'NONE', #63, 0.01966531499999999918 ) ;
#134 = ORIENTED_EDGE ( 'NONE', *, *, #174, .T. ) ;
#135 = DIRECTION ( 'NONE',  ( -1.000000000000000000, 0.0000000000000000000, 0.0000000000000000000 ) ) ;
#136 = DIRECTION ( 'NONE',  ( 1.000000000000000000, 0.0000000000000000000, 0.0000000000000000000 ) ) ;
#137 = AXIS2_PLACEMENT_3D ( 'NONE', #251, #292, #300 ) ;
#138 = CARTESIAN_POINT ( 'NONE',  ( -0.01966531499999999225, 0.0000000000000000000, 2.408306506897442331E-18 ) ) ;
#139 = DIRECTION ( 'NONE',  ( 1.000000000000000000, 0.0000000000000000000, 0.0000000000000000000 ) ) ;
#140 =( NAMED_UNIT ( * ) SI_UNIT ( $, .STERADIAN. ) SOLID_ANGLE_UNIT ( ) );
#141 = DIRECTION ( 'NONE',  ( -1.000000000000000000, 0.0000000000000000000, 0.0000000000000000000 ) ) ;
#142 = CIRCLE ( 'NONE', #314, 0.01966531499999999225 ) ;
#143 = ORIENTED_EDGE ( 'NONE', *, *, #233, .F. ) ;
#144 = EDGE_CURVE ( 'NONE', #76, #4, #296, .T. ) ;
#145 = PRODUCT ( 'Micro_BMSM-010-4X', 'Micro_BMSM-010-4X', '', ( #50 ) ) ;
#146 =( NAMED_UNIT ( * ) SI_UNIT ( $, .STERADIAN. ) SOLID_ANGLE_UNIT ( ) );
#147 = LINE ( 'NONE', #179, #150 ) ;
#148 = DIRECTION ( 'NONE',  ( -1.224646799147353207E-16, -0.0000000000000000000, -1.000000000000000000 ) ) ;
#149 = EDGE_CURVE ( 'NONE', #97, #293, #151, .T. ) ;
#150 = VECTOR ( 'NONE', #279, 39.37007874015748143 ) ;
#151 = LINE ( 'NONE', #60, #30 ) ;
#152 = PRESENTATION_STYLE_ASSIGNMENT (( #81 ) ) ;
#153 = DIRECTION ( 'NONE',  ( 0.0000000000000000000, 0.0000000000000000000, -1.000000000000000000 ) ) ;
#154 = CARTESIAN_POINT ( 'NONE',  ( 7.232151672364695422E-18, 0.0000000000000000000, 0.05905500000000000332 ) ) ;
#155 = COLOUR_RGB ( '',0.7921568627450980005, 0.8196078431372548767, 0.9333333333333333481 ) ;
#156 = ADVANCED_FACE ( 'NONE', ( #209 ), #124, .T. ) ;
#157 = FILL_AREA_STYLE_COLOUR ( '', #260 ) ;
#158 = DIRECTION ( 'NONE',  ( 0.0000000000000000000, 0.0000000000000000000, 1.000000000000000000 ) ) ;
#159 = DIRECTION ( 'NONE',  ( 0.1736481776669313859, 0.0000000000000000000, 0.9848077530122077983 ) ) ;
#160 = AXIS2_PLACEMENT_3D ( 'NONE', #238, #183, #261 ) ;
#161 = DIRECTION ( 'NONE',  ( -1.000000000000000000, 0.0000000000000000000, 2.170579261049422841E-16 ) ) ;
#162 = EDGE_CURVE ( 'NONE', #173, #181, #195, .T. ) ;
#163 = CARTESIAN_POINT ( 'NONE',  ( -0.01966531499999998531, 4.820229089631068299E-18, 0.05905500000000000332 ) ) ;
#164 = ORIENTED_EDGE ( 'NONE', *, *, #149, .T. ) ;
#165 = DIRECTION ( 'NONE',  ( 0.0000000000000000000, 0.0000000000000000000, -1.000000000000000000 ) ) ;
#166 = AXIS2_PLACEMENT_3D ( 'NONE', #107, #184, #153 ) ;
#167 = AXIS2_PLACEMENT_3D ( 'NONE', #290, #158, #268 ) ;
#168 = EDGE_CURVE ( 'NONE', #97, #230, #57, .T. ) ;
#169 =( CONVERSION_BASED_UNIT ( 'INCH', #46 ) LENGTH_UNIT ( ) NAMED_UNIT ( #85 ) );
#170 = ORIENTED_EDGE ( 'NONE', *, *, #144, .T. ) ;
#171 = CARTESIAN_POINT ( 'NONE',  ( 0.0000000000000000000, 0.0000000000000000000, 0.0000000000000000000 ) ) ;
#172 = MANIFOLD_SOLID_BREP ( 'Fillet1', #186 ) ;
#173 = VERTEX_POINT ( 'NONE', #221 ) ;
#174 = EDGE_CURVE ( 'NONE', #181, #48, #313, .T. ) ;
#175 = CIRCLE ( 'NONE', #303, 0.05905500000000000332 ) ;
#176 = SURFACE_STYLE_FILL_AREA ( #274 ) ;
#177 = CARTESIAN_POINT ( 'NONE',  ( 0.01966531499999999918, 2.408306506897442331E-18, 0.01966531499999999225 ) ) ;
#178 = PRODUCT_DEFINITION_SHAPE ( 'NONE', 'NONE',  #126 ) ;
#179 = CARTESIAN_POINT ( 'NONE',  ( -0.05905500000000000332, 0.0000000000000000000, 1.496062999999999921 ) ) ;
#180 = ADVANCED_FACE ( 'NONE', ( #66 ), #297, .T. ) ;
#181 = VERTEX_POINT ( 'NONE', #163 ) ;
#182 = CARTESIAN_POINT ( 'NONE',  ( 0.05905500000000000332, 7.232151672364695422E-18, 1.481062999999999574 ) ) ;
#183 = DIRECTION ( 'NONE',  ( 1.224646799147353207E-16, 0.0000000000000000000, 1.000000000000000000 ) ) ;
#184 = DIRECTION ( 'NONE',  ( 0.0000000000000000000, -1.000000000000000000, 0.0000000000000000000 ) ) ;
#185 = CARTESIAN_POINT ( 'NONE',  ( 0.0000000000000000000, 0.0000000000000000000, 1.481062999999999574 ) ) ;
#186 = CLOSED_SHELL ( 'NONE', ( #289, #156, #88, #180, #13, #35, #211, #55, #111, #100, #283 ) ) ;
#187 = DIRECTION ( 'NONE',  ( 1.224646799147353207E-16, 0.0000000000000000000, 1.000000000000000000 ) ) ;
#188 = DIRECTION ( 'NONE',  ( 0.0000000000000000000, 0.0000000000000000000, 1.000000000000000000 ) ) ;
#189 = DIRECTION ( 'NONE',  ( 0.7071067811865482389, 8.659560562354941486E-17, -0.7071067811865469066 ) ) ;
#190 = VECTOR ( 'NONE', #189, 39.37007874015748143 ) ;
#191 = CARTESIAN_POINT ( 'NONE',  ( -0.05905499999999996863, 0.0000000000000000000, 0.2824450044209672606 ) ) ;
#192 = EDGE_LOOP ( 'NONE', ( #224, #22 ) ) ;
#193 = CARTESIAN_POINT ( 'NONE',  ( 2.408306506897442716E-18, 0.0000000000000000000, 0.01966531499999999918 ) ) ;
#194 = PRESENTATION_STYLE_ASSIGNMENT (( #270 ) ) ;
#195 = CIRCLE ( 'NONE', #128, 0.01966531499999999225 ) ;
#196 = AXIS2_PLACEMENT_3D ( 'NONE', #91, #165, #135 ) ;
#197 = DIRECTION ( 'NONE',  ( 1.000000000000000000, 0.0000000000000000000, 0.0000000000000000000 ) ) ;
#198 = ORIENTED_EDGE ( 'NONE', *, *, #265, .F. ) ;
#199 = FACE_OUTER_BOUND ( 'NONE', #71, .T. ) ;
#200 =( LENGTH_UNIT ( ) NAMED_UNIT ( * ) SI_UNIT ( $, .METRE. ) );
#201 = EDGE_LOOP ( 'NONE', ( #89, #28, #98, #204 ) ) ;
#202 = AXIS2_PLACEMENT_3D ( 'NONE', #56, #309, #64 ) ;
#203 =( NAMED_UNIT ( * ) PLANE_ANGLE_UNIT ( ) SI_UNIT ( $, .RADIAN. ) );
#204 = ORIENTED_EDGE ( 'NONE', *, *, #174, .F. ) ;
#205 = ORIENTED_EDGE ( 'NONE', *, *, #8, .T. ) ;
#206 = CARTESIAN_POINT ( 'NONE',  ( 7.232151672364695422E-18, 0.0000000000000000000, 0.05905500000000000332 ) ) ;
#207 = AXIS2_PLACEMENT_3D ( 'NONE', #271, #47, #141 ) ;
#208 = DIRECTION ( 'NONE',  ( 1.224646799147353207E-16, 1.000000000000000000, -0.0000000000000000000 ) ) ;
#209 = FACE_OUTER_BOUND ( 'NONE', #201, .T. ) ;
#210 = CARTESIAN_POINT ( 'NONE',  ( 7.232151672364695422E-18, 0.0000000000000000000, 0.05905500000000000332 ) ) ;
#211 = ADVANCED_FACE ( 'NONE', ( #316 ), #321, .T. ) ;
#212 = UNCERTAINTY_MEASURE_WITH_UNIT (LENGTH_MEASURE( 1.000000000000000082E-05 ), #169, 'distance_accuracy_value', 'NONE');
#213 = DIRECTION ( 'NONE',  ( 0.0000000000000000000, 0.0000000000000000000, 1.000000000000000000 ) ) ;
#214 = DIMENSIONAL_EXPONENTS ( 1.000000000000000000, 0.0000000000000000000, 0.0000000000000000000, 0.0000000000000000000, 0.0000000000000000000, 0.0000000000000000000, 0.0000000000000000000 ) ;
#215 = CARTESIAN_POINT ( 'NONE',  ( 2.408306506897442716E-18, 0.0000000000000000000, 0.01966531499999999918 ) ) ;
#216 = LINE ( 'NONE', #318, #74 ) ;
#217 = AXIS2_PLACEMENT_3D ( 'NONE', #234, #281, #7 ) ;
#218 = AXIS2_PLACEMENT_3D ( 'NONE', #287, #213, #65 ) ;
#219 = DIRECTION ( 'NONE',  ( 1.224646799147353207E-16, 0.0000000000000000000, 1.000000000000000000 ) ) ;
#220 = ORIENTED_EDGE ( 'NONE', *, *, #2, .F. ) ;
#221 = CARTESIAN_POINT ( 'NONE',  ( 0.01966531500000000265, 0.0000000000000000000, 0.05905500000000000332 ) ) ;
#222 = EDGE_CURVE ( 'NONE', #101, #97, #115, .T. ) ;
#223 = DIRECTION ( 'NONE',  ( 0.0000000000000000000, 0.0000000000000000000, 1.000000000000000000 ) ) ;
#224 = ORIENTED_EDGE ( 'NONE', *, *, #265, .T. ) ;
#225 = CIRCLE ( 'NONE', #243, 0.05905500000000000332 ) ;
#226 =( GEOMETRIC_REPRESENTATION_CONTEXT ( 3 ) GLOBAL_UNCERTAINTY_ASSIGNED_CONTEXT ( ( #212 ) ) GLOBAL_UNIT_ASSIGNED_CONTEXT ( ( #169, #203, #146 ) ) REPRESENTATION_CONTEXT ( 'NONE', 'WORKASPACE' ) );
#227 = CYLINDRICAL_SURFACE ( 'NONE', #207, 0.05905500000000000332 ) ;
#228 = ORIENTED_EDGE ( 'NONE', *, *, #222, .F. ) ;
#229 = SHAPE_DEFINITION_REPRESENTATION ( #178, #298 ) ;
#230 = VERTEX_POINT ( 'NONE', #112 ) ;
#231 = APPLICATION_PROTOCOL_DEFINITION ( 'draft international standard', 'automotive_design', 1998, #54 ) ;
#232 = EDGE_LOOP ( 'NONE', ( #42, #122, #24, #99 ) ) ;
#233 = EDGE_CURVE ( 'NONE', #181, #249, #266, .T. ) ;
#234 = CARTESIAN_POINT ( 'NONE',  ( 0.0000000000000000000, 0.0000000000000000000, 1.481062999999999574 ) ) ;
#235 = FACE_OUTER_BOUND ( 'NONE', #51, .T. ) ;
#236 = EDGE_CURVE ( 'NONE', #173, #293, #216, .T. ) ;
#237 = VECTOR ( 'NONE', #253, 39.37007874015748143 ) ;
#238 = CARTESIAN_POINT ( 'NONE',  ( 7.232151672364695422E-18, 0.0000000000000000000, 0.05905500000000000332 ) ) ;
#239 = VECTOR ( 'NONE', #264, 39.37007874015747433 ) ;
#240 = FACE_OUTER_BOUND ( 'NONE', #246, .T. ) ;
#241 = SURFACE_SIDE_STYLE ('',( #32 ) ) ;
#242 = FACE_OUTER_BOUND ( 'NONE', #120, .T. ) ;
#243 = AXIS2_PLACEMENT_3D ( 'NONE', #185, #285, #282 ) ;
#244 = CIRCLE ( 'NONE', #325, 0.01966531499999999225 ) ;
#245 = SPHERICAL_SURFACE ( 'NONE', #33, 0.01966531499999999918 ) ;
#246 = EDGE_LOOP ( 'NONE', ( #257, #305, #5, #275 ) ) ;
#247 = DIRECTION ( 'NONE',  ( 1.224646799147353207E-16, 0.0000000000000000000, 1.000000000000000000 ) ) ;
#248 =( NAMED_UNIT ( * ) PLANE_ANGLE_UNIT ( ) SI_UNIT ( $, .RADIAN. ) );
#249 = VERTEX_POINT ( 'NONE', #191 ) ;
#250 = CIRCLE ( 'NONE', #25, 0.01966531499999999918 ) ;
#251 = CARTESIAN_POINT ( 'NONE',  ( 3.458953705992975487E-17, 0.0000000000000000000, 0.2824450044209672606 ) ) ;
#252 = FACE_OUTER_BOUND ( 'NONE', #272, .T. ) ;
#253 = DIRECTION ( 'NONE',  ( -1.224646799147353207E-16, -0.0000000000000000000, -1.000000000000000000 ) ) ;
#254 = PRESENTATION_LAYER_ASSIGNMENT (  '', '', ( #78 ) ) ;
#255 = ORIENTED_EDGE ( 'NONE', *, *, #322, .F. ) ;
#256 = ORIENTED_EDGE ( 'NONE', *, *, #269, .T. ) ;
#257 = ORIENTED_EDGE ( 'NONE', *, *, #40, .F. ) ;
#258 = DIRECTION ( 'NONE',  ( -1.224646799147353207E-16, -0.0000000000000000000, -1.000000000000000000 ) ) ;
#259 = FACE_OUTER_BOUND ( 'NONE', #116, .T. ) ;
#260 = COLOUR_RGB ( '',0.7921568627450980005, 0.8196078431372548767, 0.9333333333333333481 ) ;
#261 = DIRECTION ( 'NONE',  ( 1.000000000000000000, 0.0000000000000000000, 0.0000000000000000000 ) ) ;
#262 = VECTOR ( 'NONE', #37, 39.37007874015748143 ) ;
#263 = CARTESIAN_POINT ( 'NONE',  ( 0.0000000000000000000, 0.0000000000000000000, 0.0000000000000000000 ) ) ;
#264 = DIRECTION ( 'NONE',  ( -0.1736481776669311916, 2.126576849575783316E-17, 0.9848077530122080203 ) ) ;
#265 = EDGE_CURVE ( 'NONE', #323, #101, #58, .T. ) ;
#266 = LINE ( 'NONE', #43, #239 ) ;
#267 = PRODUCT_RELATED_PRODUCT_CATEGORY ( 'part', '', ( #145 ) ) ;
#268 = DIRECTION ( 'NONE',  ( 1.000000000000000000, 0.0000000000000000000, 0.0000000000000000000 ) ) ;
#269 = EDGE_CURVE ( 'NONE', #323, #230, #41, .T. ) ;
#270 = SURFACE_STYLE_USAGE ( .BOTH. , #93 ) ;
#271 = CARTESIAN_POINT ( 'NONE',  ( 0.0000000000000000000, 0.0000000000000000000, 1.496062999999999921 ) ) ;
#272 = EDGE_LOOP ( 'NONE', ( #307, #164, #255, #27 ) ) ;
#273 =( GEOMETRIC_REPRESENTATION_CONTEXT ( 3 ) GLOBAL_UNCERTAINTY_ASSIGNED_CONTEXT ( ( #14 ) ) GLOBAL_UNIT_ASSIGNED_CONTEXT ( ( #68, #248, #87 ) ) REPRESENTATION_CONTEXT ( 'NONE', 'WORKASPACE' ) );
#274 = FILL_AREA_STYLE ('',( #277 ) ) ;
#275 = ORIENTED_EDGE ( 'NONE', *, *, #236, .F. ) ;
#276 = EDGE_CURVE ( 'NONE', #101, #323, #118, .T. ) ;
#277 = FILL_AREA_STYLE_COLOUR ( '', #155 ) ;
#278 = ORIENTED_EDGE ( 'NONE', *, *, #306, .F. ) ;
#279 = DIRECTION ( 'NONE',  ( -0.0000000000000000000, -0.0000000000000000000, -1.000000000000000000 ) ) ;
#280 = MECHANICAL_DESIGN_GEOMETRIC_PRESENTATION_REPRESENTATION (  '', ( #94 ), #19 ) ;
#281 = DIRECTION ( 'NONE',  ( 0.0000000000000000000, 0.0000000000000000000, -1.000000000000000000 ) ) ;
#282 = DIRECTION ( 'NONE',  ( 1.000000000000000000, 0.0000000000000000000, 0.0000000000000000000 ) ) ;
#283 = ADVANCED_FACE ( 'NONE', ( #39 ), #133, .T. ) ;
#284 =( LENGTH_UNIT ( ) NAMED_UNIT ( * ) SI_UNIT ( $, .METRE. ) );
#285 = DIRECTION ( 'NONE',  ( 0.0000000000000000000, 0.0000000000000000000, -1.000000000000000000 ) ) ;
#286 = AXIS2_PLACEMENT_3D ( 'NONE', #317, #188, #288 ) ;
#287 = CARTESIAN_POINT ( 'NONE',  ( 0.0000000000000000000, 0.0000000000000000000, 1.496062999999999921 ) ) ;
#288 = DIRECTION ( 'NONE',  ( 1.000000000000000000, 0.0000000000000000000, 0.0000000000000000000 ) ) ;
#289 = ADVANCED_FACE ( 'NONE', ( #242 ), #245, .T. ) ;
#290 = CARTESIAN_POINT ( 'NONE',  ( 0.0000000000000000000, 0.0000000000000000000, 1.496062999999999921 ) ) ;
#291 = ORIENTED_EDGE ( 'NONE', *, *, #6, .T. ) ;
#292 = DIRECTION ( 'NONE',  ( -1.224646799147353207E-16, -0.0000000000000000000, -1.000000000000000000 ) ) ;
#293 = VERTEX_POINT ( 'NONE', #110 ) ;
#294 = EDGE_CURVE ( 'NONE', #4, #48, #244, .T. ) ;
#295 =( LENGTH_UNIT ( ) NAMED_UNIT ( * ) SI_UNIT ( $, .METRE. ) );
#296 = CIRCLE ( 'NONE', #166, 0.01966531499999999918 ) ;
#297 = CONICAL_SURFACE ( 'NONE', #196, 0.04405499999999973326, 0.7853981633974491672 ) ;
#298 = ADVANCED_BREP_SHAPE_REPRESENTATION ( 'Micro_BMSM-010-4X', ( #172, #49 ), #226 ) ;
#299 = CARTESIAN_POINT ( 'NONE',  ( 3.458953705992975487E-17, 0.0000000000000000000, 0.2824450044209672606 ) ) ;
#300 = DIRECTION ( 'NONE',  ( 1.000000000000000000, 0.0000000000000000000, 0.0000000000000000000 ) ) ;
#301 = ORIENTED_EDGE ( 'NONE', *, *, #144, .F. ) ;
#302 = ORIENTED_EDGE ( 'NONE', *, *, #306, .T. ) ;
#303 = AXIS2_PLACEMENT_3D ( 'NONE', #299, #148, #139 ) ;
#304 = AXIS2_PLACEMENT_3D ( 'NONE', #193, #247, #16 ) ;
#305 = ORIENTED_EDGE ( 'NONE', *, *, #233, .T. ) ;
#306 = EDGE_CURVE ( 'NONE', #48, #4, #114, .T. ) ;
#307 = ORIENTED_EDGE ( 'NONE', *, *, #103, .T. ) ;
#308 = UNCERTAINTY_MEASURE_WITH_UNIT (LENGTH_MEASURE( 1.000000000000000082E-05 ), #52, 'distance_accuracy_value', 'NONE');
#309 = DIRECTION ( 'NONE',  ( -0.0000000000000000000, -0.0000000000000000000, -1.000000000000000000 ) ) ;
#310 = CONICAL_SURFACE ( 'NONE', #105, 0.04405499999999973326, 0.7853981633974491672 ) ;
#311 = CARTESIAN_POINT ( 'NONE',  ( 3.612459760346164074E-18, 0.0000000000000000000, 0.0000000000000000000 ) ) ;
#312 = CARTESIAN_POINT ( 'NONE',  ( 0.04405499999999973326, 6.313666573004162521E-18, 1.496062999999999921 ) ) ;
#313 = LINE ( 'NONE', #138, #44 ) ;
#314 = AXIS2_PLACEMENT_3D ( 'NONE', #154, #108, #10 ) ;
#315 = FACE_OUTER_BOUND ( 'NONE', #21, .T. ) ;
#316 = FACE_OUTER_BOUND ( 'NONE', #192, .T. ) ;
#317 = CARTESIAN_POINT ( 'NONE',  ( 0.0000000000000000000, 0.0000000000000000000, 1.496062999999999921 ) ) ;
#318 = CARTESIAN_POINT ( 'NONE',  ( 0.01966531500000000265, 0.0000000000000000000, 0.05905500000000000332 ) ) ;
#319 = DIRECTION ( 'NONE',  ( 1.000000000000000000, 0.0000000000000000000, 0.0000000000000000000 ) ) ;
#320 = ORIENTED_EDGE ( 'NONE', *, *, #168, .F. ) ;
#321 = PLANE ( 'NONE',  #218 ) ;
#322 = EDGE_CURVE ( 'NONE', #249, #293, #45, .T. ) ;
#323 = VERTEX_POINT ( 'NONE', #69 ) ;
#324 = CONICAL_SURFACE ( 'NONE', #160, 0.01966531499999999225, 0.1745329251994338915 ) ;
#325 = AXIS2_PLACEMENT_3D ( 'NONE', #215, #219, #161 ) ;
ENDSEC;
END-ISO-10303-21;
