ISO-10303-21;
HEADER;
FILE_DESCRIPTION (( 'STEP AP214' ),
    '1' );
FILE_NAME ('Micro_SEM-031-03X.STEP',
    '2021-09-02T00:31:54',
    ( '' ),
    ( '' ),
    'SwSTEP 2.0',
    'SolidWorks 2020',
    '' );
FILE_SCHEMA (( 'AUTOMOTIVE_DESIGN' ));
ENDSEC;

DATA;
#1 = CARTESIAN_POINT ( 'NONE',  ( 4.029964685712221030E-17, 0.0000000000000000000, 0.3290715893364551392 ) ) ;
#2 =( NAMED_UNIT ( * ) SI_UNIT ( $, .STERADIAN. ) SOLID_ANGLE_UNIT ( ) );
#3 = DIRECTION ( 'NONE',  ( 0.0000000000000000000, 0.0000000000000000000, -1.000000000000000000 ) ) ;
#4 = PRESENTATION_LAYER_ASSIGNMENT (  '', '', ( #48 ) ) ;
#5 = APPLICATION_CONTEXT ( 'automotive_design' ) ;
#6 = DIRECTION ( 'NONE',  ( -1.000000000000000000, 0.0000000000000000000, 0.0000000000000000000 ) ) ;
#7 = DIRECTION ( 'NONE',  ( 0.7071067811865456854, 8.659560562354911904E-17, -0.7071067811865493491 ) ) ;
#8 = CARTESIAN_POINT ( 'NONE',  ( 0.0000000000000000000, 0.0000000000000000000, 1.500000000000000222 ) ) ;
#9 =( CONVERSION_BASED_UNIT ( 'INCH', #213 ) LENGTH_UNIT ( ) NAMED_UNIT ( #113 ) );
#10 = CIRCLE ( 'NONE', #74, 0.04750000000000064587 ) ;
#11 = LINE ( 'NONE', #103, #30 ) ;
#12 = ORIENTED_EDGE ( 'NONE', *, *, #128, .T. ) ;
#13 = EDGE_CURVE ( 'NONE', #153, #87, #259, .T. ) ;
#14 = AXIS2_PLACEMENT_3D ( 'NONE', #144, #159, #119 ) ;
#15 = CARTESIAN_POINT ( 'NONE',  ( -0.01558439999999999652, 1.908538557663201862E-18, 0.06300000000000000044 ) ) ;
#16 = VERTEX_POINT ( 'NONE', #247 ) ;
#17 = ORIENTED_EDGE ( 'NONE', *, *, #81, .T. ) ;
#18 = DIMENSIONAL_EXPONENTS ( 1.000000000000000000, 0.0000000000000000000, 0.0000000000000000000, 0.0000000000000000000, 0.0000000000000000000, 0.0000000000000000000, 0.0000000000000000000 ) ;
#19 = EDGE_LOOP ( 'NONE', ( #176, #61 ) ) ;
#20 = FACE_OUTER_BOUND ( 'NONE', #261, .T. ) ;
#21 = PRODUCT_DEFINITION_CONTEXT ( 'detailed design', #5, 'design' ) ;
#22 = ADVANCED_FACE ( 'NONE', ( #20 ), #298, .T. ) ;
#23 = DIRECTION ( 'NONE',  ( -1.000000000000000000, 0.0000000000000000000, 1.224646799147353454E-16 ) ) ;
#24 = CIRCLE ( 'NONE', #195, 0.01558439999999999652 ) ;
#25 = AXIS2_PLACEMENT_3D ( 'NONE', #287, #149, #133 ) ;
#26 = FACE_OUTER_BOUND ( 'NONE', #202, .T. ) ;
#27 = DIRECTION ( 'NONE',  ( -1.224646799147353454E-16, -0.0000000000000000000, -1.000000000000000000 ) ) ;
#28 = CARTESIAN_POINT ( 'NONE',  ( 0.0000000000000000000, 0.0000000000000000000, 0.0000000000000000000 ) ) ;
#29 = AXIS2_PLACEMENT_3D ( 'NONE', #286, #210, #281 ) ;
#30 = VECTOR ( 'NONE', #7, 39.37007874015748143 ) ;
#31 = CARTESIAN_POINT ( 'NONE',  ( -0.04750000000000064587, 0.0000000000000000000, 1.500000000000000222 ) ) ;
#32 = EDGE_CURVE ( 'NONE', #16, #201, #24, .T. ) ;
#33 = DIRECTION ( 'NONE',  ( -1.000000000000000000, 0.0000000000000000000, 1.224646799147353454E-16 ) ) ;
#34 = FACE_OUTER_BOUND ( 'NONE', #64, .T. ) ;
#35 = AXIS2_PLACEMENT_3D ( 'NONE', #295, #94, #186 ) ;
#36 = ORIENTED_EDGE ( 'NONE', *, *, #161, .F. ) ;
#37 = EDGE_LOOP ( 'NONE', ( #60, #290, #59, #291 ) ) ;
#38 = ORIENTED_EDGE ( 'NONE', *, *, #294, .T. ) ;
#39 = AXIS2_PLACEMENT_3D ( 'NONE', #273, #297, #184 ) ;
#40 = SURFACE_STYLE_USAGE ( .BOTH. , #245 ) ;
#41 = AXIS2_PLACEMENT_3D ( 'NONE', #91, #43, #68 ) ;
#42 = EDGE_CURVE ( 'NONE', #201, #16, #218, .T. ) ;
#43 = DIRECTION ( 'NONE',  ( 0.0000000000000000000, 0.0000000000000000000, 1.000000000000000000 ) ) ;
#44 = CYLINDRICAL_SURFACE ( 'NONE', #52, 0.01558439999999999999 ) ;
#45 = EDGE_CURVE ( 'NONE', #87, #201, #71, .T. ) ;
#46 = CARTESIAN_POINT ( 'NONE',  ( 0.0000000000000000000, 0.0000000000000000000, 1.485000000000000764 ) ) ;
#47 =( CONVERSION_BASED_UNIT ( 'INCH', #205 ) LENGTH_UNIT ( ) NAMED_UNIT ( #18 ) );
#48 = STYLED_ITEM ( 'NONE', ( #114 ), #66 ) ;
#49 =( LENGTH_UNIT ( ) NAMED_UNIT ( * ) SI_UNIT ( $, .METRE. ) );
#50 = CYLINDRICAL_SURFACE ( 'NONE', #238, 0.06250000000000000000 ) ;
#51 = DIRECTION ( 'NONE',  ( -0.0000000000000000000, -0.0000000000000000000, -1.000000000000000000 ) ) ;
#52 = AXIS2_PLACEMENT_3D ( 'NONE', #274, #73, #23 ) ;
#53 = AXIS2_PLACEMENT_3D ( 'NONE', #28, #194, #33 ) ;
#54 = DIRECTION ( 'NONE',  ( 0.0000000000000000000, 0.0000000000000000000, 1.000000000000000000 ) ) ;
#55 = FACE_OUTER_BOUND ( 'NONE', #288, .T. ) ;
#56 = CARTESIAN_POINT ( 'NONE',  ( 7.715274834628326610E-18, 0.0000000000000000000, 0.06300000000000000044 ) ) ;
#57 = CIRCLE ( 'NONE', #124, 0.04750000000000064587 ) ;
#58 = CARTESIAN_POINT ( 'NONE',  ( 0.0000000000000000000, 0.0000000000000000000, 1.485000000000000764 ) ) ;
#59 = ORIENTED_EDGE ( 'NONE', *, *, #277, .F. ) ;
#60 = ORIENTED_EDGE ( 'NONE', *, *, #126, .T. ) ;
#61 = ORIENTED_EDGE ( 'NONE', *, *, #32, .T. ) ;
#62 =( GEOMETRIC_REPRESENTATION_CONTEXT ( 3 ) GLOBAL_UNCERTAINTY_ASSIGNED_CONTEXT ( ( #296 ) ) GLOBAL_UNIT_ASSIGNED_CONTEXT ( ( #47, #293, #2 ) ) REPRESENTATION_CONTEXT ( 'NONE', 'WORKASPACE' ) );
#63 = ORIENTED_EDGE ( 'NONE', *, *, #203, .T. ) ;
#64 = EDGE_LOOP ( 'NONE', ( #263, #105 ) ) ;
#65 =( CONVERSION_BASED_UNIT ( 'INCH', #254 ) LENGTH_UNIT ( ) NAMED_UNIT ( #206 ) );
#66 = MANIFOLD_SOLID_BREP ( 'Cut-Revolve1', #282 ) ;
#67 = ORIENTED_EDGE ( 'NONE', *, *, #292, .T. ) ;
#68 = DIRECTION ( 'NONE',  ( 1.000000000000000000, 0.0000000000000000000, 0.0000000000000000000 ) ) ;
#69 = AXIS2_PLACEMENT_3D ( 'NONE', #257, #131, #236 ) ;
#70 = CARTESIAN_POINT ( 'NONE',  ( 2.337285635691545748E-34, 0.0000000000000000000, 1.908538557663201091E-18 ) ) ;
#71 = LINE ( 'NONE', #182, #246 ) ;
#72 = UNCERTAINTY_MEASURE_WITH_UNIT (LENGTH_MEASURE( 1.000000000000000082E-05 ), #65, 'distance_accuracy_value', 'NONE');
#73 = DIRECTION ( 'NONE',  ( -1.224646799147353454E-16, -0.0000000000000000000, -1.000000000000000000 ) ) ;
#74 = AXIS2_PLACEMENT_3D ( 'NONE', #192, #54, #170 ) ;
#75 = CARTESIAN_POINT ( 'NONE',  ( 7.715274834628326610E-18, 0.0000000000000000000, 0.06300000000000000044 ) ) ;
#76 = SURFACE_STYLE_USAGE ( .BOTH. , #278 ) ;
#77 = LINE ( 'NONE', #233, #211 ) ;
#78 = PLANE ( 'NONE',  #29 ) ;
#79 = LINE ( 'NONE', #171, #276 ) ;
#80 = CARTESIAN_POINT ( 'NONE',  ( -0.06249999999999995837, 0.0000000000000000000, 0.3290715893364551392 ) ) ;
#81 = EDGE_CURVE ( 'NONE', #198, #156, #209, .T. ) ;
#82 = DIRECTION ( 'NONE',  ( -0.1736481776669311916, 2.126576849575783316E-17, 0.9848077530122080203 ) ) ;
#83 = ORIENTED_EDGE ( 'NONE', *, *, #42, .F. ) ;
#84 = AXIS2_PLACEMENT_3D ( 'NONE', #56, #27, #146 ) ;
#85 = ORIENTED_EDGE ( 'NONE', *, *, #221, .F. ) ;
#86 = ORIENTED_EDGE ( 'NONE', *, *, #292, .F. ) ;
#87 = VERTEX_POINT ( 'NONE', #188 ) ;
#88 = CONICAL_SURFACE ( 'NONE', #35, 0.04750000000000064587, 0.7853981633974457255 ) ;
#89 = PRODUCT_DEFINITION_FORMATION_WITH_SPECIFIED_SOURCE ( 'ANY', '', #214, .NOT_KNOWN. ) ;
#90 = ORIENTED_EDGE ( 'NONE', *, *, #196, .T. ) ;
#91 = CARTESIAN_POINT ( 'NONE',  ( 0.0000000000000000000, 0.0000000000000000000, 0.0000000000000000000 ) ) ;
#92 = ADVANCED_FACE ( 'NONE', ( #249 ), #88, .T. ) ;
#93 = DIRECTION ( 'NONE',  ( 1.224646799147353454E-16, 0.0000000000000000000, 1.000000000000000000 ) ) ;
#94 = DIRECTION ( 'NONE',  ( 0.0000000000000000000, 0.0000000000000000000, -1.000000000000000000 ) ) ;
#95 = VECTOR ( 'NONE', #227, 39.37007874015748143 ) ;
#96 = CARTESIAN_POINT ( 'NONE',  ( 2.337285635691545748E-34, 0.0000000000000000000, 1.908538557663201091E-18 ) ) ;
#97 = FILL_AREA_STYLE ('',( #269 ) ) ;
#98 = DIRECTION ( 'NONE',  ( -1.224646799147353454E-16, -0.0000000000000000000, -1.000000000000000000 ) ) ;
#99 = SURFACE_STYLE_FILL_AREA ( #143 ) ;
#100 = FACE_OUTER_BOUND ( 'NONE', #109, .T. ) ;
#101 = CARTESIAN_POINT ( 'NONE',  ( 0.01558440000000001387, 0.0000000000000000000, 0.06300000000000000044 ) ) ;
#102 = CARTESIAN_POINT ( 'NONE',  ( 0.04750000000000064587, 6.735557395310482421E-18, 1.500000000000000222 ) ) ;
#103 = CARTESIAN_POINT ( 'NONE',  ( 0.04750000000000064587, 5.817072295950006528E-18, 1.500000000000000222 ) ) ;
#104 = CARTESIAN_POINT ( 'NONE',  ( 0.01558439999999999999, 1.908538557663201091E-18, -1.908538557663201477E-18 ) ) ;
#105 = ORIENTED_EDGE ( 'NONE', *, *, #165, .T. ) ;
#106 = ADVANCED_FACE ( 'NONE', ( #26 ), #44, .T. ) ;
#107 = ORIENTED_EDGE ( 'NONE', *, *, #13, .T. ) ;
#108 = VECTOR ( 'NONE', #237, 39.37007874015748143 ) ;
#109 = EDGE_LOOP ( 'NONE', ( #36, #67, #241, #136 ) ) ;
#110 = ORIENTED_EDGE ( 'NONE', *, *, #272, .F. ) ;
#111 = VERTEX_POINT ( 'NONE', #162 ) ;
#112 = CIRCLE ( 'NONE', #275, 0.06250000000000000000 ) ;
#113 = DIMENSIONAL_EXPONENTS ( 1.000000000000000000, 0.0000000000000000000, 0.0000000000000000000, 0.0000000000000000000, 0.0000000000000000000, 0.0000000000000000000, 0.0000000000000000000 ) ;
#114 = PRESENTATION_STYLE_ASSIGNMENT (( #40 ) ) ;
#115 = CYLINDRICAL_SURFACE ( 'NONE', #39, 0.06250000000000000000 ) ;
#116 = ADVANCED_FACE ( 'NONE', ( #142 ), #115, .T. ) ;
#117 = DIRECTION ( 'NONE',  ( 0.0000000000000000000, 0.0000000000000000000, -1.000000000000000000 ) ) ;
#118 = AXIS2_PLACEMENT_3D ( 'NONE', #75, #215, #285 ) ;
#119 = DIRECTION ( 'NONE',  ( -1.000000000000000000, 0.0000000000000000000, 0.0000000000000000000 ) ) ;
#120 =( NAMED_UNIT ( * ) PLANE_ANGLE_UNIT ( ) SI_UNIT ( $, .RADIAN. ) );
#121 = DIRECTION ( 'NONE',  ( -0.0000000000000000000, -0.0000000000000000000, -1.000000000000000000 ) ) ;
#122 =( LENGTH_UNIT ( ) NAMED_UNIT ( * ) SI_UNIT ( $, .METRE. ) );
#123 = LINE ( 'NONE', #104, #271 ) ;
#124 = AXIS2_PLACEMENT_3D ( 'NONE', #8, #283, #164 ) ;
#125 = STYLED_ITEM ( 'NONE', ( #252 ), #199 ) ;
#126 = EDGE_CURVE ( 'NONE', #156, #111, #134, .T. ) ;
#127 = DIRECTION ( 'NONE',  ( -1.224646799147353454E-16, -0.0000000000000000000, -1.000000000000000000 ) ) ;
#128 = EDGE_CURVE ( 'NONE', #262, #266, #112, .T. ) ;
#129 = FACE_OUTER_BOUND ( 'NONE', #223, .T. ) ;
#130 = DIRECTION ( 'NONE',  ( 1.000000000000000000, 0.0000000000000000000, 0.0000000000000000000 ) ) ;
#131 = DIRECTION ( 'NONE',  ( 0.0000000000000000000, 0.0000000000000000000, 1.000000000000000000 ) ) ;
#132 = PRODUCT_CONTEXT ( 'NONE', #239, 'mechanical' ) ;
#133 = DIRECTION ( 'NONE',  ( 1.000000000000000000, 0.0000000000000000000, 0.0000000000000000000 ) ) ;
#134 = CIRCLE ( 'NONE', #172, 0.06250000000000000000 ) ;
#135 = CIRCLE ( 'NONE', #155, 0.06250000000000000000 ) ;
#136 = ORIENTED_EDGE ( 'NONE', *, *, #196, .F. ) ;
#137 = EDGE_LOOP ( 'NONE', ( #157, #63, #265, #204 ) ) ;
#138 = ORIENTED_EDGE ( 'NONE', *, *, #294, .F. ) ;
#139 = PRODUCT_DEFINITION ( 'UNKNOWN', '', #89, #21 ) ;
#140 = AXIS2_PLACEMENT_3D ( 'NONE', #96, #268, #231 ) ;
#141 = CARTESIAN_POINT ( 'NONE',  ( 7.715274834628326610E-18, 0.0000000000000000000, 0.06300000000000000044 ) ) ;
#142 = FACE_OUTER_BOUND ( 'NONE', #37, .T. ) ;
#143 = FILL_AREA_STYLE ('',( #163 ) ) ;
#144 = CARTESIAN_POINT ( 'NONE',  ( 7.715274834628326610E-18, 0.0000000000000000000, 0.06300000000000000044 ) ) ;
#145 = CYLINDRICAL_SURFACE ( 'NONE', #53, 0.01558439999999999999 ) ;
#146 = DIRECTION ( 'NONE',  ( -1.000000000000000000, 0.0000000000000000000, 0.0000000000000000000 ) ) ;
#147 = CARTESIAN_POINT ( 'NONE',  ( -0.01558439999999999652, 0.0000000000000000000, 3.817077115326402183E-18 ) ) ;
#148 = PLANE ( 'NONE',  #69 ) ;
#149 = DIRECTION ( 'NONE',  ( -1.224646799147353454E-16, -0.0000000000000000000, -1.000000000000000000 ) ) ;
#150 = CIRCLE ( 'NONE', #25, 0.06250000000000000000 ) ;
#151 = PRODUCT_DEFINITION_SHAPE ( 'NONE', 'NONE',  #139 ) ;
#152 =( NAMED_UNIT ( * ) SI_UNIT ( $, .STERADIAN. ) SOLID_ANGLE_UNIT ( ) );
#153 = VERTEX_POINT ( 'NONE', #258 ) ;
#154 = EDGE_LOOP ( 'NONE', ( #110, #38, #174, #240 ) ) ;
#155 = AXIS2_PLACEMENT_3D ( 'NONE', #58, #248, #130 ) ;
#156 = VERTEX_POINT ( 'NONE', #253 ) ;
#157 = ORIENTED_EDGE ( 'NONE', *, *, #165, .F. ) ;
#158 = EDGE_CURVE ( 'NONE', #156, #266, #77, .T. ) ;
#159 = DIRECTION ( 'NONE',  ( -1.224646799147353454E-16, -0.0000000000000000000, -1.000000000000000000 ) ) ;
#160 = ORIENTED_EDGE ( 'NONE', *, *, #13, .F. ) ;
#161 = EDGE_CURVE ( 'NONE', #87, #153, #190, .T. ) ;
#162 = CARTESIAN_POINT ( 'NONE',  ( 0.06250000000000000000, 7.654042494670956004E-18, 1.485000000000000764 ) ) ;
#163 = FILL_AREA_STYLE_COLOUR ( '', #299 ) ;
#164 = DIRECTION ( 'NONE',  ( 1.000000000000000000, 0.0000000000000000000, 0.0000000000000000000 ) ) ;
#165 = EDGE_CURVE ( 'NONE', #222, #198, #57, .T. ) ;
#166 = CARTESIAN_POINT ( 'NONE',  ( 0.0000000000000000000, 0.0000000000000000000, 1.500000000000000222 ) ) ;
#167 =( LENGTH_UNIT ( ) NAMED_UNIT ( * ) SI_UNIT ( $, .METRE. ) );
#168 = CARTESIAN_POINT ( 'NONE',  ( 0.0000000000000000000, 0.0000000000000000000, 1.500000000000000222 ) ) ;
#169 = ADVANCED_FACE ( 'NONE', ( #34 ), #78, .T. ) ;
#170 = DIRECTION ( 'NONE',  ( 1.000000000000000000, 0.0000000000000000000, 0.0000000000000000000 ) ) ;
#171 = CARTESIAN_POINT ( 'NONE',  ( 0.06250000000000000000, 7.654042494670956004E-18, 1.500000000000000222 ) ) ;
#172 = AXIS2_PLACEMENT_3D ( 'NONE', #46, #117, #251 ) ;
#173 = ADVANCED_FACE ( 'NONE', ( #55 ), #234, .T. ) ;
#174 = ORIENTED_EDGE ( 'NONE', *, *, #158, .T. ) ;
#175 = ORIENTED_EDGE ( 'NONE', *, *, #45, .T. ) ;
#176 = ORIENTED_EDGE ( 'NONE', *, *, #42, .T. ) ;
#177 = VECTOR ( 'NONE', #82, 39.37007874015747433 ) ;
#178 = ORIENTED_EDGE ( 'NONE', *, *, #203, .F. ) ;
#179 = APPLICATION_PROTOCOL_DEFINITION ( 'draft international standard', 'automotive_design', 1998, #5 ) ;
#180 = ADVANCED_FACE ( 'NONE', ( #235 ), #148, .F. ) ;
#181 = DIRECTION ( 'NONE',  ( 1.000000000000000000, 0.0000000000000000000, 0.0000000000000000000 ) ) ;
#182 = CARTESIAN_POINT ( 'NONE',  ( -0.01558439999999999999, 0.0000000000000000000, 1.908538557663201477E-18 ) ) ;
#183 = PRESENTATION_LAYER_ASSIGNMENT (  '', '', ( #125 ) ) ;
#184 = DIRECTION ( 'NONE',  ( -1.000000000000000000, 0.0000000000000000000, 0.0000000000000000000 ) ) ;
#185 = EDGE_CURVE ( 'NONE', #198, #222, #10, .T. ) ;
#186 = DIRECTION ( 'NONE',  ( -1.000000000000000000, 0.0000000000000000000, 0.0000000000000000000 ) ) ;
#187 = UNCERTAINTY_MEASURE_WITH_UNIT (LENGTH_MEASURE( 1.000000000000000082E-05 ), #9, 'distance_accuracy_value', 'NONE');
#188 = CARTESIAN_POINT ( 'NONE',  ( -0.01558439999999999652, 4.781290526167079511E-18, 0.06300000000000000044 ) ) ;
#189 = ADVANCED_FACE ( 'NONE', ( #279 ), #50, .T. ) ;
#190 = CIRCLE ( 'NONE', #84, 0.01558440000000000519 ) ;
#191 = CONICAL_SURFACE ( 'NONE', #118, 0.01558440000000000519, 0.1745329251994338915 ) ;
#192 = CARTESIAN_POINT ( 'NONE',  ( 0.0000000000000000000, 0.0000000000000000000, 1.500000000000000222 ) ) ;
#193 = DIRECTION ( 'NONE',  ( -1.224646799147353454E-16, -0.0000000000000000000, -1.000000000000000000 ) ) ;
#194 = DIRECTION ( 'NONE',  ( -1.224646799147353454E-16, -0.0000000000000000000, -1.000000000000000000 ) ) ;
#195 = AXIS2_PLACEMENT_3D ( 'NONE', #70, #98, #226 ) ;
#196 = EDGE_CURVE ( 'NONE', #153, #262, #255, .T. ) ;
#197 = CARTESIAN_POINT ( 'NONE',  ( 0.06250000000000004163, 7.654042494670960626E-18, 0.3290715893364551392 ) ) ;
#198 = VERTEX_POINT ( 'NONE', #31 ) ;
#199 = ADVANCED_BREP_SHAPE_REPRESENTATION ( 'Micro_SEM-031-03X', ( #66, #41 ), #260 ) ;
#200 = ORIENTED_EDGE ( 'NONE', *, *, #161, .T. ) ;
#201 = VERTEX_POINT ( 'NONE', #147 ) ;
#202 = EDGE_LOOP ( 'NONE', ( #200, #289, #83, #242 ) ) ;
#203 = EDGE_CURVE ( 'NONE', #222, #111, #11, .T. ) ;
#204 = ORIENTED_EDGE ( 'NONE', *, *, #81, .F. ) ;
#205 = LENGTH_MEASURE_WITH_UNIT ( LENGTH_MEASURE( 0.02539999999999999897 ), #49 );
#206 = DIMENSIONAL_EXPONENTS ( 1.000000000000000000, 0.0000000000000000000, 0.0000000000000000000, 0.0000000000000000000, 0.0000000000000000000, 0.0000000000000000000, 0.0000000000000000000 ) ;
#207 = CARTESIAN_POINT ( 'NONE',  ( -0.04750000000000064587, 0.0000000000000000000, 1.500000000000000222 ) ) ;
#208 = SURFACE_STYLE_FILL_AREA ( #97 ) ;
#209 = LINE ( 'NONE', #207, #95 ) ;
#210 = DIRECTION ( 'NONE',  ( 0.0000000000000000000, 0.0000000000000000000, 1.000000000000000000 ) ) ;
#211 = VECTOR ( 'NONE', #212, 39.37007874015748143 ) ;
#212 = DIRECTION ( 'NONE',  ( -0.0000000000000000000, -0.0000000000000000000, -1.000000000000000000 ) ) ;
#213 = LENGTH_MEASURE_WITH_UNIT ( LENGTH_MEASURE( 0.02539999999999999897 ), #167 );
#214 = PRODUCT ( 'Micro_SEM-031-03X', 'Micro_SEM-031-03X', '', ( #132 ) ) ;
#215 = DIRECTION ( 'NONE',  ( 1.224646799147353454E-16, 0.0000000000000000000, 1.000000000000000000 ) ) ;
#216 = DIRECTION ( 'NONE',  ( 1.000000000000000000, 0.0000000000000000000, 0.0000000000000000000 ) ) ;
#217 = MECHANICAL_DESIGN_GEOMETRIC_PRESENTATION_REPRESENTATION (  '', ( #48 ), #62 ) ;
#218 = CIRCLE ( 'NONE', #140, 0.01558439999999999652 ) ;
#219 =( GEOMETRIC_REPRESENTATION_CONTEXT ( 3 ) GLOBAL_UNCERTAINTY_ASSIGNED_CONTEXT ( ( #72 ) ) GLOBAL_UNIT_ASSIGNED_CONTEXT ( ( #65, #225, #152 ) ) REPRESENTATION_CONTEXT ( 'NONE', 'WORKASPACE' ) );
#220 = LINE ( 'NONE', #15, #177 ) ;
#221 = EDGE_CURVE ( 'NONE', #153, #16, #123, .T. ) ;
#222 = VERTEX_POINT ( 'NONE', #102 ) ;
#223 = EDGE_LOOP ( 'NONE', ( #85, #107, #175, #224 ) ) ;
#224 = ORIENTED_EDGE ( 'NONE', *, *, #32, .F. ) ;
#225 =( NAMED_UNIT ( * ) PLANE_ANGLE_UNIT ( ) SI_UNIT ( $, .RADIAN. ) );
#226 = DIRECTION ( 'NONE',  ( -1.000000000000000000, 0.0000000000000000000, 1.224646799147353454E-16 ) ) ;
#227 = DIRECTION ( 'NONE',  ( -0.7071067811865456854, 0.0000000000000000000, -0.7071067811865493491 ) ) ;
#228 = COLOUR_RGB ( '',0.7921568627450980005, 0.8196078431372548767, 0.9333333333333333481 ) ;
#229 = MECHANICAL_DESIGN_GEOMETRIC_PRESENTATION_REPRESENTATION (  '', ( #125 ), #219 ) ;
#230 = ADVANCED_FACE ( 'NONE', ( #129 ), #145, .T. ) ;
#231 = DIRECTION ( 'NONE',  ( -1.000000000000000000, 0.0000000000000000000, 1.224646799147353454E-16 ) ) ;
#232 = DIRECTION ( 'NONE',  ( -1.000000000000000000, 0.0000000000000000000, 0.0000000000000000000 ) ) ;
#233 = CARTESIAN_POINT ( 'NONE',  ( -0.06250000000000000000, 0.0000000000000000000, 1.500000000000000222 ) ) ;
#234 = CONICAL_SURFACE ( 'NONE', #270, 0.04750000000000064587, 0.7853981633974457255 ) ;
#235 = FACE_OUTER_BOUND ( 'NONE', #19, .T. ) ;
#236 = DIRECTION ( 'NONE',  ( 1.000000000000000000, 0.0000000000000000000, -0.0000000000000000000 ) ) ;
#237 = DIRECTION ( 'NONE',  ( 0.1736481776669313859, 0.0000000000000000000, 0.9848077530122077983 ) ) ;
#238 = AXIS2_PLACEMENT_3D ( 'NONE', #166, #51, #6 ) ;
#239 = APPLICATION_CONTEXT ( 'automotive_design' ) ;
#240 = ORIENTED_EDGE ( 'NONE', *, *, #128, .F. ) ;
#241 = ORIENTED_EDGE ( 'NONE', *, *, #277, .T. ) ;
#242 = ORIENTED_EDGE ( 'NONE', *, *, #45, .F. ) ;
#243 = ORIENTED_EDGE ( 'NONE', *, *, #185, .F. ) ;
#244 = SHAPE_DEFINITION_REPRESENTATION ( #151, #199 ) ;
#245 = SURFACE_SIDE_STYLE ('',( #208 ) ) ;
#246 = VECTOR ( 'NONE', #250, 39.37007874015748143 ) ;
#247 = CARTESIAN_POINT ( 'NONE',  ( 0.01558439999999999652, 1.908538557663201091E-18, 2.369500423704768587E-34 ) ) ;
#248 = DIRECTION ( 'NONE',  ( 0.0000000000000000000, 0.0000000000000000000, -1.000000000000000000 ) ) ;
#249 = FACE_OUTER_BOUND ( 'NONE', #137, .T. ) ;
#250 = DIRECTION ( 'NONE',  ( -1.224646799147353454E-16, -0.0000000000000000000, -1.000000000000000000 ) ) ;
#251 = DIRECTION ( 'NONE',  ( 1.000000000000000000, 0.0000000000000000000, 0.0000000000000000000 ) ) ;
#252 = PRESENTATION_STYLE_ASSIGNMENT (( #76 ) ) ;
#253 = CARTESIAN_POINT ( 'NONE',  ( -0.06250000000000000000, 0.0000000000000000000, 1.485000000000000764 ) ) ;
#254 = LENGTH_MEASURE_WITH_UNIT ( LENGTH_MEASURE( 0.02539999999999999897 ), #122 );
#255 = LINE ( 'NONE', #101, #108 ) ;
#256 = APPLICATION_PROTOCOL_DEFINITION ( 'draft international standard', 'automotive_design', 1998, #239 ) ;
#257 = CARTESIAN_POINT ( 'NONE',  ( 0.0000000000000000000, 0.0000000000000000000, 0.0000000000000000000 ) ) ;
#258 = CARTESIAN_POINT ( 'NONE',  ( 0.01558440000000001387, 0.0000000000000000000, 0.06300000000000000044 ) ) ;
#259 = CIRCLE ( 'NONE', #14, 0.01558440000000000519 ) ;
#260 =( GEOMETRIC_REPRESENTATION_CONTEXT ( 3 ) GLOBAL_UNCERTAINTY_ASSIGNED_CONTEXT ( ( #187 ) ) GLOBAL_UNIT_ASSIGNED_CONTEXT ( ( #9, #120, #280 ) ) REPRESENTATION_CONTEXT ( 'NONE', 'WORKASPACE' ) );
#261 = EDGE_LOOP ( 'NONE', ( #86, #160, #90, #12 ) ) ;
#262 = VERTEX_POINT ( 'NONE', #197 ) ;
#263 = ORIENTED_EDGE ( 'NONE', *, *, #185, .T. ) ;
#264 = ADVANCED_FACE ( 'NONE', ( #100 ), #191, .T. ) ;
#265 = ORIENTED_EDGE ( 'NONE', *, *, #126, .F. ) ;
#266 = VERTEX_POINT ( 'NONE', #80 ) ;
#267 = PRODUCT_RELATED_PRODUCT_CATEGORY ( 'part', '', ( #214 ) ) ;
#268 = DIRECTION ( 'NONE',  ( -1.224646799147353454E-16, -0.0000000000000000000, -1.000000000000000000 ) ) ;
#269 = FILL_AREA_STYLE_COLOUR ( '', #228 ) ;
#270 = AXIS2_PLACEMENT_3D ( 'NONE', #168, #3, #232 ) ;
#271 = VECTOR ( 'NONE', #127, 39.37007874015748143 ) ;
#272 = EDGE_CURVE ( 'NONE', #111, #262, #79, .T. ) ;
#273 = CARTESIAN_POINT ( 'NONE',  ( 0.0000000000000000000, 0.0000000000000000000, 1.500000000000000222 ) ) ;
#274 = CARTESIAN_POINT ( 'NONE',  ( 0.0000000000000000000, 0.0000000000000000000, 0.0000000000000000000 ) ) ;
#275 = AXIS2_PLACEMENT_3D ( 'NONE', #1, #193, #216 ) ;
#276 = VECTOR ( 'NONE', #121, 39.37007874015748143 ) ;
#277 = EDGE_CURVE ( 'NONE', #266, #262, #150, .T. ) ;
#278 = SURFACE_SIDE_STYLE ('',( #99 ) ) ;
#279 = FACE_OUTER_BOUND ( 'NONE', #154, .T. ) ;
#280 =( NAMED_UNIT ( * ) SI_UNIT ( $, .STERADIAN. ) SOLID_ANGLE_UNIT ( ) );
#281 = DIRECTION ( 'NONE',  ( 1.000000000000000000, 0.0000000000000000000, -0.0000000000000000000 ) ) ;
#282 = CLOSED_SHELL ( 'NONE', ( #106, #264, #92, #116, #189, #169, #173, #22, #230, #180 ) ) ;
#283 = DIRECTION ( 'NONE',  ( 0.0000000000000000000, 0.0000000000000000000, 1.000000000000000000 ) ) ;
#284 = AXIS2_PLACEMENT_3D ( 'NONE', #141, #93, #181 ) ;
#285 = DIRECTION ( 'NONE',  ( 1.000000000000000000, 0.0000000000000000000, 0.0000000000000000000 ) ) ;
#286 = CARTESIAN_POINT ( 'NONE',  ( 0.0000000000000000000, 0.0000000000000000000, 1.500000000000000222 ) ) ;
#287 = CARTESIAN_POINT ( 'NONE',  ( 4.029964685712221030E-17, 0.0000000000000000000, 0.3290715893364551392 ) ) ;
#288 = EDGE_LOOP ( 'NONE', ( #178, #243, #17, #138 ) ) ;
#289 = ORIENTED_EDGE ( 'NONE', *, *, #221, .T. ) ;
#290 = ORIENTED_EDGE ( 'NONE', *, *, #272, .T. ) ;
#291 = ORIENTED_EDGE ( 'NONE', *, *, #158, .F. ) ;
#292 = EDGE_CURVE ( 'NONE', #87, #266, #220, .T. ) ;
#293 =( NAMED_UNIT ( * ) PLANE_ANGLE_UNIT ( ) SI_UNIT ( $, .RADIAN. ) );
#294 = EDGE_CURVE ( 'NONE', #111, #156, #135, .T. ) ;
#295 = CARTESIAN_POINT ( 'NONE',  ( 0.0000000000000000000, 0.0000000000000000000, 1.500000000000000222 ) ) ;
#296 = UNCERTAINTY_MEASURE_WITH_UNIT (LENGTH_MEASURE( 1.000000000000000082E-05 ), #47, 'distance_accuracy_value', 'NONE');
#297 = DIRECTION ( 'NONE',  ( -0.0000000000000000000, -0.0000000000000000000, -1.000000000000000000 ) ) ;
#298 = CONICAL_SURFACE ( 'NONE', #284, 0.01558440000000000519, 0.1745329251994338915 ) ;
#299 = COLOUR_RGB ( '',0.7921568627450980005, 0.8196078431372548767, 0.9333333333333333481 ) ;
ENDSEC;
END-ISO-10303-21;
