ISO-10303-21;
HEADER;
FILE_DESCRIPTION (( 'STEP AP214' ),
    '1' );
FILE_NAME ('84696.STEP',
    '2023-06-23T15:03:50',
    ( '' ),
    ( '' ),
    'SwSTEP 2.0',
    'SolidWorks 2023',
    '' );
FILE_SCHEMA (( 'AUTOMOTIVE_DESIGN' ));
ENDSEC;

DATA;
#1 = ORIENTED_EDGE ( 'NONE', *, *, #256, .T. ) ;
#2 =( GEOMETRIC_REPRESENTATION_CONTEXT ( 3 ) GLOBAL_UNCERTAINTY_ASSIGNED_CONTEXT ( ( #225 ) ) GLOBAL_UNIT_ASSIGNED_CONTEXT ( ( #216, #298, #150 ) ) REPRESENTATION_CONTEXT ( 'NONE', 'WORKASPACE' ) );
#3 = STYLED_ITEM ( 'NONE', ( #135 ), #289 ) ;
#4 = SHAPE_DEFINITION_REPRESENTATION ( #230, #301 ) ;
#5 = VERTEX_POINT ( 'NONE', #146 ) ;
#6 = SURFACE_STYLE_FILL_AREA ( #199 ) ;
#7 = VERTEX_POINT ( 'NONE', #126 ) ;
#8 = DIMENSIONAL_EXPONENTS ( 1.000000000000000000, 0.000000000000000000, 0.000000000000000000, 0.000000000000000000, 0.000000000000000000, 0.000000000000000000, 0.000000000000000000 ) ;
#9 = MANIFOLD_SOLID_BREP ( 'Revolve - Cutting Edge', #284 ) ;
#10 = SURFACE_STYLE_USAGE ( .BOTH. , #40 ) ;
#11 = STYLED_ITEM ( 'NONE', ( #272 ), #203 ) ;
#12 =( NAMED_UNIT ( * ) PLANE_ANGLE_UNIT ( ) SI_UNIT ( $, .RADIAN. ) );
#13 = MECHANICAL_DESIGN_GEOMETRIC_PRESENTATION_REPRESENTATION (  '', ( #11 ), #42 ) ;
#14 = ORIENTED_EDGE ( 'NONE', *, *, #117, .T. ) ;
#15 = PRODUCT ( '84696', '84696', '', ( #141 ) ) ;
#16 = PLANE ( 'NONE',  #94 ) ;
#17 = DIRECTION ( 'NONE',  ( -1.490874364179386910E-16, 1.000000000000000000, -0.000000000000000000 ) ) ;
#18 = FACE_OUTER_BOUND ( 'NONE', #96, .T. ) ;
#19 = MECHANICAL_DESIGN_GEOMETRIC_PRESENTATION_REPRESENTATION (  '', ( #109 ), #2 ) ;
#20 =( CONVERSION_BASED_UNIT ( 'INCH', #161 ) LENGTH_UNIT ( ) NAMED_UNIT ( #60 ) );
#21 = APPLICATION_CONTEXT ( 'automotive_design' ) ;
#22 = EDGE_CURVE ( 'NONE', #275, #5, #196, .T. ) ;
#23 = DIRECTION ( 'NONE',  ( 0.000000000000000000, 0.000000000000000000, -1.000000000000000000 ) ) ;
#24 = MECHANICAL_DESIGN_GEOMETRIC_PRESENTATION_REPRESENTATION (  '', ( #207 ), #58 ) ;
#25 = PRODUCT_DEFINITION_CONTEXT ( 'detailed design', #21, 'design' ) ;
#26 = DIRECTION ( 'NONE',  ( 0.000000000000000000, 0.000000000000000000, -1.000000000000000000 ) ) ;
#27 = CARTESIAN_POINT ( 'NONE',  ( -0.2500000000000008882, 6.000000000000000888, 0.000000000000000000 ) ) ;
#28 = FILL_AREA_STYLE_COLOUR ( '', #165 ) ;
#29 = UNCERTAINTY_MEASURE_WITH_UNIT (LENGTH_MEASURE( 1.000000000000000082E-05 ), #231, 'distance_accuracy_value', 'NONE');
#30 = APPLICATION_PROTOCOL_DEFINITION ( 'draft international standard', 'automotive_design', 1998, #21 ) ;
#31 =( CONVERSION_BASED_UNIT ( 'INCH', #238 ) LENGTH_UNIT ( ) NAMED_UNIT ( #218 ) );
#32 = AXIS2_PLACEMENT_3D ( 'NONE', #112, #67, #130 ) ;
#33 = PRODUCT_DEFINITION_FORMATION_WITH_SPECIFIED_SOURCE ( 'ANY', '', #15, .NOT_KNOWN. ) ;
#34 = EDGE_LOOP ( 'NONE', ( #171, #52 ) ) ;
#35 = ORIENTED_EDGE ( 'NONE', *, *, #117, .F. ) ;
#36 = CARTESIAN_POINT ( 'NONE',  ( -4.286263797015738074E-16, 6.000000000000000888, 0.000000000000000000 ) ) ;
#37 = COLOUR_RGB ( '',1.000000000000000000, 0.000000000000000000, 0.000000000000000000 ) ;
#38 =( LENGTH_UNIT ( ) NAMED_UNIT ( * ) SI_UNIT ( $, .METRE. ) );
#39 = DIMENSIONAL_EXPONENTS ( 1.000000000000000000, 0.000000000000000000, 0.000000000000000000, 0.000000000000000000, 0.000000000000000000, 0.000000000000000000, 0.000000000000000000 ) ;
#40 = SURFACE_SIDE_STYLE ('',( #6 ) ) ;
#41 = ORIENTED_EDGE ( 'NONE', *, *, #240, .F. ) ;
#42 =( GEOMETRIC_REPRESENTATION_CONTEXT ( 3 ) GLOBAL_UNCERTAINTY_ASSIGNED_CONTEXT ( ( #140 ) ) GLOBAL_UNIT_ASSIGNED_CONTEXT ( ( #103, #185, #44 ) ) REPRESENTATION_CONTEXT ( 'NONE', 'WORKASPACE' ) );
#43 = FACE_OUTER_BOUND ( 'NONE', #271, .T. ) ;
#44 =( NAMED_UNIT ( * ) SI_UNIT ( $, .STERADIAN. ) SOLID_ANGLE_UNIT ( ) );
#45 =( CONVERSION_BASED_UNIT ( 'INCH', #251 ) LENGTH_UNIT ( ) NAMED_UNIT ( #80 ) );
#46 = SURFACE_STYLE_USAGE ( .BOTH. , #274 ) ;
#47 = CLOSED_SHELL ( 'NONE', ( #248, #229, #54, #102 ) ) ;
#48 = LENGTH_MEASURE_WITH_UNIT ( LENGTH_MEASURE( 0.02539999999999999897 ), #235 );
#49 = SURFACE_STYLE_FILL_AREA ( #118 ) ;
#50 = STYLED_ITEM ( 'NONE', ( #85 ), #154 ) ;
#51 =( NAMED_UNIT ( * ) SI_UNIT ( $, .STERADIAN. ) SOLID_ANGLE_UNIT ( ) );
#52 = ORIENTED_EDGE ( 'NONE', *, *, #22, .F. ) ;
#53 = EDGE_LOOP ( 'NONE', ( #35, #288, #232, #120 ) ) ;
#54 = ADVANCED_FACE ( 'NONE', ( #263 ), #265, .T. ) ;
#55 = PRESENTATION_STYLE_ASSIGNMENT (( #99 ) ) ;
#56 = DIRECTION ( 'NONE',  ( -0.000000000000000000, -1.000000000000000000, -0.000000000000000000 ) ) ;
#57 = CYLINDRICAL_SURFACE ( 'NONE', #32, 0.2500000000000000000 ) ;
#58 =( GEOMETRIC_REPRESENTATION_CONTEXT ( 3 ) GLOBAL_UNCERTAINTY_ASSIGNED_CONTEXT ( ( #175 ) ) GLOBAL_UNIT_ASSIGNED_CONTEXT ( ( #31, #259, #121 ) ) REPRESENTATION_CONTEXT ( 'NONE', 'WORKASPACE' ) );
#59 = FACE_OUTER_BOUND ( 'NONE', #84, .T. ) ;
#60 = DIMENSIONAL_EXPONENTS ( 1.000000000000000000, 0.000000000000000000, 0.000000000000000000, 0.000000000000000000, 0.000000000000000000, 0.000000000000000000, 0.000000000000000000 ) ;
#61 =( GEOMETRIC_REPRESENTATION_CONTEXT ( 3 ) GLOBAL_UNCERTAINTY_ASSIGNED_CONTEXT ( ( #260 ) ) GLOBAL_UNIT_ASSIGNED_CONTEXT ( ( #45, #12, #107 ) ) REPRESENTATION_CONTEXT ( 'NONE', 'WORKASPACE' ) );
#62 = PLANE ( 'NONE',  #76 ) ;
#63 = AXIS2_PLACEMENT_3D ( 'NONE', #281, #187, #179 ) ;
#64 = EDGE_CURVE ( 'NONE', #158, #98, #234, .T. ) ;
#65 = FILL_AREA_STYLE ('',( #156 ) ) ;
#66 = DIRECTION ( 'NONE',  ( -1.000000000000000000, 0.000000000000000000, 0.000000000000000000 ) ) ;
#67 = DIRECTION ( 'NONE',  ( -0.000000000000000000, -1.000000000000000000, -0.000000000000000000 ) ) ;
#68 = SURFACE_STYLE_USAGE ( .BOTH. , #250 ) ;
#69 = LINE ( 'NONE', #226, #296 ) ;
#70 = FILL_AREA_STYLE ('',( #111 ) ) ;
#71 = PRESENTATION_LAYER_ASSIGNMENT (  '', '', ( #285 ) ) ;
#72 = ORIENTED_EDGE ( 'NONE', *, *, #64, .T. ) ;
#73 = AXIS2_PLACEMENT_3D ( 'NONE', #233, #90, #206 ) ;
#74 = ORIENTED_EDGE ( 'NONE', *, *, #91, .F. ) ;
#75 = ORIENTED_EDGE ( 'NONE', *, *, #22, .T. ) ;
#76 = AXIS2_PLACEMENT_3D ( 'NONE', #305, #153, #249 ) ;
#77 = DIRECTION ( 'NONE',  ( -1.000000000000000000, 0.000000000000000000, 0.000000000000000000 ) ) ;
#78 = LENGTH_MEASURE_WITH_UNIT ( LENGTH_MEASURE( 0.02539999999999999897 ), #38 );
#79 = CARTESIAN_POINT ( 'NONE',  ( 0.000000000000000000, 3.125000000000000000, 0.000000000000000000 ) ) ;
#80 = DIMENSIONAL_EXPONENTS ( 1.000000000000000000, 0.000000000000000000, 0.000000000000000000, 0.000000000000000000, 0.000000000000000000, 0.000000000000000000, 0.000000000000000000 ) ;
#81 = CARTESIAN_POINT ( 'NONE',  ( -4.286263797015738074E-16, 6.000000000000000888, 0.000000000000000000 ) ) ;
#82 = PRESENTATION_LAYER_ASSIGNMENT (  '', '', ( #207 ) ) ;
#83 = CIRCLE ( 'NONE', #110, 0.2500000000000000000 ) ;
#84 = EDGE_LOOP ( 'NONE', ( #72, #14, #163, #167 ) ) ;
#85 = PRESENTATION_STYLE_ASSIGNMENT (( #68 ) ) ;
#86 = PRESENTATION_STYLE_ASSIGNMENT (( #46 ) ) ;
#87 = AXIS2_PLACEMENT_3D ( 'NONE', #36, #220, #299 ) ;
#88 = DIRECTION ( 'NONE',  ( -0.000000000000000000, -1.000000000000000000, -0.000000000000000000 ) ) ;
#89 = CYLINDRICAL_SURFACE ( 'NONE', #63, 0.2500000000000002220 ) ;
#90 = DIRECTION ( 'NONE',  ( 1.490874364179386910E-16, -1.000000000000000000, 0.000000000000000000 ) ) ;
#91 = EDGE_CURVE ( 'NONE', #119, #293, #247, .T. ) ;
#92 =( NAMED_UNIT ( * ) PLANE_ANGLE_UNIT ( ) SI_UNIT ( $, .RADIAN. ) );
#93 = APPLICATION_PROTOCOL_DEFINITION ( 'draft international standard', 'automotive_design', 1998, #183 ) ;
#94 = AXIS2_PLACEMENT_3D ( 'NONE', #269, #266, #297 ) ;
#95 = PRESENTATION_LAYER_ASSIGNMENT (  '', '', ( #3 ) ) ;
#96 = EDGE_LOOP ( 'NONE', ( #177, #228 ) ) ;
#97 = DIRECTION ( 'NONE',  ( 0.000000000000000000, 0.000000000000000000, -1.000000000000000000 ) ) ;
#98 = VERTEX_POINT ( 'NONE', #139 ) ;
#99 = SURFACE_STYLE_USAGE ( .BOTH. , #166 ) ;
#100 = PRESENTATION_STYLE_ASSIGNMENT (( #10 ) ) ;
#101 = DIRECTION ( 'NONE',  ( -1.490874364179386910E-16, 1.000000000000000000, -0.000000000000000000 ) ) ;
#102 = ADVANCED_FACE ( 'NONE', ( #237 ), #273, .F. ) ;
#103 =( CONVERSION_BASED_UNIT ( 'INCH', #278 ) LENGTH_UNIT ( ) NAMED_UNIT ( #8 ) );
#104 = SURFACE_STYLE_FILL_AREA ( #194 ) ;
#105 =( LENGTH_UNIT ( ) NAMED_UNIT ( * ) SI_UNIT ( $, .METRE. ) );
#106 = FILL_AREA_STYLE_COLOUR ( '', #37 ) ;
#107 =( NAMED_UNIT ( * ) SI_UNIT ( $, .STERADIAN. ) SOLID_ANGLE_UNIT ( ) );
#108 = CARTESIAN_POINT ( 'NONE',  ( 0.2499999999999999722, 6.000000000000000888, 3.061616997868387332E-17 ) ) ;
#109 = STYLED_ITEM ( 'NONE', ( #100 ), #172 ) ;
#110 = AXIS2_PLACEMENT_3D ( 'NONE', #197, #261, #97 ) ;
#111 = FILL_AREA_STYLE_COLOUR ( '', #170 ) ;
#112 = CARTESIAN_POINT ( 'NONE',  ( 0.000000000000000000, 0.000000000000000000, 0.000000000000000000 ) ) ;
#113 = CARTESIAN_POINT ( 'NONE',  ( 0.000000000000000000, 3.125000000000000000, 0.000000000000000000 ) ) ;
#114 = CARTESIAN_POINT ( 'NONE',  ( 0.000000000000000000, 0.000000000000000000, 0.000000000000000000 ) ) ;
#115 =( GEOMETRIC_REPRESENTATION_CONTEXT ( 3 ) GLOBAL_UNCERTAINTY_ASSIGNED_CONTEXT ( ( #178 ) ) GLOBAL_UNIT_ASSIGNED_CONTEXT ( ( #20, #186, #204 ) ) REPRESENTATION_CONTEXT ( 'NONE', 'WORKASPACE' ) );
#116 = FILL_AREA_STYLE_COLOUR ( '', #144 ) ;
#117 = EDGE_CURVE ( 'NONE', #98, #7, #276, .T. ) ;
#118 = FILL_AREA_STYLE ('',( #116 ) ) ;
#119 = VERTEX_POINT ( 'NONE', #108 ) ;
#120 = ORIENTED_EDGE ( 'NONE', *, *, #256, .F. ) ;
#121 =( NAMED_UNIT ( * ) SI_UNIT ( $, .STERADIAN. ) SOLID_ANGLE_UNIT ( ) );
#122 = ORIENTED_EDGE ( 'NONE', *, *, #91, .T. ) ;
#123 = DIRECTION ( 'NONE',  ( -1.000000000000000000, 0.000000000000000000, 0.000000000000000000 ) ) ;
#124 = UNCERTAINTY_MEASURE_WITH_UNIT (LENGTH_MEASURE( 1.000000000000000082E-05 ), #162, 'distance_accuracy_value', 'NONE');
#125 = AXIS2_PLACEMENT_3D ( 'NONE', #81, #174, #268 ) ;
#126 = CARTESIAN_POINT ( 'NONE',  ( 3.061616997868383018E-17, 0.000000000000000000, 0.2500000000000000000 ) ) ;
#127 = EDGE_CURVE ( 'NONE', #158, #136, #200, .T. ) ;
#128 = FILL_AREA_STYLE ('',( #307 ) ) ;
#129 = CARTESIAN_POINT ( 'NONE',  ( 3.061616997868383018E-17, 0.000000000000000000, 0.2500000000000000000 ) ) ;
#130 = DIRECTION ( 'NONE',  ( 0.000000000000000000, 0.000000000000000000, -1.000000000000000000 ) ) ;
#131 = AXIS2_PLACEMENT_3D ( 'NONE', #145, #241, #123 ) ;
#132 =( GEOMETRIC_REPRESENTATION_CONTEXT ( 3 ) GLOBAL_UNCERTAINTY_ASSIGNED_CONTEXT ( ( #124 ) ) GLOBAL_UNIT_ASSIGNED_CONTEXT ( ( #162, #92, #51 ) ) REPRESENTATION_CONTEXT ( 'NONE', 'WORKASPACE' ) );
#133 = SURFACE_SIDE_STYLE ('',( #49 ) ) ;
#134 = PRODUCT_RELATED_PRODUCT_CATEGORY ( 'part', '', ( #15 ) ) ;
#135 = PRESENTATION_STYLE_ASSIGNMENT (( #294 ) ) ;
#136 = VERTEX_POINT ( 'NONE', #184 ) ;
#137 = PRESENTATION_LAYER_ASSIGNMENT (  '', '', ( #109 ) ) ;
#138 = CARTESIAN_POINT ( 'NONE',  ( 0.000000000000000000, 0.000000000000000000, 0.000000000000000000 ) ) ;
#139 = CARTESIAN_POINT ( 'NONE',  ( 3.061616997868383018E-17, 3.125000000000000000, 0.2500000000000000000 ) ) ;
#140 = UNCERTAINTY_MEASURE_WITH_UNIT (LENGTH_MEASURE( 1.000000000000000082E-05 ), #103, 'distance_accuracy_value', 'NONE');
#141 = PRODUCT_CONTEXT ( 'NONE', #183, 'mechanical' ) ;
#142 = EDGE_LOOP ( 'NONE', ( #151, #75, #262, #74 ) ) ;
#143 = PRESENTATION_LAYER_ASSIGNMENT (  '', '', ( #11 ) ) ;
#144 = COLOUR_RGB ( '',1.000000000000000000, 0.000000000000000000, 0.000000000000000000 ) ;
#145 = CARTESIAN_POINT ( 'NONE',  ( -4.286263797015738074E-16, 6.000000000000000888, 0.000000000000000000 ) ) ;
#146 = CARTESIAN_POINT ( 'NONE',  ( -0.2500000000000000000, 3.125000000000000000, 0.000000000000000000 ) ) ;
#147 = EDGE_CURVE ( 'NONE', #5, #275, #277, .T. ) ;
#148 = COLOUR_RGB ( '',1.000000000000000000, 0.000000000000000000, 0.000000000000000000 ) ;
#149 = AXIS2_PLACEMENT_3D ( 'NONE', #290, #258, #292 ) ;
#150 =( NAMED_UNIT ( * ) SI_UNIT ( $, .STERADIAN. ) SOLID_ANGLE_UNIT ( ) );
#151 = ORIENTED_EDGE ( 'NONE', *, *, #252, .F. ) ;
#152 = DIRECTION ( 'NONE',  ( 0.000000000000000000, -0.000000000000000000, 1.000000000000000000 ) ) ;
#153 = DIRECTION ( 'NONE',  ( -1.490874364179386910E-16, 1.000000000000000000, 0.000000000000000000 ) ) ;
#154 = ADVANCED_FACE ( 'NONE', ( #18 ), #155, .T. ) ;
#155 = PLANE ( 'NONE',  #264 ) ;
#156 = FILL_AREA_STYLE_COLOUR ( '', #148 ) ;
#157 =( LENGTH_UNIT ( ) NAMED_UNIT ( * ) SI_UNIT ( $, .METRE. ) );
#158 = VERTEX_POINT ( 'NONE', #224 ) ;
#159 = COLOUR_RGB ( '',0.7921568627450980005, 0.8196078431372548767, 0.9333333333333333481 ) ;
#160 = CARTESIAN_POINT ( 'NONE',  ( 0.2499999999999997502, 6.000000000000000888, 3.061616997868385483E-17 ) ) ;
#161 = LENGTH_MEASURE_WITH_UNIT ( LENGTH_MEASURE( 0.02539999999999999897 ), #157 );
#162 =( CONVERSION_BASED_UNIT ( 'INCH', #189 ) LENGTH_UNIT ( ) NAMED_UNIT ( #300 ) );
#163 = ORIENTED_EDGE ( 'NONE', *, *, #309, .F. ) ;
#164 = CARTESIAN_POINT ( 'NONE',  ( 0.000000000000000000, 3.125000000000000000, 0.000000000000000000 ) ) ;
#165 = COLOUR_RGB ( '',0.7921568627450980005, 0.8196078431372548767, 0.9333333333333333481 ) ;
#166 = SURFACE_SIDE_STYLE ('',( #104 ) ) ;
#167 = ORIENTED_EDGE ( 'NONE', *, *, #127, .F. ) ;
#168 = FACE_OUTER_BOUND ( 'NONE', #53, .T. ) ;
#169 = ORIENTED_EDGE ( 'NONE', *, *, #252, .T. ) ;
#170 = COLOUR_RGB ( '',1.000000000000000000, 0.000000000000000000, 0.000000000000000000 ) ;
#171 = ORIENTED_EDGE ( 'NONE', *, *, #147, .F. ) ;
#172 = ADVANCED_FACE ( 'NONE', ( #43 ), #16, .T. ) ;
#173 = CARTESIAN_POINT ( 'NONE',  ( 0.000000000000000000, 3.125000000000000000, 0.000000000000000000 ) ) ;
#174 = DIRECTION ( 'NONE',  ( -1.490874364179386910E-16, 1.000000000000000000, -0.000000000000000000 ) ) ;
#175 = UNCERTAINTY_MEASURE_WITH_UNIT (LENGTH_MEASURE( 1.000000000000000082E-05 ), #31, 'distance_accuracy_value', 'NONE');
#176 = MECHANICAL_DESIGN_GEOMETRIC_PRESENTATION_REPRESENTATION (  '', ( #285 ), #61 ) ;
#177 = ORIENTED_EDGE ( 'NONE', *, *, #64, .F. ) ;
#178 = UNCERTAINTY_MEASURE_WITH_UNIT (LENGTH_MEASURE( 1.000000000000000082E-05 ), #20, 'distance_accuracy_value', 'NONE');
#179 = DIRECTION ( 'NONE',  ( -1.000000000000000000, 0.000000000000000000, 0.000000000000000000 ) ) ;
#180 = DIRECTION ( 'NONE',  ( -0.000000000000000000, -1.000000000000000000, -0.000000000000000000 ) ) ;
#181 = AXIS2_PLACEMENT_3D ( 'NONE', #173, #101, #77 ) ;
#182 = FACE_OUTER_BOUND ( 'NONE', #267, .T. ) ;
#183 = APPLICATION_CONTEXT ( 'automotive_design' ) ;
#184 = CARTESIAN_POINT ( 'NONE',  ( 0.000000000000000000, 0.000000000000000000, -0.2500000000000000000 ) ) ;
#185 =( NAMED_UNIT ( * ) PLANE_ANGLE_UNIT ( ) SI_UNIT ( $, .RADIAN. ) );
#186 =( NAMED_UNIT ( * ) PLANE_ANGLE_UNIT ( ) SI_UNIT ( $, .RADIAN. ) );
#187 = DIRECTION ( 'NONE',  ( -1.490874364179386910E-16, 1.000000000000000000, -0.000000000000000000 ) ) ;
#188 = DIRECTION ( 'NONE',  ( -0.000000000000000000, -1.000000000000000000, -0.000000000000000000 ) ) ;
#189 = LENGTH_MEASURE_WITH_UNIT ( LENGTH_MEASURE( 0.02539999999999999897 ), #254 );
#190 = CIRCLE ( 'NONE', #286, 0.2500000000000000000 ) ;
#191 =( LENGTH_UNIT ( ) NAMED_UNIT ( * ) SI_UNIT ( $, .METRE. ) );
#193 = VECTOR ( 'NONE', #219, 39.37007874015748143 ) ;
#192 = PRODUCT_DEFINITION ( 'UNKNOWN', '', #33, #25 ) ;
#194 = FILL_AREA_STYLE ('',( #28 ) ) ;
#195 = EDGE_CURVE ( 'NONE', #293, #119, #270, .T. ) ;
#196 = CIRCLE ( 'NONE', #181, 0.2500000000000000000 ) ;
#197 = CARTESIAN_POINT ( 'NONE',  ( 0.000000000000000000, 0.000000000000000000, 0.000000000000000000 ) ) ;
#198 = ORIENTED_EDGE ( 'NONE', *, *, #195, .F. ) ;
#199 = FILL_AREA_STYLE ('',( #106 ) ) ;
#200 = LINE ( 'NONE', #304, #243 ) ;
#201 = ADVANCED_FACE ( 'NONE', ( #59 ), #57, .T. ) ;
#202 = FACE_OUTER_BOUND ( 'NONE', #34, .T. ) ;
#203 = MANIFOLD_SOLID_BREP ( 'Revolve - Tool Body (Straight Shanked)', #47 ) ;
#204 =( NAMED_UNIT ( * ) SI_UNIT ( $, .STERADIAN. ) SOLID_ANGLE_UNIT ( ) );
#205 =( NAMED_UNIT ( * ) SI_UNIT ( $, .STERADIAN. ) SOLID_ANGLE_UNIT ( ) );
#206 = DIRECTION ( 'NONE',  ( 1.000000000000000000, 1.490874364179386910E-16, 0.000000000000000000 ) ) ;
#207 = STYLED_ITEM ( 'NONE', ( #55 ), #9 ) ;
#208 =( NAMED_UNIT ( * ) PLANE_ANGLE_UNIT ( ) SI_UNIT ( $, .RADIAN. ) );
#209 = CYLINDRICAL_SURFACE ( 'NONE', #291, 0.2500000000000000000 ) ;
#210 = DIRECTION ( 'NONE',  ( -0.000000000000000000, -1.000000000000000000, -0.000000000000000000 ) ) ;
#211 = EDGE_LOOP ( 'NONE', ( #295, #122 ) ) ;
#212 = DIRECTION ( 'NONE',  ( -0.000000000000000000, -1.000000000000000000, -0.000000000000000000 ) ) ;
#213 = PRESENTATION_LAYER_ASSIGNMENT (  '', '', ( #50 ) ) ;
#214 = ORIENTED_EDGE ( 'NONE', *, *, #147, .T. ) ;
#215 = ORIENTED_EDGE ( 'NONE', *, *, #309, .T. ) ;
#216 =( CONVERSION_BASED_UNIT ( 'INCH', #78 ) LENGTH_UNIT ( ) NAMED_UNIT ( #39 ) );
#217 = MECHANICAL_DESIGN_GEOMETRIC_PRESENTATION_REPRESENTATION (  '', ( #3 ), #244 ) ;
#218 = DIMENSIONAL_EXPONENTS ( 1.000000000000000000, 0.000000000000000000, 0.000000000000000000, 0.000000000000000000, 0.000000000000000000, 0.000000000000000000, 0.000000000000000000 ) ;
#219 = DIRECTION ( 'NONE',  ( -1.490874364179386910E-16, 1.000000000000000000, -0.000000000000000000 ) ) ;
#220 = DIRECTION ( 'NONE',  ( -1.490874364179386910E-16, 1.000000000000000000, -0.000000000000000000 ) ) ;
#221 = AXIS2_PLACEMENT_3D ( 'NONE', #79, #56, #242 ) ;
#222 = AXIS2_PLACEMENT_3D ( 'NONE', #138, #210, #236 ) ;
#223 = SURFACE_STYLE_FILL_AREA ( #128 ) ;
#224 = CARTESIAN_POINT ( 'NONE',  ( 0.000000000000000000, 3.125000000000000000, -0.2500000000000000000 ) ) ;
#225 = UNCERTAINTY_MEASURE_WITH_UNIT (LENGTH_MEASURE( 1.000000000000000082E-05 ), #216, 'distance_accuracy_value', 'NONE');
#226 = CARTESIAN_POINT ( 'NONE',  ( -0.2500000000000006661, 6.000000000000000888, 0.000000000000000000 ) ) ;
#227 = SURFACE_STYLE_USAGE ( .BOTH. , #302 ) ;
#228 = ORIENTED_EDGE ( 'NONE', *, *, #280, .F. ) ;
#229 = ADVANCED_FACE ( 'NONE', ( #202 ), #62, .F. ) ;
#230 = PRODUCT_DEFINITION_SHAPE ( 'NONE', 'NONE',  #192 ) ;
#231 =( CONVERSION_BASED_UNIT ( 'INCH', #48 ) LENGTH_UNIT ( ) NAMED_UNIT ( #245 ) );
#232 = ORIENTED_EDGE ( 'NONE', *, *, #127, .T. ) ;
#233 = CARTESIAN_POINT ( 'NONE',  ( 0.2500000000000000000, 6.000000000000000888, 0.000000000000000000 ) ) ;
#234 = CIRCLE ( 'NONE', #221, 0.2500000000000000000 ) ;
#235 =( LENGTH_UNIT ( ) NAMED_UNIT ( * ) SI_UNIT ( $, .METRE. ) );
#236 = DIRECTION ( 'NONE',  ( 0.000000000000000000, 0.000000000000000000, -1.000000000000000000 ) ) ;
#237 = FACE_OUTER_BOUND ( 'NONE', #211, .T. ) ;
#238 = LENGTH_MEASURE_WITH_UNIT ( LENGTH_MEASURE( 0.02539999999999999897 ), #191 );
#239 = MECHANICAL_DESIGN_GEOMETRIC_PRESENTATION_REPRESENTATION (  '', ( #50 ), #115 ) ;
#240 = EDGE_CURVE ( 'NONE', #5, #293, #69, .T. ) ;
#241 = DIRECTION ( 'NONE',  ( -1.490874364179386910E-16, 1.000000000000000000, -0.000000000000000000 ) ) ;
#242 = DIRECTION ( 'NONE',  ( 0.000000000000000000, 0.000000000000000000, -1.000000000000000000 ) ) ;
#243 = VECTOR ( 'NONE', #88, 39.37007874015748143 ) ;
#244 =( GEOMETRIC_REPRESENTATION_CONTEXT ( 3 ) GLOBAL_UNCERTAINTY_ASSIGNED_CONTEXT ( ( #29 ) ) GLOBAL_UNIT_ASSIGNED_CONTEXT ( ( #231, #208, #205 ) ) REPRESENTATION_CONTEXT ( 'NONE', 'WORKASPACE' ) );
#245 = DIMENSIONAL_EXPONENTS ( 1.000000000000000000, 0.000000000000000000, 0.000000000000000000, 0.000000000000000000, 0.000000000000000000, 0.000000000000000000, 0.000000000000000000 ) ;
#246 = DIRECTION ( 'NONE',  ( 0.000000000000000000, 1.000000000000000000, 0.000000000000000000 ) ) ;
#247 = CIRCLE ( 'NONE', #87, 0.2500000000000004441 ) ;
#248 = ADVANCED_FACE ( 'NONE', ( #182 ), #89, .T. ) ;
#249 = DIRECTION ( 'NONE',  ( -1.000000000000000000, -1.490874364179386910E-16, 0.000000000000000000 ) ) ;
#250 = SURFACE_SIDE_STYLE ('',( #306 ) ) ;
#251 = LENGTH_MEASURE_WITH_UNIT ( LENGTH_MEASURE( 0.02539999999999999897 ), #253 );
#252 = EDGE_CURVE ( 'NONE', #275, #119, #282, .T. ) ;
#253 =( LENGTH_UNIT ( ) NAMED_UNIT ( * ) SI_UNIT ( $, .METRE. ) );
#254 =( LENGTH_UNIT ( ) NAMED_UNIT ( * ) SI_UNIT ( $, .METRE. ) );
#256 = EDGE_CURVE ( 'NONE', #7, #136, #83, .T. ) ;
#255 = AXIS2_PLACEMENT_3D ( 'NONE', #279, #283, #66 ) ;
#257 = CIRCLE ( 'NONE', #222, 0.2500000000000000000 ) ;
#258 = DIRECTION ( 'NONE',  ( 0.000000000000000000, 0.000000000000000000, 1.000000000000000000 ) ) ;
#259 =( NAMED_UNIT ( * ) PLANE_ANGLE_UNIT ( ) SI_UNIT ( $, .RADIAN. ) );
#260 = UNCERTAINTY_MEASURE_WITH_UNIT (LENGTH_MEASURE( 1.000000000000000082E-05 ), #45, 'distance_accuracy_value', 'NONE');
#261 = DIRECTION ( 'NONE',  ( -0.000000000000000000, -1.000000000000000000, -0.000000000000000000 ) ) ;
#262 = ORIENTED_EDGE ( 'NONE', *, *, #240, .T. ) ;
#263 = FACE_OUTER_BOUND ( 'NONE', #142, .T. ) ;
#264 = AXIS2_PLACEMENT_3D ( 'NONE', #113, #246, #152 ) ;
#265 = CYLINDRICAL_SURFACE ( 'NONE', #131, 0.2500000000000002220 ) ;
#266 = DIRECTION ( 'NONE',  ( 0.000000000000000000, -1.000000000000000000, -0.000000000000000000 ) ) ;
#267 = EDGE_LOOP ( 'NONE', ( #214, #169, #198, #41 ) ) ;
#268 = DIRECTION ( 'NONE',  ( -1.000000000000000000, 0.000000000000000000, 0.000000000000000000 ) ) ;
#269 = CARTESIAN_POINT ( 'NONE',  ( 0.000000000000000000, 0.000000000000000000, 0.000000000000000000 ) ) ;
#270 = CIRCLE ( 'NONE', #125, 0.2500000000000004441 ) ;
#271 = EDGE_LOOP ( 'NONE', ( #215, #1 ) ) ;
#272 = PRESENTATION_STYLE_ASSIGNMENT (( #227 ) ) ;
#273 = PLANE ( 'NONE',  #73 ) ;
#274 = SURFACE_SIDE_STYLE ('',( #303 ) ) ;
#275 = VERTEX_POINT ( 'NONE', #287 ) ;
#276 = LINE ( 'NONE', #129, #308 ) ;
#277 = CIRCLE ( 'NONE', #255, 0.2500000000000000000 ) ;
#278 = LENGTH_MEASURE_WITH_UNIT ( LENGTH_MEASURE( 0.02539999999999999897 ), #105 );
#279 = CARTESIAN_POINT ( 'NONE',  ( 0.000000000000000000, 3.125000000000000000, 0.000000000000000000 ) ) ;
#280 = EDGE_CURVE ( 'NONE', #98, #158, #190, .T. ) ;
#281 = CARTESIAN_POINT ( 'NONE',  ( -4.286263797015738074E-16, 6.000000000000000888, 0.000000000000000000 ) ) ;
#282 = LINE ( 'NONE', #160, #193 ) ;
#283 = DIRECTION ( 'NONE',  ( -1.490874364179386910E-16, 1.000000000000000000, -0.000000000000000000 ) ) ;
#284 = CLOSED_SHELL ( 'NONE', ( #201, #154, #289, #172 ) ) ;
#285 = STYLED_ITEM ( 'NONE', ( #86 ), #201 ) ;
#286 = AXIS2_PLACEMENT_3D ( 'NONE', #164, #212, #26 ) ;
#287 = CARTESIAN_POINT ( 'NONE',  ( 0.2499999999999999722, 3.125000000000000000, 3.061616997868387332E-17 ) ) ;
#288 = ORIENTED_EDGE ( 'NONE', *, *, #280, .T. ) ;
#289 = ADVANCED_FACE ( 'NONE', ( #168 ), #209, .T. ) ;
#290 = CARTESIAN_POINT ( 'NONE',  ( 0.000000000000000000, 0.000000000000000000, 0.000000000000000000 ) ) ;
#291 = AXIS2_PLACEMENT_3D ( 'NONE', #114, #188, #23 ) ;
#292 = DIRECTION ( 'NONE',  ( 1.000000000000000000, 0.000000000000000000, 0.000000000000000000 ) ) ;
#293 = VERTEX_POINT ( 'NONE', #27 ) ;
#294 = SURFACE_STYLE_USAGE ( .BOTH. , #133 ) ;
#295 = ORIENTED_EDGE ( 'NONE', *, *, #195, .T. ) ;
#296 = VECTOR ( 'NONE', #17, 39.37007874015748143 ) ;
#297 = DIRECTION ( 'NONE',  ( 0.000000000000000000, 0.000000000000000000, -1.000000000000000000 ) ) ;
#298 =( NAMED_UNIT ( * ) PLANE_ANGLE_UNIT ( ) SI_UNIT ( $, .RADIAN. ) );
#299 = DIRECTION ( 'NONE',  ( -1.000000000000000000, 0.000000000000000000, 0.000000000000000000 ) ) ;
#300 = DIMENSIONAL_EXPONENTS ( 1.000000000000000000, 0.000000000000000000, 0.000000000000000000, 0.000000000000000000, 0.000000000000000000, 0.000000000000000000, 0.000000000000000000 ) ;
#301 = ADVANCED_BREP_SHAPE_REPRESENTATION ( '84696', ( #9, #203, #149 ), #132 ) ;
#302 = SURFACE_SIDE_STYLE ('',( #223 ) ) ;
#303 = SURFACE_STYLE_FILL_AREA ( #65 ) ;
#304 = CARTESIAN_POINT ( 'NONE',  ( 0.000000000000000000, 0.000000000000000000, -0.2500000000000000000 ) ) ;
#305 = CARTESIAN_POINT ( 'NONE',  ( 2.778382962209113810E-33, 3.125000000000000000, 0.000000000000000000 ) ) ;
#306 = SURFACE_STYLE_FILL_AREA ( #70 ) ;
#307 = FILL_AREA_STYLE_COLOUR ( '', #159 ) ;
#308 = VECTOR ( 'NONE', #180, 39.37007874015748143 ) ;
#309 = EDGE_CURVE ( 'NONE', #136, #7, #257, .T. ) ;
ENDSEC;
END-ISO-10303-21;
