ISO-10303-21;
HEADER;
FILE_DESCRIPTION (( 'STEP AP214' ),
    '1' );
FILE_NAME ('59618.STEP',
    '2023-07-24T15:50:34',
    ( '' ),
    ( '' ),
    'SwSTEP 2.0',
    'SolidWorks 2023',
    '' );
FILE_SCHEMA (( 'AUTOMOTIVE_DESIGN' ));
ENDSEC;

DATA;
#1 = ADVANCED_FACE ( 'NONE', ( #48 ), #134, .T. ) ;
#2 = PRESENTATION_LAYER_ASSIGNMENT (  '', '', ( #213 ) ) ;
#3 = FACE_OUTER_BOUND ( 'NONE', #72, .T. ) ;
#4 =( NAMED_UNIT ( * ) PLANE_ANGLE_UNIT ( ) SI_UNIT ( $, .RADIAN. ) );
#5 = DIRECTION ( 'NONE',  ( 3.498990854706722745E-17, -1.000000000000000000, 0.000000000000000000 ) ) ;
#6 = COLOUR_RGB ( '',1.000000000000000000, 0.000000000000000000, 0.000000000000000000 ) ;
#7 = DIRECTION ( 'NONE',  ( -1.000000000000000000, 0.000000000000000000, 0.000000000000000000 ) ) ;
#8 = PRESENTATION_LAYER_ASSIGNMENT (  '', '', ( #81 ) ) ;
#9 = PRESENTATION_STYLE_ASSIGNMENT (( #181 ) ) ;
#10 = SURFACE_SIDE_STYLE ('',( #272 ) ) ;
#11 = ORIENTED_EDGE ( 'NONE', *, *, #141, .F. ) ;
#12 = MECHANICAL_DESIGN_GEOMETRIC_PRESENTATION_REPRESENTATION (  '', ( #200 ), #282 ) ;
#13 = EDGE_LOOP ( 'NONE', ( #234, #91 ) ) ;
#14 = DIRECTION ( 'NONE',  ( 0.000000000000000000, 0.000000000000000000, 1.000000000000000000 ) ) ;
#15 = CARTESIAN_POINT ( 'NONE',  ( 0.000000000000000000, 0.000000000000000000, -8.000000000000000000 ) ) ;
#16 = VERTEX_POINT ( 'NONE', #150 ) ;
#17 = PRODUCT_DEFINITION_CONTEXT ( 'detailed design', #182, 'design' ) ;
#18 = FILL_AREA_STYLE ('',( #215 ) ) ;
#19 = MECHANICAL_DESIGN_GEOMETRIC_PRESENTATION_REPRESENTATION (  '', ( #237 ), #168 ) ;
#20 = AXIS2_PLACEMENT_3D ( 'NONE', #73, #27, #177 ) ;
#21 = DIRECTION ( 'NONE',  ( -3.498990854706722745E-17, 1.000000000000000000, -0.000000000000000000 ) ) ;
#22 = ORIENTED_EDGE ( 'NONE', *, *, #141, .T. ) ;
#23 = DIRECTION ( 'NONE',  ( -3.498990854706722745E-17, 1.000000000000000000, 0.000000000000000000 ) ) ;
#24 = PRESENTATION_STYLE_ASSIGNMENT (( #194 ) ) ;
#25 = MANIFOLD_SOLID_BREP ( 'Revolve - Tool Body (Straight Shanked)', #51 ) ;
#26 = ADVANCED_FACE ( 'NONE', ( #96 ), #251, .F. ) ;
#27 = DIRECTION ( 'NONE',  ( -0.000000000000000000, -1.000000000000000000, -0.000000000000000000 ) ) ;
#28 = CARTESIAN_POINT ( 'NONE',  ( 0.000000000000000000, 0.000000000000000000, 0.000000000000000000 ) ) ;
#29 = FILL_AREA_STYLE_COLOUR ( '', #187 ) ;
#30 = CARTESIAN_POINT ( 'NONE',  ( -8.000000000000003553, 89.00000000000000000, 0.000000000000000000 ) ) ;
#31 = DIRECTION ( 'NONE',  ( -0.000000000000000000, -1.000000000000000000, -0.000000000000000000 ) ) ;
#32 = ORIENTED_EDGE ( 'NONE', *, *, #170, .T. ) ;
#33 = DIRECTION ( 'NONE',  ( 0.000000000000000000, 0.000000000000000000, -1.000000000000000000 ) ) ;
#34 = CARTESIAN_POINT ( 'NONE',  ( 0.000000000000000000, 0.000000000000000000, 0.000000000000000000 ) ) ;
#35 = AXIS2_PLACEMENT_3D ( 'NONE', #90, #69, #266 ) ;
#36 = CIRCLE ( 'NONE', #188, 8.000000000000000000 ) ;
#37 = SHAPE_DEFINITION_REPRESENTATION ( #232, #258 ) ;
#38 = DIRECTION ( 'NONE',  ( -3.498990854706722745E-17, 1.000000000000000000, -0.000000000000000000 ) ) ;
#39 = COLOUR_RGB ( '',1.000000000000000000, 0.000000000000000000, 0.000000000000000000 ) ;
#40 = EDGE_CURVE ( 'NONE', #261, #209, #226, .T. ) ;
#41 = ORIENTED_EDGE ( 'NONE', *, *, #218, .T. ) ;
#42 = DIRECTION ( 'NONE',  ( -1.000000000000000000, 0.000000000000000000, 0.000000000000000000 ) ) ;
#43 = FILL_AREA_STYLE_COLOUR ( '', #76 ) ;
#44 = EDGE_LOOP ( 'NONE', ( #123, #197 ) ) ;
#45 = ADVANCED_FACE ( 'NONE', ( #169 ), #267, .F. ) ;
#46 = AXIS2_PLACEMENT_3D ( 'NONE', #206, #119, #175 ) ;
#47 =( NAMED_UNIT ( * ) PLANE_ANGLE_UNIT ( ) SI_UNIT ( $, .RADIAN. ) );
#48 = FACE_OUTER_BOUND ( 'NONE', #13, .T. ) ;
#49 = CARTESIAN_POINT ( 'NONE',  ( 1.925929944387235853E-31, 40.00000000000000000, 0.000000000000000000 ) ) ;
#50 = DIRECTION ( 'NONE',  ( 0.000000000000000000, 1.000000000000000000, 0.000000000000000000 ) ) ;
#51 = CLOSED_SHELL ( 'NONE', ( #125, #45, #84, #26 ) ) ;
#52 = DIRECTION ( 'NONE',  ( 0.000000000000000000, 0.000000000000000000, -1.000000000000000000 ) ) ;
#53 = AXIS2_PLACEMENT_3D ( 'NONE', #49, #203, #7 ) ;
#54 = DIRECTION ( 'NONE',  ( -0.000000000000000000, -1.000000000000000000, -0.000000000000000000 ) ) ;
#55 = ADVANCED_FACE ( 'NONE', ( #3 ), #146, .T. ) ;
#56 = APPLICATION_PROTOCOL_DEFINITION ( 'draft international standard', 'automotive_design', 1998, #230 ) ;
#57 = VERTEX_POINT ( 'NONE', #132 ) ;
#58 = EDGE_CURVE ( 'NONE', #261, #184, #233, .T. ) ;
#59 = CARTESIAN_POINT ( 'NONE',  ( 9.797174393178825657E-16, 40.00000000000000000, 8.000000000000000000 ) ) ;
#60 = UNCERTAINTY_MEASURE_WITH_UNIT (LENGTH_MEASURE( 1.000000000000000082E-05 ), #160, 'distance_accuracy_value', 'NONE');
#61 = STYLED_ITEM ( 'NONE', ( #257 ), #235 ) ;
#62 =( NAMED_UNIT ( * ) SI_UNIT ( $, .STERADIAN. ) SOLID_ANGLE_UNIT ( ) );
#63 = CARTESIAN_POINT ( 'NONE',  ( 1.925929944387235853E-31, 40.00000000000000000, 0.000000000000000000 ) ) ;
#64 = ORIENTED_EDGE ( 'NONE', *, *, #229, .T. ) ;
#65 =( LENGTH_UNIT ( ) NAMED_UNIT ( * ) SI_UNIT ( .MILLI., .METRE. ) );
#66 = PRESENTATION_STYLE_ASSIGNMENT (( #155 ) ) ;
#67 = CARTESIAN_POINT ( 'NONE',  ( -1.714505518806293849E-15, 89.00000000000000000, 0.000000000000000000 ) ) ;
#68 = SURFACE_STYLE_USAGE ( .BOTH. , #171 ) ;
#69 = DIRECTION ( 'NONE',  ( 0.000000000000000000, -1.000000000000000000, -0.000000000000000000 ) ) ;
#70 = MECHANICAL_DESIGN_GEOMETRIC_PRESENTATION_REPRESENTATION (  '', ( #213 ), #247 ) ;
#71 = AXIS2_PLACEMENT_3D ( 'NONE', #34, #31, #33 ) ;
#72 = EDGE_LOOP ( 'NONE', ( #22, #41 ) ) ;
#73 = CARTESIAN_POINT ( 'NONE',  ( 0.000000000000000000, 0.000000000000000000, 0.000000000000000000 ) ) ;
#74 =( NAMED_UNIT ( * ) PLANE_ANGLE_UNIT ( ) SI_UNIT ( $, .RADIAN. ) );
#75 = PRESENTATION_STYLE_ASSIGNMENT (( #198 ) ) ;
#76 = COLOUR_RGB ( '',0.7921568627450980005, 0.8196078431372548767, 0.9333333333333333481 ) ;
#77 = CYLINDRICAL_SURFACE ( 'NONE', #46, 8.000000000000000000 ) ;
#78 = DIRECTION ( 'NONE',  ( 0.000000000000000000, 0.000000000000000000, -1.000000000000000000 ) ) ;
#79 = ORIENTED_EDGE ( 'NONE', *, *, #99, .T. ) ;
#80 = MECHANICAL_DESIGN_GEOMETRIC_PRESENTATION_REPRESENTATION (  '', ( #135 ), #152 ) ;
#81 = STYLED_ITEM ( 'NONE', ( #75 ), #161 ) ;
#82 =( NAMED_UNIT ( * ) PLANE_ANGLE_UNIT ( ) SI_UNIT ( $, .RADIAN. ) );
#83 = CIRCLE ( 'NONE', #241, 8.000000000000001776 ) ;
#84 = ADVANCED_FACE ( 'NONE', ( #189 ), #112, .T. ) ;
#85 = ORIENTED_EDGE ( 'NONE', *, *, #94, .T. ) ;
#86 = EDGE_CURVE ( 'NONE', #16, #57, #264, .T. ) ;
#87 = DIRECTION ( 'NONE',  ( 0.000000000000000000, -0.000000000000000000, 1.000000000000000000 ) ) ;
#88 = SURFACE_SIDE_STYLE ('',( #164 ) ) ;
#89 = ORIENTED_EDGE ( 'NONE', *, *, #243, .T. ) ;
#90 = CARTESIAN_POINT ( 'NONE',  ( 0.000000000000000000, 0.000000000000000000, 0.000000000000000000 ) ) ;
#91 = ORIENTED_EDGE ( 'NONE', *, *, #58, .F. ) ;
#92 =( NAMED_UNIT ( * ) PLANE_ANGLE_UNIT ( ) SI_UNIT ( $, .RADIAN. ) );
#93 = FILL_AREA_STYLE ('',( #29 ) ) ;
#94 = EDGE_CURVE ( 'NONE', #16, #143, #248, .T. ) ;
#95 = UNCERTAINTY_MEASURE_WITH_UNIT (LENGTH_MEASURE( 1.000000000000000082E-05 ), #98, 'distance_accuracy_value', 'NONE');
#96 = FACE_OUTER_BOUND ( 'NONE', #172, .T. ) ;
#97 = DIRECTION ( 'NONE',  ( -0.000000000000000000, -1.000000000000000000, -0.000000000000000000 ) ) ;
#98 =( LENGTH_UNIT ( ) NAMED_UNIT ( * ) SI_UNIT ( .MILLI., .METRE. ) );
#99 = EDGE_CURVE ( 'NONE', #143, #151, #195, .T. ) ;
#100 = PRESENTATION_LAYER_ASSIGNMENT (  '', '', ( #237 ) ) ;
#101 = DIRECTION ( 'NONE',  ( 0.000000000000000000, 0.000000000000000000, -1.000000000000000000 ) ) ;
#102 = EDGE_LOOP ( 'NONE', ( #64, #265, #11, #276 ) ) ;
#103 =( NAMED_UNIT ( * ) PLANE_ANGLE_UNIT ( ) SI_UNIT ( $, .RADIAN. ) );
#104 = UNCERTAINTY_MEASURE_WITH_UNIT (LENGTH_MEASURE( 1.000000000000000082E-05 ), #271, 'distance_accuracy_value', 'NONE');
#105 =( LENGTH_UNIT ( ) NAMED_UNIT ( * ) SI_UNIT ( .MILLI., .METRE. ) );
#106 = DIRECTION ( 'NONE',  ( -0.000000000000000000, -1.000000000000000000, -0.000000000000000000 ) ) ;
#107 =( GEOMETRIC_REPRESENTATION_CONTEXT ( 3 ) GLOBAL_UNCERTAINTY_ASSIGNED_CONTEXT ( ( #273 ) ) GLOBAL_UNIT_ASSIGNED_CONTEXT ( ( #105, #82, #231 ) ) REPRESENTATION_CONTEXT ( 'NONE', 'WORKASPACE' ) );
#108 = CARTESIAN_POINT ( 'NONE',  ( -1.714505518806293849E-15, 89.00000000000000000, 0.000000000000000000 ) ) ;
#109 = DIRECTION ( 'NONE',  ( 0.000000000000000000, 0.000000000000000000, -1.000000000000000000 ) ) ;
#110 = AXIS2_PLACEMENT_3D ( 'NONE', #154, #5, #274 ) ;
#111 =( NAMED_UNIT ( * ) SI_UNIT ( $, .STERADIAN. ) SOLID_ANGLE_UNIT ( ) );
#112 = CYLINDRICAL_SURFACE ( 'NONE', #285, 8.000000000000000000 ) ;
#113 = PRESENTATION_STYLE_ASSIGNMENT (( #68 ) ) ;
#114 = FACE_OUTER_BOUND ( 'NONE', #131, .T. ) ;
#115 =( NAMED_UNIT ( * ) PLANE_ANGLE_UNIT ( ) SI_UNIT ( $, .RADIAN. ) );
#116 = PRESENTATION_LAYER_ASSIGNMENT (  '', '', ( #200 ) ) ;
#117 =( LENGTH_UNIT ( ) NAMED_UNIT ( * ) SI_UNIT ( .MILLI., .METRE. ) );
#118 = CARTESIAN_POINT ( 'NONE',  ( 9.797174393178825657E-16, 0.000000000000000000, 8.000000000000000000 ) ) ;
#119 = DIRECTION ( 'NONE',  ( -3.498990854706722745E-17, 1.000000000000000000, -0.000000000000000000 ) ) ;
#120 = MANIFOLD_SOLID_BREP ( 'Revolve - Cutting Edge', #287 ) ;
#121 = EDGE_CURVE ( 'NONE', #184, #249, #252, .T. ) ;
#122 = DIRECTION ( 'NONE',  ( -3.498990854706722745E-17, 1.000000000000000000, -0.000000000000000000 ) ) ;
#123 = ORIENTED_EDGE ( 'NONE', *, *, #170, .F. ) ;
#124 = DIRECTION ( 'NONE',  ( -1.000000000000000000, 0.000000000000000000, 0.000000000000000000 ) ) ;
#125 = ADVANCED_FACE ( 'NONE', ( #244 ), #77, .T. ) ;
#126 = CARTESIAN_POINT ( 'NONE',  ( 0.000000000000000000, 0.000000000000000000, 0.000000000000000000 ) ) ;
#127 = VECTOR ( 'NONE', #210, 1000.000000000000000 ) ;
#128 = ORIENTED_EDGE ( 'NONE', *, *, #58, .T. ) ;
#129 = PRODUCT_RELATED_PRODUCT_CATEGORY ( 'part', '', ( #190 ) ) ;
#130 = DIRECTION ( 'NONE',  ( -1.000000000000000000, 0.000000000000000000, 0.000000000000000000 ) ) ;
#131 = EDGE_LOOP ( 'NONE', ( #236, #128, #166, #193 ) ) ;
#132 = CARTESIAN_POINT ( 'NONE',  ( -8.000000000000000000, 40.00000000000000000, 0.000000000000000000 ) ) ;
#133 = FILL_AREA_STYLE ('',( #43 ) ) ;
#134 = PLANE ( 'NONE',  #167 ) ;
#135 = STYLED_ITEM ( 'NONE', ( #113 ), #1 ) ;
#136 =( GEOMETRIC_REPRESENTATION_CONTEXT ( 3 ) GLOBAL_UNCERTAINTY_ASSIGNED_CONTEXT ( ( #95 ) ) GLOBAL_UNIT_ASSIGNED_CONTEXT ( ( #98, #115, #205 ) ) REPRESENTATION_CONTEXT ( 'NONE', 'WORKASPACE' ) );
#137 = SURFACE_SIDE_STYLE ('',( #222 ) ) ;
#138 =( NAMED_UNIT ( * ) SI_UNIT ( $, .STERADIAN. ) SOLID_ANGLE_UNIT ( ) );
#139 = CARTESIAN_POINT ( 'NONE',  ( 9.797174393178825657E-16, 0.000000000000000000, 8.000000000000000000 ) ) ;
#140 = CARTESIAN_POINT ( 'NONE',  ( 0.000000000000000000, 0.000000000000000000, 0.000000000000000000 ) ) ;
#141 = EDGE_CURVE ( 'NONE', #249, #209, #201, .T. ) ;
#142 = CARTESIAN_POINT ( 'NONE',  ( 0.000000000000000000, 40.00000000000000000, 0.000000000000000000 ) ) ;
#143 = VERTEX_POINT ( 'NONE', #280 ) ;
#144 = PRODUCT_CONTEXT ( 'NONE', #230, 'mechanical' ) ;
#145 = PRODUCT_DEFINITION ( 'UNKNOWN', '', #214, #17 ) ;
#146 = PLANE ( 'NONE',  #35 ) ;
#147 = DIRECTION ( 'NONE',  ( -3.498990854706722745E-17, 1.000000000000000000, -0.000000000000000000 ) ) ;
#148 = VECTOR ( 'NONE', #204, 1000.000000000000000 ) ;
#149 = CARTESIAN_POINT ( 'NONE',  ( 7.999999999999998224, 89.00000000000000000, 9.797174393178825657E-16 ) ) ;
#150 = CARTESIAN_POINT ( 'NONE',  ( 8.000000000000000000, 40.00000000000000000, 9.797174393178825657E-16 ) ) ;
#151 = VERTEX_POINT ( 'NONE', #30 ) ;
#152 =( GEOMETRIC_REPRESENTATION_CONTEXT ( 3 ) GLOBAL_UNCERTAINTY_ASSIGNED_CONTEXT ( ( #104 ) ) GLOBAL_UNIT_ASSIGNED_CONTEXT ( ( #271, #74, #138 ) ) REPRESENTATION_CONTEXT ( 'NONE', 'WORKASPACE' ) );
#153 = MECHANICAL_DESIGN_GEOMETRIC_PRESENTATION_REPRESENTATION (  '', ( #61 ), #107 ) ;
#154 = CARTESIAN_POINT ( 'NONE',  ( 8.000000000000000000, 89.00000000000000000, 0.000000000000000000 ) ) ;
#155 = SURFACE_STYLE_USAGE ( .BOTH. , #137 ) ;
#156 = DIRECTION ( 'NONE',  ( -0.000000000000000000, -1.000000000000000000, -0.000000000000000000 ) ) ;
#157 = FACE_OUTER_BOUND ( 'NONE', #102, .T. ) ;
#158 = ORIENTED_EDGE ( 'NONE', *, *, #94, .F. ) ;
#159 = CARTESIAN_POINT ( 'NONE',  ( 4.897174800528513241E-33, 40.00000000000000000, 0.000000000000000000 ) ) ;
#160 =( LENGTH_UNIT ( ) NAMED_UNIT ( * ) SI_UNIT ( .MILLI., .METRE. ) );
#161 = ADVANCED_FACE ( 'NONE', ( #114 ), #277, .T. ) ;
#162 = SURFACE_STYLE_USAGE ( .BOTH. , #256 ) ;
#163 = AXIS2_PLACEMENT_3D ( 'NONE', #159, #23, #165 ) ;
#164 = SURFACE_STYLE_FILL_AREA ( #18 ) ;
#165 = DIRECTION ( 'NONE',  ( -1.000000000000000000, -3.498990854706722745E-17, 0.000000000000000000 ) ) ;
#166 = ORIENTED_EDGE ( 'NONE', *, *, #121, .T. ) ;
#167 = AXIS2_PLACEMENT_3D ( 'NONE', #246, #50, #87 ) ;
#168 =( GEOMETRIC_REPRESENTATION_CONTEXT ( 3 ) GLOBAL_UNCERTAINTY_ASSIGNED_CONTEXT ( ( #284 ) ) GLOBAL_UNIT_ASSIGNED_CONTEXT ( ( #117, #92, #270 ) ) REPRESENTATION_CONTEXT ( 'NONE', 'WORKASPACE' ) );
#169 = FACE_OUTER_BOUND ( 'NONE', #44, .T. ) ;
#170 = EDGE_CURVE ( 'NONE', #57, #16, #180, .T. ) ;
#171 = SURFACE_SIDE_STYLE ('',( #245 ) ) ;
#172 = EDGE_LOOP ( 'NONE', ( #178, #79 ) ) ;
#173 = AXIS2_PLACEMENT_3D ( 'NONE', #108, #147, #42 ) ;
#174 = FILL_AREA_STYLE_COLOUR ( '', #6 ) ;
#175 = DIRECTION ( 'NONE',  ( -1.000000000000000000, 0.000000000000000000, 0.000000000000000000 ) ) ;
#176 = ORIENTED_EDGE ( 'NONE', *, *, #86, .T. ) ;
#177 = DIRECTION ( 'NONE',  ( 0.000000000000000000, 0.000000000000000000, -1.000000000000000000 ) ) ;
#178 = ORIENTED_EDGE ( 'NONE', *, *, #240, .T. ) ;
#179 = AXIS2_PLACEMENT_3D ( 'NONE', #63, #288, #130 ) ;
#180 = CIRCLE ( 'NONE', #53, 8.000000000000000000 ) ;
#181 = SURFACE_STYLE_USAGE ( .BOTH. , #199 ) ;
#182 = APPLICATION_CONTEXT ( 'automotive_design' ) ;
#183 =( NAMED_UNIT ( * ) SI_UNIT ( $, .STERADIAN. ) SOLID_ANGLE_UNIT ( ) );
#184 = VERTEX_POINT ( 'NONE', #254 ) ;
#185 = CARTESIAN_POINT ( 'NONE',  ( -8.000000000000001776, 89.00000000000000000, 0.000000000000000000 ) ) ;
#186 = FILL_AREA_STYLE ('',( #221 ) ) ;
#187 = COLOUR_RGB ( '',0.7921568627450980005, 0.8196078431372548767, 0.9333333333333333481 ) ;
#188 = AXIS2_PLACEMENT_3D ( 'NONE', #140, #54, #101 ) ;
#189 = FACE_OUTER_BOUND ( 'NONE', #196, .T. ) ;
#190 = PRODUCT ( '59618', '59618', '', ( #144 ) ) ;
#191 = ORIENTED_EDGE ( 'NONE', *, *, #240, .F. ) ;
#192 = CARTESIAN_POINT ( 'NONE',  ( 0.000000000000000000, 40.00000000000000000, 0.000000000000000000 ) ) ;
#193 = ORIENTED_EDGE ( 'NONE', *, *, #218, .F. ) ;
#194 = SURFACE_STYLE_USAGE ( .BOTH. , #88 ) ;
#195 = CIRCLE ( 'NONE', #173, 8.000000000000001776 ) ;
#196 = EDGE_LOOP ( 'NONE', ( #158, #176, #89, #268 ) ) ;
#197 = ORIENTED_EDGE ( 'NONE', *, *, #86, .F. ) ;
#198 = SURFACE_STYLE_USAGE ( .BOTH. , #10 ) ;
#199 = SURFACE_SIDE_STYLE ('',( #217 ) ) ;
#200 = STYLED_ITEM ( 'NONE', ( #66 ), #25 ) ;
#201 = CIRCLE ( 'NONE', #20, 8.000000000000000000 ) ;
#202 =( LENGTH_UNIT ( ) NAMED_UNIT ( * ) SI_UNIT ( .MILLI., .METRE. ) );
#203 = DIRECTION ( 'NONE',  ( -3.498990854706722745E-17, 1.000000000000000000, -0.000000000000000000 ) ) ;
#204 = DIRECTION ( 'NONE',  ( -0.000000000000000000, -1.000000000000000000, -0.000000000000000000 ) ) ;
#205 =( NAMED_UNIT ( * ) SI_UNIT ( $, .STERADIAN. ) SOLID_ANGLE_UNIT ( ) );
#206 = CARTESIAN_POINT ( 'NONE',  ( -1.714505518806293849E-15, 89.00000000000000000, 0.000000000000000000 ) ) ;
#207 = COLOUR_RGB ( '',1.000000000000000000, 0.000000000000000000, 0.000000000000000000 ) ;
#208 = AXIS2_PLACEMENT_3D ( 'NONE', #142, #228, #78 ) ;
#209 = VERTEX_POINT ( 'NONE', #139 ) ;
#210 = DIRECTION ( 'NONE',  ( -3.498990854706722745E-17, 1.000000000000000000, -0.000000000000000000 ) ) ;
#211 = CIRCLE ( 'NONE', #208, 8.000000000000000000 ) ;
#212 = EDGE_LOOP ( 'NONE', ( #32, #85, #191, #216 ) ) ;
#213 = STYLED_ITEM ( 'NONE', ( #24 ), #55 ) ;
#214 = PRODUCT_DEFINITION_FORMATION_WITH_SPECIFIED_SOURCE ( 'ANY', '', #190, .NOT_KNOWN. ) ;
#215 = FILL_AREA_STYLE_COLOUR ( '', #207 ) ;
#216 = ORIENTED_EDGE ( 'NONE', *, *, #243, .F. ) ;
#217 = SURFACE_STYLE_FILL_AREA ( #133 ) ;
#218 = EDGE_CURVE ( 'NONE', #209, #249, #36, .T. ) ;
#219 = AXIS2_PLACEMENT_3D ( 'NONE', #28, #156, #52 ) ;
#220 = FILL_AREA_STYLE ('',( #174 ) ) ;
#221 = FILL_AREA_STYLE_COLOUR ( '', #238 ) ;
#222 = SURFACE_STYLE_FILL_AREA ( #93 ) ;
#223 = AXIS2_PLACEMENT_3D ( 'NONE', #192, #106, #109 ) ;
#224 =( GEOMETRIC_REPRESENTATION_CONTEXT ( 3 ) GLOBAL_UNCERTAINTY_ASSIGNED_CONTEXT ( ( #60 ) ) GLOBAL_UNIT_ASSIGNED_CONTEXT ( ( #160, #103, #183 ) ) REPRESENTATION_CONTEXT ( 'NONE', 'WORKASPACE' ) );
#225 = UNCERTAINTY_MEASURE_WITH_UNIT (LENGTH_MEASURE( 1.000000000000000082E-05 ), #202, 'distance_accuracy_value', 'NONE');
#226 = LINE ( 'NONE', #118, #148 ) ;
#227 = FILL_AREA_STYLE_COLOUR ( '', #39 ) ;
#228 = DIRECTION ( 'NONE',  ( -0.000000000000000000, -1.000000000000000000, -0.000000000000000000 ) ) ;
#229 = EDGE_CURVE ( 'NONE', #184, #261, #211, .T. ) ;
#230 = APPLICATION_CONTEXT ( 'automotive_design' ) ;
#231 =( NAMED_UNIT ( * ) SI_UNIT ( $, .STERADIAN. ) SOLID_ANGLE_UNIT ( ) );
#232 = PRODUCT_DEFINITION_SHAPE ( 'NONE', 'NONE',  #145 ) ;
#233 = CIRCLE ( 'NONE', #223, 8.000000000000000000 ) ;
#234 = ORIENTED_EDGE ( 'NONE', *, *, #229, .F. ) ;
#235 = ADVANCED_FACE ( 'NONE', ( #157 ), #255, .T. ) ;
#236 = ORIENTED_EDGE ( 'NONE', *, *, #40, .F. ) ;
#237 = STYLED_ITEM ( 'NONE', ( #9 ), #120 ) ;
#238 = COLOUR_RGB ( '',1.000000000000000000, 0.000000000000000000, 0.000000000000000000 ) ;
#239 = APPLICATION_PROTOCOL_DEFINITION ( 'draft international standard', 'automotive_design', 1998, #182 ) ;
#240 = EDGE_CURVE ( 'NONE', #151, #143, #83, .T. ) ;
#241 = AXIS2_PLACEMENT_3D ( 'NONE', #281, #122, #124 ) ;
#242 = DIRECTION ( 'NONE',  ( -1.000000000000000000, 0.000000000000000000, 0.000000000000000000 ) ) ;
#243 = EDGE_CURVE ( 'NONE', #57, #151, #260, .T. ) ;
#244 = FACE_OUTER_BOUND ( 'NONE', #212, .T. ) ;
#245 = SURFACE_STYLE_FILL_AREA ( #220 ) ;
#246 = CARTESIAN_POINT ( 'NONE',  ( 0.000000000000000000, 40.00000000000000000, 0.000000000000000000 ) ) ;
#247 =( GEOMETRIC_REPRESENTATION_CONTEXT ( 3 ) GLOBAL_UNCERTAINTY_ASSIGNED_CONTEXT ( ( #279 ) ) GLOBAL_UNIT_ASSIGNED_CONTEXT ( ( #65, #47, #62 ) ) REPRESENTATION_CONTEXT ( 'NONE', 'WORKASPACE' ) );
#248 = LINE ( 'NONE', #149, #269 ) ;
#249 = VERTEX_POINT ( 'NONE', #15 ) ;
#250 = CARTESIAN_POINT ( 'NONE',  ( 0.000000000000000000, 0.000000000000000000, -8.000000000000000000 ) ) ;
#251 = PLANE ( 'NONE',  #110 ) ;
#252 = LINE ( 'NONE', #250, #263 ) ;
#253 = PRESENTATION_LAYER_ASSIGNMENT (  '', '', ( #61 ) ) ;
#254 = CARTESIAN_POINT ( 'NONE',  ( 0.000000000000000000, 40.00000000000000000, -8.000000000000000000 ) ) ;
#255 = CYLINDRICAL_SURFACE ( 'NONE', #71, 8.000000000000000000 ) ;
#256 = SURFACE_SIDE_STYLE ('',( #259 ) ) ;
#257 = PRESENTATION_STYLE_ASSIGNMENT (( #162 ) ) ;
#258 = ADVANCED_BREP_SHAPE_REPRESENTATION ( '59618', ( #120, #25, #278 ), #224 ) ;
#259 = SURFACE_STYLE_FILL_AREA ( #186 ) ;
#260 = LINE ( 'NONE', #185, #127 ) ;
#261 = VERTEX_POINT ( 'NONE', #59 ) ;
#262 = PRESENTATION_LAYER_ASSIGNMENT (  '', '', ( #135 ) ) ;
#263 = VECTOR ( 'NONE', #97, 1000.000000000000000 ) ;
#264 = CIRCLE ( 'NONE', #179, 8.000000000000000000 ) ;
#265 = ORIENTED_EDGE ( 'NONE', *, *, #40, .T. ) ;
#266 = DIRECTION ( 'NONE',  ( 0.000000000000000000, 0.000000000000000000, -1.000000000000000000 ) ) ;
#267 = PLANE ( 'NONE',  #163 ) ;
#268 = ORIENTED_EDGE ( 'NONE', *, *, #99, .F. ) ;
#269 = VECTOR ( 'NONE', #21, 1000.000000000000000 ) ;
#270 =( NAMED_UNIT ( * ) SI_UNIT ( $, .STERADIAN. ) SOLID_ANGLE_UNIT ( ) );
#271 =( LENGTH_UNIT ( ) NAMED_UNIT ( * ) SI_UNIT ( .MILLI., .METRE. ) );
#272 = SURFACE_STYLE_FILL_AREA ( #275 ) ;
#273 = UNCERTAINTY_MEASURE_WITH_UNIT (LENGTH_MEASURE( 1.000000000000000082E-05 ), #105, 'distance_accuracy_value', 'NONE');
#274 = DIRECTION ( 'NONE',  ( 1.000000000000000000, 3.498990854706722745E-17, 0.000000000000000000 ) ) ;
#275 = FILL_AREA_STYLE ('',( #227 ) ) ;
#276 = ORIENTED_EDGE ( 'NONE', *, *, #121, .F. ) ;
#277 = CYLINDRICAL_SURFACE ( 'NONE', #219, 8.000000000000000000 ) ;
#278 = AXIS2_PLACEMENT_3D ( 'NONE', #126, #14, #283 ) ;
#279 = UNCERTAINTY_MEASURE_WITH_UNIT (LENGTH_MEASURE( 1.000000000000000082E-05 ), #65, 'distance_accuracy_value', 'NONE');
#280 = CARTESIAN_POINT ( 'NONE',  ( 8.000000000000000000, 89.00000000000000000, 9.797174393178825657E-16 ) ) ;
#281 = CARTESIAN_POINT ( 'NONE',  ( -1.714505518806293849E-15, 89.00000000000000000, 0.000000000000000000 ) ) ;
#282 =( GEOMETRIC_REPRESENTATION_CONTEXT ( 3 ) GLOBAL_UNCERTAINTY_ASSIGNED_CONTEXT ( ( #225 ) ) GLOBAL_UNIT_ASSIGNED_CONTEXT ( ( #202, #4, #111 ) ) REPRESENTATION_CONTEXT ( 'NONE', 'WORKASPACE' ) );
#283 = DIRECTION ( 'NONE',  ( 1.000000000000000000, 0.000000000000000000, 0.000000000000000000 ) ) ;
#284 = UNCERTAINTY_MEASURE_WITH_UNIT (LENGTH_MEASURE( 1.000000000000000082E-05 ), #117, 'distance_accuracy_value', 'NONE');
#285 = AXIS2_PLACEMENT_3D ( 'NONE', #67, #38, #242 ) ;
#286 = MECHANICAL_DESIGN_GEOMETRIC_PRESENTATION_REPRESENTATION (  '', ( #81 ), #136 ) ;
#287 = CLOSED_SHELL ( 'NONE', ( #235, #1, #161, #55 ) ) ;
#288 = DIRECTION ( 'NONE',  ( -3.498990854706722745E-17, 1.000000000000000000, -0.000000000000000000 ) ) ;
ENDSEC;
END-ISO-10303-21;
